999
DXF file: C:\Users\sesa63760\Dev\_Creo\CAD\MCADPD0005320_3D-CAD\drw0001_6.dxf
999
Pro/ENGINEER 2019471 by Parametric Technology Corporation
  0
SECTION
  2
HEADER
  9
$ACADVER
  1
AC1024
  9
$DWGCODEPAGE
  3
ANSI_1252
  9
$EXTMAX
 10
500.6953340848
 20
708.1262582057
 30
0.0
  9
$EXTMIN
 10
0.0
 20
0.0
 30
0.0
  9
$LIMMIN
 10
0.0
 20
0.0
  9
$LIMMAX
 10
500.6953340848
 20
708.1262582057
  9
$VIEWCTR
 10
250.3476670424
 20
354.0631291028
  9
$VIEWSIZE
 40
708.1262582057
  9
$CLAYER
  8
0
  9
$LTSCALE
 40
46.1593412756
  9
$CELTYPE
  6
BYLAYER
  9
$DIMSCALE
 40
1.0
  9
$DIMASZ
 40
5.9606587391
  9
$DIMEXO
 40
1.0
  9
$DIMDLI
 40
31.8919085177
  9
$DIMEXE
 40
1.0
  9
$DIMCEN
 40
7.5533467542
  9
$DIMLFAC
 40
1.0
  9
$DIMBLK
  1
_FILLED
  9
$DIMALT
 70
0
  9
$DIMALTF
 40
0.0393700787
  9
$DIMTXT
 40
8.3449222347
  9
$DIMTOL
 70
1
  9
$DIMLIM
 70
0
  9
$DIMTFAC
 40
1.0
  9
$DIMTP
 40
0.01
  9
$DIMTM
 40
0.01
  9
$DIMGAP
 40
0.625
  9
$DIMDSEP
 70
46
  9
$AUNITS
 70
0
  9
$PDMODE
 70
3
  9
$PDSIZE
 40
0.3125
  9
$HANDSEED
  5
2A2
  9
$TILEMODE
 70
1
  9
$MEASUREMENT
 70
1
  9
$INSUNITS
 70
4
  0
ENDSEC
  0
SECTION
  2
CLASSES
  0
CLASS
  1
ACDBDICTIONARYWDFLT
  2
AcDbDictionaryWithDefault
  3
AutoCAD 2000
 90
0
 91
1
280
0
281
0
  0
CLASS
  1
ACDBPLACEHOLDER
  2
AcDbPlaceHolder
  3
AutoCAD 2000
 90
0
 91
1
280
0
281
0
  0
CLASS
  1
LAYOUT
  2
AcDbLayout
  3
AutoCAD 2000
 90
0
 91
0
280
0
281
0
  0
ENDSEC
  0
SECTION
  2
TABLES
  0
TABLE
  2
VPORT
  5
8
100
AcDbSymbolTable
 70
2
  0
VPORT
  5
1F4
100
AcDbSymbolTableRecord
100
AcDbViewportTableRecord
  2
*ACTIVE
 70
0
 10
0.0
 20
0.0
 11
1.0
 21
1.0
 12
250.3476670424
 22
354.0631291028
 13
0.0
 23
0.0
 14
1.0
 24
1.0
 15
0.0
 25
0.0
 16
0.0
 26
0.0
 36
1.0
 17
0.0
 27
0.0
 37
0.0
 40
708.1262582057
 41
0.7070707071
 42
50.0
 43
0.0
 44
0.0
 50
0.0
 51
0.0
 71
0
 72
100
 73
1
 74
1
 75
0
 76
0
 77
0
 78
0
  0
ENDTAB
  0
TABLE
  2
LTYPE
  5
5
100
AcDbSymbolTable
 70
6
  0
LTYPE
  5
14
100
AcDbSymbolTableRecord
100
AcDbLinetypeTableRecord
  2
BYBLOCK
 70
0
  3

 72
65
 73
0
 40
0.0
  0
LTYPE
  5
15
100
AcDbSymbolTableRecord
100
AcDbLinetypeTableRecord
  2
BYLAYER
 70
0
  3

 72
65
 73
0
 40
0.0
  0
LTYPE
  5
16
100
AcDbSymbolTableRecord
100
AcDbLinetypeTableRecord
  2
CONTINUOUS
 70
64
  3
Solid line
 72
65
 73
0
 40
0.0
  0
LTYPE
  5
1F5
100
AcDbSymbolTableRecord
100
AcDbLinetypeTableRecord
  2
CENTER
 70
64
  3
____ _ ____ _ ____ _ ____ _ ____ _ ____ _ ____
 72
65
 73
4
 40
0.6
 49
0.375
 74
0
 49
-0.075
 74
0
 49
0.075
 74
0
 49
-0.075
 74
0
  0
LTYPE
  5
1F6
100
AcDbSymbolTableRecord
100
AcDbLinetypeTableRecord
  2
HIDDEN
 70
64
  3
- - - - - - - - - - - - - - - - - - - -
 72
65
 73
2
 40
0.2
 49
0.1
 74
0
 49
-0.1
 74
0
  0
LTYPE
  5
1F7
100
AcDbSymbolTableRecord
100
AcDbLinetypeTableRecord
  2
PHANTOM
 70
64
  3
_____ _ _ _____ _ _ _____ _ _ _____
 72
65
 73
6
 40
0.8
 49
0.45
 74
0
 49
-0.05
 74
0
 49
0.1
 74
0
 49
-0.05
 74
0
 49
0.1
 74
0
 49
-0.05
 74
0
  0
LTYPE
  5
1F8
100
AcDbSymbolTableRecord
100
AcDbLinetypeTableRecord
  2
DOT
 70
64
  3
. . . . . . . . . . . . . . . . . . . .
 72
65
 73
2
 40
0.2
 49
0.1
 74
0
 49
-0.1
 74
0
  0
LTYPE
  5
1F9
100
AcDbSymbolTableRecord
100
AcDbLinetypeTableRecord
  2
DASHED
 70
64
  3
- - - - - - - - - - - - - - - - - - - -
 72
65
 73
2
 40
0.2
 49
0.1
 74
0
 49
-0.1
 74
0
  0
ENDTAB
  0
TABLE
  2
LAYER
  5
2
100
AcDbSymbolTable
 70
36
  0
LAYER
  5
10
100
AcDbSymbolTableRecord
100
AcDbLayerTableRecord
  2
0
 70
0
 62
7
  6
CONTINUOUS
370
-3
390
F
  0
LAYER
  5
1FA
100
AcDbSymbolTableRecord
100
AcDbLayerTableRecord
  2
DEFAULT_1
 70
0
 62
7
  6
CENTER
370
-3
390
F
  0
LAYER
  5
1FB
100
AcDbSymbolTableRecord
100
AcDbLayerTableRecord
  2
DEFAULT_2
 70
0
 62
7
  6
HIDDEN
370
-3
390
F
  0
LAYER
  5
1FC
100
AcDbSymbolTableRecord
100
AcDbLayerTableRecord
  2
DEFAULT_3
 70
0
 62
7
  6
PHANTOM
370
-3
390
F
  0
LAYER
  5
1FD
100
AcDbSymbolTableRecord
100
AcDbLayerTableRecord
  2
00_COMPONENTS
 70
0
 62
7
  6
CONTINUOUS
370
-3
390
F
  0
LAYER
  5
1FE
100
AcDbSymbolTableRecord
100
AcDbLayerTableRecord
  2
01_1_DEFAULT_DATUMS
 70
0
 62
7
  6
CONTINUOUS
370
-3
390
F
  0
LAYER
  5
1FF
100
AcDbSymbolTableRecord
100
AcDbLayerTableRecord
  2
01_PLANES
 70
0
 62
7
  6
CONTINUOUS
370
-3
390
F
  0
LAYER
  5
200
100
AcDbSymbolTableRecord
100
AcDbLayerTableRecord
  2
02_COORD_SYS
 70
0
 62
7
  6
CONTINUOUS
370
-3
390
F
  0
LAYER
  5
201
100
AcDbSymbolTableRecord
100
AcDbLayerTableRecord
  2
03_AXES
 70
0
 62
7
  6
CONTINUOUS
370
-3
390
F
  0
LAYER
  5
202
100
AcDbSymbolTableRecord
100
AcDbLayerTableRecord
  2
04_POINTS
 70
0
 62
7
  6
CONTINUOUS
370
-3
390
F
  0
LAYER
  5
203
100
AcDbSymbolTableRecord
100
AcDbLayerTableRecord
  2
05_CURVES
 70
0
 62
7
  6
CONTINUOUS
370
-3
390
F
  0
LAYER
  5
204
100
AcDbSymbolTableRecord
100
AcDbLayerTableRecord
  2
06_SURFS
 70
0
 62
7
  6
CONTINUOUS
370
-3
390
F
  0
LAYER
  5
205
100
AcDbSymbolTableRecord
100
AcDbLayerTableRecord
  2
07_COSMETICS
 70
0
 62
7
  6
CONTINUOUS
370
-3
390
F
  0
LAYER
  5
206
100
AcDbSymbolTableRecord
100
AcDbLayerTableRecord
  2
10_NOTES
 70
0
 62
7
  6
CONTINUOUS
370
-3
390
F
  0
LAYER
  5
207
100
AcDbSymbolTableRecord
100
AcDbLayerTableRecord
  2
11_NOTES_PUB
 70
0
 62
7
  6
CONTINUOUS
370
-3
390
F
  0
LAYER
  5
208
100
AcDbSymbolTableRecord
100
AcDbLayerTableRecord
  2
13_REF_GTOL
 70
0
 62
7
  6
CONTINUOUS
370
-3
390
F
  0
LAYER
  5
209
100
AcDbSymbolTableRecord
100
AcDbLayerTableRecord
  2
16_MISC
 70
0
 62
7
  6
CONTINUOUS
370
-3
390
F
  0
LAYER
  5
20A
100
AcDbSymbolTableRecord
100
AcDbLayerTableRecord
  2
17_NO_PRINT
 70
0
 62
7
  6
CONTINUOUS
370
-3
390
F
  0
LAYER
  5
20B
100
AcDbSymbolTableRecord
100
AcDbLayerTableRecord
  2
18_DATUM_CAMS_JOINTS
 70
0
 62
7
  6
CONTINUOUS
370
-3
390
F
  0
LAYER
  5
20C
100
AcDbSymbolTableRecord
100
AcDbLayerTableRecord
  2
19_DATUM_FUNCTIONAL
 70
0
 62
7
  6
CONTINUOUS
370
-3
390
F
  0
LAYER
  5
20D
100
AcDbSymbolTableRecord
100
AcDbLayerTableRecord
  2
20_DATUM_KINEMATIC_SCHEME
 70
0
 62
7
  6
CONTINUOUS
370
-3
390
F
  0
ENDTAB
  0
TABLE
  2
STYLE
  5
3
100
AcDbSymbolTable
 70
1
  0
STYLE
  5
11
100
AcDbSymbolTableRecord
100
AcDbTextStyleTableRecord
  2
STANDARD
 70
0
 40
0.0
 41
1.0
 50
0.0
 71
0
 42
0.2
  3
ARIAL.TTF
  4

  0
STYLE
  5
20E
100
AcDbSymbolTableRecord
100
AcDbTextStyleTableRecord
  2
TEXTSTYLE_1
 70
0
 40
0.0
 41
0.8
 50
0.0
 71
0
 42
0.2
  3
gdt
  4

  0
ENDTAB
  0
TABLE
  2
VIEW
  5
6
100
AcDbSymbolTable
 70
0
  0
ENDTAB
  0
TABLE
  2
UCS
  5
7
100
AcDbSymbolTable
 70
0
  0
ENDTAB
  0
TABLE
  2
APPID
  5
9
100
AcDbSymbolTable
 70
1
  0
APPID
  5
20F
100
AcDbSymbolTableRecord
100
AcDbRegAppTableRecord
  2
ACAD
 70
0
  0
ENDTAB
  0
TABLE
  2
BLOCK_RECORD
  5
1
100
AcDbSymbolTable
 70
0
  0
BLOCK_RECORD
  5
210
100
AcDbSymbolTableRecord
100
AcDbBlockTableRecord
  2
*Model_Space
  0
BLOCK_RECORD
  5
211
100
AcDbSymbolTableRecord
100
AcDbBlockTableRecord
  2
*Paper_Space
  0
BLOCK_RECORD
  5
212
100
AcDbSymbolTableRecord
100
AcDbBlockTableRecord
  2
_FILLED
  0
ENDTAB
  0
TABLE
  2
DIMSTYLE
  5
A
100
AcDbSymbolTable
 70
1
100
AcDbDimStyleTable
 71
0
  0
DIMSTYLE
105
213
100
AcDbSymbolTableRecord
100
AcDbDimStyleTableRecord
  2
STANDARD
 70
0
  3

  4

 40
1.0
 41
5.9606587391
 42
1.0
 43
0.38
 44
1.0
 45
0.0
 46
0.0
 47
0.01
 48
0.01
140
8.3449222347
141
0.09
142
0.0
143
25.4
144
1.0
145
0.0
146
1.0
147
0.625
 71
1
 72
0
 73
0
 74
0
 75
0
 76
0
 77
1
 78
8
 79
2
170
0
171
1
172
0
173
0
174
0
175
0
176
0
177
0
178
0
270
2
179
2
271
2
272
2
273
2
274
2
275
0
280
0
281
0
282
0
283
1
284
8
285
0
286
0
287
3
288
0
340
11
278
46
341
212
342
212
343
212
344
212
  0
ENDTAB
  0
ENDSEC
  0
SECTION
  2
BLOCKS
  0
BLOCK
  5
20
100
AcDbEntity
  8
0
100
AcDbBlockBegin
  2
*Model_Space
 70
0
 10
0.0
 20
0.0
 30
0.0
  3
*Model_Space
  1

  0
ENDBLK
  5
21
100
AcDbEntity
  8
0
100
AcDbBlockEnd
  0
BLOCK
  5
1C
100
AcDbEntity
  8
0
100
AcDbBlockBegin
  2
*Paper_Space
 70
0
 10
0.0
 20
0.0
 30
0.0
  3
*Paper_Space
  1

  0
ENDBLK
  5
1D
100
AcDbEntity
  8
0
100
AcDbBlockEnd
  0
BLOCK
  5
214
100
AcDbEntity
  8
0
100
AcDbBlockBegin
  2
_FILLED
 70
64
 10
0.0
 20
0.0
  3
_FILLED
  1

  0
SOLID
  5
215
100
AcDbEntity
  8
0
  6
BYBLOCK
 62
0
100
AcDbTrace
 10
0.0
 20
0.0
 11
-1.0
 21
0.25
 12
-1.0
 22
-0.25
 13
-1.0
 23
-0.25
  0
ENDBLK
  5
216
100
AcDbEntity
  8
0
  6
BYBLOCK
 62
0
100
AcDbBlockEnd
  0
ENDSEC
  0
SECTION
  2
ENTITIES
  0
LINE
  5
217
100
AcDbEntity
  8
0
100
AcDbLine
 62
7
  6
BYLAYER
 10
56.6313650731
 20
307.5606668506
 11
56.6313650731
 21
423.5644639177
  0
LINE
  5
218
100
AcDbEntity
  8
0
100
AcDbLine
 62
7
  6
BYLAYER
 10
57.5877456856
 20
350.1431803051
 11
57.5877456856
 21
317.8607805517
  0
LINE
  5
219
100
AcDbEntity
  8
0
100
AcDbLine
 62
7
  6
BYLAYER
 10
57.5877456856
 20
317.5607805517
 11
57.5877456856
 21
309.1617768285
  0
LINE
  5
21A
100
AcDbEntity
  8
0
100
AcDbLine
 62
7
  6
BYLAYER
 10
57.6313650731
 20
424.5655523733
 11
57.6313650731
 21
414.9106382297
  0
LINE
  5
21B
100
AcDbEntity
  8
0
100
AcDbLine
 62
7
  6
BYLAYER
 10
57.6313650731
 20
308.2380332429
 11
57.6313650731
 21
306.5606382297
  0
LINE
  5
21C
100
AcDbEntity
  8
0
100
AcDbLine
 62
7
  6
BYLAYER
 10
58.131365073
 20
317.5607805517
 11
58.131365073
 21
317.8607805517
  0
LINE
  5
21D
100
AcDbEntity
  8
0
100
AcDbLine
 62
7
  6
BYLAYER
 10
78.2313650731
 20
350.1606263694
 11
78.2313650731
 21
424.565497044
  0
LINE
  5
21E
100
AcDbEntity
  8
0
100
AcDbLine
 62
7
  6
BYLAYER
 10
86.980320172
 20
349.5595041517
 11
86.9803201761
 21
309.7450121159
  0
LINE
  5
21F
100
AcDbEntity
  8
0
100
AcDbLine
 62
7
  6
BYLAYER
 10
90.4348479825
 20
347.9320573548
 11
90.4348479825
 21
348.8763332311
  0
LINE
  5
220
100
AcDbEntity
  8
0
100
AcDbLine
 62
7
  6
BYLAYER
 10
90.9102833468
 20
348.4547101846
 11
90.9102833475
 21
347.9320572759
  0
LINE
  5
221
100
AcDbEntity
  8
0
100
AcDbLine
 62
7
  6
BYLAYER
 10
94.6313650731
 20
338.8309807207
 11
94.6313650731
 21
318.2905803822
  0
LINE
  5
222
100
AcDbEntity
  8
0
100
AcDbLine
 62
7
  6
BYLAYER
 10
95.6313650731
 20
339.320034561
 11
95.6313650731
 21
317.8015265431
  0
LINE
  5
223
100
AcDbEntity
  8
0
100
AcDbLine
 62
7
  6
BYLAYER
 10
111.6313650731
 20
284.5607805517
 11
111.6313650731
 21
372.5607805517
  0
LINE
  5
224
100
AcDbEntity
  8
0
100
AcDbLine
 62
7
  6
BYLAYER
 10
112.6313650731
 20
373.5607805517
 11
112.6313650731
 21
283.5607805517
  0
LINE
  5
225
100
AcDbEntity
  8
0
100
AcDbLine
 62
7
  6
BYLAYER
 10
121.1313650731
 20
283.5607805517
 11
121.1313650731
 21
373.5607805517
  0
LINE
  5
226
100
AcDbEntity
  8
0
100
AcDbLine
 62
7
  6
BYLAYER
 10
122.9313650731
 20
288.5607805517
 11
122.9313650731
 21
368.5607805517
  0
LINE
  5
227
100
AcDbEntity
  8
0
100
AcDbLine
 62
7
  6
BYLAYER
 10
134.9313650731
 20
289.5607805517
 11
134.9313650731
 21
367.5607805517
  0
LINE
  5
228
100
AcDbEntity
  8
0
100
AcDbLine
 62
7
  6
BYLAYER
 10
183.9313650731
 20
320.5607805517
 11
183.9313650731
 21
336.5607805517
  0
LINE
  5
229
100
AcDbEntity
  8
0
100
AcDbLine
 62
7
  6
BYLAYER
 10
112.6313650731
 20
283.5607805517
 11
121.1313650731
 21
283.5607805517
  0
LINE
  5
22A
100
AcDbEntity
  8
0
100
AcDbLine
 62
7
  6
BYLAYER
 10
363.0313650731
 20
283.5607805517
 11
452.7313650731
 21
283.5607805517
  0
LINE
  5
22B
100
AcDbEntity
  8
0
100
AcDbLine
 62
7
  6
BYLAYER
 10
111.6313650731
 20
287.0607805517
 11
121.1313650731
 21
287.0607805517
  0
LINE
  5
22C
100
AcDbEntity
  8
0
100
AcDbLine
 62
7
  6
BYLAYER
 10
122.9313650731
 20
288.5607805517
 11
121.1313650731
 21
288.5607805517
  0
LINE
  5
22D
100
AcDbEntity
  8
0
100
AcDbLine
 62
7
  6
BYLAYER
 10
415.4313650731
 20
288.5607805517
 11
440.4313650731
 21
288.5607805517
  0
LINE
  5
22E
100
AcDbEntity
  8
0
100
AcDbLine
 62
7
  6
BYLAYER
 10
367.1313650731
 20
289.0835549767
 11
363.0313650731
 21
289.0835549767
  0
LINE
  5
22F
100
AcDbEntity
  8
0
100
AcDbLine
 62
7
  6
BYLAYER
 10
122.9313650731
 20
289.5607805517
 11
134.9313650731
 21
289.5607805517
  0
LINE
  5
230
100
AcDbEntity
  8
0
100
AcDbLine
 62
7
  6
BYLAYER
 10
452.7313650731
 20
293.5607805517
 11
445.7313650731
 21
293.5607805517
  0
LINE
  5
231
100
AcDbEntity
  8
0
100
AcDbLine
 62
7
  6
BYLAYER
 10
121.1313650731
 20
294.5607805517
 11
122.9313650731
 21
294.5607805517
  0
LINE
  5
232
100
AcDbEntity
  8
0
100
AcDbLine
 62
7
  6
BYLAYER
 10
122.9313650731
 20
299.4597604357
 11
134.9313650731
 21
299.4597600373
  0
LINE
  5
233
100
AcDbEntity
  8
0
100
AcDbLine
 62
7
  6
BYLAYER
 10
363.0313650731
 20
300.0380061268
 11
367.1313650731
 21
300.0380061268
  0
LINE
  5
234
100
AcDbEntity
  8
0
100
AcDbLine
 62
7
  6
BYLAYER
 10
447.7313650731
 20
306.0607805517
 11
452.7313650731
 21
306.0607805517
  0
LINE
  5
235
100
AcDbEntity
  8
0
100
AcDbLine
 62
7
  6
BYLAYER
 10
111.6313650731
 20
306.5606382297
 11
57.6313650731
 21
306.5606382297
  0
LINE
  5
236
100
AcDbEntity
  8
0
100
AcDbLine
 62
7
  6
BYLAYER
 10
415.4313650731
 20
308.5607805517
 11
440.4313650731
 21
308.5607805517
  0
LINE
  5
237
100
AcDbEntity
  8
0
100
AcDbLine
 62
7
  6
BYLAYER
 10
363.0313650731
 20
309.0607805517
 11
359.8313650731
 21
309.0607805517
  0
LINE
  5
238
100
AcDbEntity
  8
0
100
AcDbLine
 62
7
  6
BYLAYER
 10
56.6313650731
 20
309.161790335
 11
57.5877456856
 21
309.161790335
  0
LINE
  5
239
100
AcDbEntity
  8
0
100
AcDbLine
 62
7
  6
BYLAYER
 10
293.9313650731
 20
309.5607805517
 11
294.9313650731
 21
309.5607805517
  0
LINE
  5
23A
100
AcDbEntity
  8
0
100
AcDbLine
 62
7
  6
BYLAYER
 10
359.8313650731
 20
313.0268822465
 11
363.0313650731
 21
313.0268822465
  0
LINE
  5
23B
100
AcDbEntity
  8
0
100
AcDbLine
 62
7
  6
BYLAYER
 10
363.0313650731
 20
315.0607805517
 11
359.8313650731
 21
315.0607805517
  0
LINE
  5
23C
100
AcDbEntity
  8
0
100
AcDbLine
 62
7
  6
BYLAYER
 10
359.8313650731
 20
316.0607805517
 11
363.0313650731
 21
316.0607805517
  0
LINE
  5
23D
100
AcDbEntity
  8
0
100
AcDbLine
 62
7
  6
BYLAYER
 10
58.1313650731
 20
317.5607805517
 11
56.6313650731
 21
317.5607805517
  0
LINE
  5
23E
100
AcDbEntity
  8
0
100
AcDbLine
 62
7
  6
BYLAYER
 10
56.6313650731
 20
317.8607805517
 11
58.131365073
 21
317.8607805517
  0
LINE
  5
23F
100
AcDbEntity
  8
0
100
AcDbLine
 62
7
  6
BYLAYER
 10
415.4313650731
 20
318.5607805517
 11
440.4313650731
 21
318.5607805517
  0
LINE
  5
240
100
AcDbEntity
  8
0
100
AcDbLine
 62
7
  6
BYLAYER
 10
183.9313650731
 20
320.5607805517
 11
134.9313650731
 21
320.5607805517
  0
LINE
  5
241
100
AcDbEntity
  8
0
100
AcDbLine
 62
7
  6
BYLAYER
 10
447.7313650731
 20
321.0607805517
 11
452.7313650731
 21
321.0607805517
  0
LINE
  5
242
100
AcDbEntity
  8
0
100
AcDbLine
 62
7
  6
BYLAYER
 10
358.9313650731
 20
321.5607805517
 11
359.8313650731
 21
321.5607805517
  0
LINE
  5
243
100
AcDbEntity
  8
0
100
AcDbLine
 62
7
  6
BYLAYER
 10
296.2313650731
 20
322.3107805517
 11
295.4313650731
 21
322.3107805517
  0
LINE
  5
244
100
AcDbEntity
  8
0
100
AcDbLine
 62
7
  6
BYLAYER
 10
294.9313650731
 20
324.3107805517
 11
296.7313650731
 21
324.3107805517
  0
LINE
  5
245
100
AcDbEntity
  8
0
100
AcDbLine
 62
7
  6
BYLAYER
 10
183.9313650731
 20
324.5607805517
 11
293.9313650731
 21
324.5607805517
  0
LINE
  5
246
100
AcDbEntity
  8
0
100
AcDbLine
 62
7
  6
BYLAYER
 10
296.7313650731
 20
324.5607805517
 11
358.9313650731
 21
324.5607805517
  0
LINE
  5
247
100
AcDbEntity
  8
0
100
AcDbLine
 62
7
  6
BYLAYER
 10
183.9313650731
 20
332.5607805517
 11
293.9313650731
 21
332.5607805517
  0
LINE
  5
248
100
AcDbEntity
  8
0
100
AcDbLine
 62
7
  6
BYLAYER
 10
296.7313650731
 20
332.5607805517
 11
358.9313650731
 21
332.5607805517
  0
LINE
  5
249
100
AcDbEntity
  8
0
100
AcDbLine
 62
7
  6
BYLAYER
 10
296.7313650731
 20
332.8107805517
 11
294.9313650731
 21
332.8107805517
  0
LINE
  5
24A
100
AcDbEntity
  8
0
100
AcDbLine
 62
7
  6
BYLAYER
 10
445.7313650731
 20
333.5607805517
 11
452.7313650731
 21
333.5607805517
  0
LINE
  5
24B
100
AcDbEntity
  8
0
100
AcDbLine
 62
7
  6
BYLAYER
 10
295.4313650731
 20
334.8107805517
 11
296.2313650731
 21
334.8107805517
  0
LINE
  5
24C
100
AcDbEntity
  8
0
100
AcDbLine
 62
7
  6
BYLAYER
 10
358.9313650731
 20
335.5607805517
 11
359.8313650731
 21
335.5607805517
  0
LINE
  5
24D
100
AcDbEntity
  8
0
100
AcDbLine
 62
7
  6
BYLAYER
 10
134.9313650731
 20
336.5607805517
 11
183.9313650731
 21
336.5607805517
  0
LINE
  5
24E
100
AcDbEntity
  8
0
100
AcDbLine
 62
7
  6
BYLAYER
 10
415.4313650731
 20
338.5607805517
 11
440.4313650731
 21
338.5607805517
  0
LINE
  5
24F
100
AcDbEntity
  8
0
100
AcDbLine
 62
7
  6
BYLAYER
 10
363.0313650731
 20
341.0607805517
 11
359.8313650731
 21
341.0607805517
  0
LINE
  5
250
100
AcDbEntity
  8
0
100
AcDbLine
 62
7
  6
BYLAYER
 10
57.4869536773
 20
350.1548036226
 11
78.2313650731
 21
350.1606263694
  0
LINE
  5
251
100
AcDbEntity
  8
0
100
AcDbLine
 62
7
  6
BYLAYER
 10
359.8313650731
 20
342.0607805517
 11
363.0313650731
 21
342.0607805517
  0
LINE
  5
252
100
AcDbEntity
  8
0
100
AcDbLine
 62
7
  6
BYLAYER
 10
359.8313650731
 20
344.0946788569
 11
363.0313650731
 21
344.0946788569
  0
LINE
  5
253
100
AcDbEntity
  8
0
100
AcDbLine
 62
7
  6
BYLAYER
 10
111.6313650731
 20
347.0901936985
 11
92.2928752734
 21
347.0901936068
  0
LINE
  5
254
100
AcDbEntity
  8
0
100
AcDbLine
 62
7
  6
BYLAYER
 10
293.9313650731
 20
347.5607805517
 11
294.9313650731
 21
347.5607805517
  0
LINE
  5
255
100
AcDbEntity
  8
0
100
AcDbLine
 62
7
  6
BYLAYER
 10
90.4348479825
 20
347.9320573548
 11
111.6313650731
 21
347.9320066821
  0
LINE
  5
256
100
AcDbEntity
  8
0
100
AcDbLine
 62
7
  6
BYLAYER
 10
363.0313650731
 20
348.0607805517
 11
359.8313650731
 21
348.0607805517
  0
LINE
  5
257
100
AcDbEntity
  8
0
100
AcDbLine
 62
7
  6
BYLAYER
 10
111.6313650731
 20
348.4547101846
 11
90.9102833468
 21
348.4547101846
  0
LINE
  5
258
100
AcDbEntity
  8
0
100
AcDbLine
 62
7
  6
BYLAYER
 10
415.4313650731
 20
348.5607805517
 11
440.4313650731
 21
348.5607805517
  0
LINE
  5
259
100
AcDbEntity
  8
0
100
AcDbLine
 62
7
  6
BYLAYER
 10
89.5358230878
 20
349.2861675742
 11
111.6313650731
 21
349.2861681645
  0
LINE
  5
25A
100
AcDbEntity
  8
0
100
AcDbLine
 62
7
  6
BYLAYER
 10
78.2313650731
 20
351.5238670025
 11
111.6313650731
 21
351.5238670025
  0
LINE
  5
25B
100
AcDbEntity
  8
0
100
AcDbLine
 62
7
  6
BYLAYER
 10
111.6313650731
 20
351.7605696712
 11
78.2313650731
 21
351.7605696712
  0
LINE
  5
25C
100
AcDbEntity
  8
0
100
AcDbLine
 62
7
  6
BYLAYER
 10
367.1313650731
 20
357.0835549767
 11
363.0313650731
 21
357.0835549767
  0
LINE
  5
25D
100
AcDbEntity
  8
0
100
AcDbLine
 62
7
  6
BYLAYER
 10
122.9313650731
 20
357.6618009668
 11
134.9313650731
 21
357.6618010661
  0
LINE
  5
25E
100
AcDbEntity
  8
0
100
AcDbLine
 62
7
  6
BYLAYER
 10
122.9313650731
 20
362.5607805517
 11
121.1313650731
 21
362.5607805517
  0
LINE
  5
25F
100
AcDbEntity
  8
0
100
AcDbLine
 62
7
  6
BYLAYER
 10
122.9313650731
 20
367.5607805517
 11
134.9313650731
 21
367.5607805517
  0
LINE
  5
260
100
AcDbEntity
  8
0
100
AcDbLine
 62
7
  6
BYLAYER
 10
363.0313650731
 20
368.0380061268
 11
367.1313650731
 21
368.0380061268
  0
LINE
  5
261
100
AcDbEntity
  8
0
100
AcDbLine
 62
7
  6
BYLAYER
 10
121.1313650731
 20
368.5607805517
 11
122.9313650731
 21
368.5607805517
  0
LINE
  5
262
100
AcDbEntity
  8
0
100
AcDbLine
 62
7
  6
BYLAYER
 10
415.4313650731
 20
368.5607805517
 11
440.4313650731
 21
368.5607805517
  0
LINE
  5
263
100
AcDbEntity
  8
0
100
AcDbLine
 62
7
  6
BYLAYER
 10
111.6313650731
 20
370.0607805517
 11
121.1313650731
 21
370.0607805517
  0
LINE
  5
264
100
AcDbEntity
  8
0
100
AcDbLine
 62
7
  6
BYLAYER
 10
112.6313650731
 20
373.5607805517
 11
121.1313650731
 21
373.5607805517
  0
LINE
  5
265
100
AcDbEntity
  8
0
100
AcDbLine
 62
7
  6
BYLAYER
 10
363.0313650731
 20
373.5607805517
 11
452.7313650731
 21
373.5607805517
  0
LINE
  5
266
100
AcDbEntity
  8
0
100
AcDbLine
 62
7
  6
BYLAYER
 10
293.9313650731
 20
347.5607805517
 11
293.9313650731
 21
309.5607805517
  0
LINE
  5
267
100
AcDbEntity
  8
0
100
AcDbLine
 62
7
  6
BYLAYER
 10
294.9313650731
 20
309.5607805517
 11
294.9313650731
 21
347.5607805517
  0
LINE
  5
268
100
AcDbEntity
  8
0
100
AcDbLine
 62
7
  6
BYLAYER
 10
295.4313650731
 20
334.8107805517
 11
295.4313650731
 21
322.3107805517
  0
LINE
  5
269
100
AcDbEntity
  8
0
100
AcDbLine
 62
7
  6
BYLAYER
 10
296.2313650731
 20
322.3107805517
 11
296.2313650731
 21
334.8107805517
  0
LINE
  5
26A
100
AcDbEntity
  8
0
100
AcDbLine
 62
7
  6
BYLAYER
 10
296.7313650731
 20
322.8107805517
 11
296.7313650731
 21
334.3107805517
  0
LINE
  5
26B
100
AcDbEntity
  8
0
100
AcDbLine
 62
7
  6
BYLAYER
 10
78.2313650731
 20
414.9106382297
 11
56.6313650731
 21
414.9106373998
  0
LINE
  5
26C
100
AcDbEntity
  8
0
100
AcDbLine
 62
7
  6
BYLAYER
 10
78.2313650731
 20
424.5655523733
 11
57.6313650731
 21
424.5655523733
  0
LINE
  5
26D
100
AcDbEntity
  8
0
100
AcDbLine
 62
7
  6
BYLAYER
 10
358.9313650731
 20
335.5607805517
 11
358.9313650731
 21
321.5607805517
  0
LINE
  5
26E
100
AcDbEntity
  8
0
100
AcDbLine
 62
7
  6
BYLAYER
 10
359.8313650731
 20
348.0607351304
 11
359.8313650731
 21
309.0608259731
  0
LINE
  5
26F
100
AcDbEntity
  8
0
100
AcDbLine
 62
7
  6
BYLAYER
 10
363.0313650731
 20
373.5607805517
 11
363.0313650731
 21
283.5607805517
  0
LINE
  5
270
100
AcDbEntity
  8
0
100
AcDbLine
 62
7
  6
BYLAYER
 10
367.1313650731
 20
289.0835549767
 11
367.1313650731
 21
300.0380061268
  0
LINE
  5
271
100
AcDbEntity
  8
0
100
AcDbLine
 62
7
  6
BYLAYER
 10
367.1313650731
 20
357.0835549767
 11
367.1313650731
 21
368.0380061268
  0
LINE
  5
272
100
AcDbEntity
  8
0
100
AcDbLine
 62
7
  6
BYLAYER
 10
385.2313650731
 20
373.5607805517
 11
385.2313650731
 21
283.5607805517
  0
LINE
  5
273
100
AcDbEntity
  8
0
100
AcDbLine
 62
7
  6
BYLAYER
 10
400.4313650731
 20
373.5607805517
 11
400.4313650731
 21
283.5607805517
  0
LINE
  5
274
100
AcDbEntity
  8
0
100
AcDbLine
 62
7
  6
BYLAYER
 10
409.7588394967
 20
336.5529084336
 11
409.7588386011
 21
320.5633950542
  0
LINE
  5
275
100
AcDbEntity
  8
0
100
AcDbLine
 62
7
  6
BYLAYER
 10
409.7588367412
 20
306.5529056789
 11
409.7588367412
 21
290.5633969349
  0
LINE
  5
276
100
AcDbEntity
  8
0
100
AcDbLine
 62
7
  6
BYLAYER
 10
409.7588367412
 20
350.5633969349
 11
409.7588367412
 21
366.5529056789
  0
LINE
  5
277
100
AcDbEntity
  8
0
100
AcDbLine
 62
7
  6
BYLAYER
 10
434.7313650731
 20
288.5607805517
 11
434.7313650731
 21
308.5607805517
  0
LINE
  5
278
100
AcDbEntity
  8
0
100
AcDbLine
 62
7
  6
BYLAYER
 10
434.7313650731
 20
318.5607805517
 11
434.7313650731
 21
338.5607805517
  0
LINE
  5
279
100
AcDbEntity
  8
0
100
AcDbLine
 62
7
  6
BYLAYER
 10
434.7313650731
 20
348.5607805517
 11
434.7313650731
 21
368.5607805517
  0
LINE
  5
27A
100
AcDbEntity
  8
0
100
AcDbLine
 62
7
  6
BYLAYER
 10
440.4313650731
 20
283.5607805517
 11
440.4313650731
 21
373.5607805517
  0
LINE
  5
27B
100
AcDbEntity
  8
0
100
AcDbLine
 62
7
  6
BYLAYER
 10
445.7313650731
 20
293.5607805517
 11
445.7313650731
 21
333.5607805517
  0
LINE
  5
27C
100
AcDbEntity
  8
0
100
AcDbLine
 62
7
  6
BYLAYER
 10
447.7313650731
 20
326.7784505686
 11
447.7313650731
 21
300.3431105348
  0
LINE
  5
27D
100
AcDbEntity
  8
0
100
AcDbLine
 62
7
  6
BYLAYER
 10
452.7313650731
 20
283.5607805517
 11
452.7313650731
 21
373.5607805517
  0
ARC
  5
27E
100
AcDbEntity
  8
0
100
AcDbCircle
 62
7
  6
BYLAYER
 10
-91.8018516256
 20
8578.6831348112
 40
8270.8706157162
100
AcDbArc
 50
271.0349404916
 51
271.2385953358
  0
ARC
  5
27F
100
AcDbEntity
  8
0
100
AcDbCircle
 62
7
  6
BYLAYER
 10
-92.1551109532
 20
8220.5880370726
 40
7913.7676596867
100
AcDbArc
 50
271.0845207709
 51
271.2973694935
  0
ARC
  5
280
100
AcDbEntity
  8
0
100
AcDbCircle
 62
7
  6
BYLAYER
 10
415.4313650731
 20
298.5607805517
 40
10.0
100
AcDbArc
 50
90.0
 51
270.0
  0
ARC
  5
281
100
AcDbEntity
  8
0
100
AcDbCircle
 62
7
  6
BYLAYER
 10
415.4313650731
 20
358.5607805517
 40
10.0
100
AcDbArc
 50
90.0
 51
270.0
  0
ARC
  5
282
100
AcDbEntity
  8
0
100
AcDbCircle
 62
7
  6
BYLAYER
 10
415.4313650731
 20
328.5607805517
 40
10.0
100
AcDbArc
 50
90.0
 51
270.0
  0
ARC
  5
283
100
AcDbEntity
  8
0
100
AcDbCircle
 62
7
  6
BYLAYER
 10
57.6313650731
 20
423.5655523733
 40
1.0
100
AcDbArc
 50
90.0
 51
180.0
  0
ARC
  5
284
100
AcDbEntity
  8
0
100
AcDbCircle
 62
7
  6
BYLAYER
 10
57.6313650731
 20
307.5606382297
 40
1.0
100
AcDbArc
 50
180.0
 51
270.0
  0
ARC
  5
285
100
AcDbEntity
  8
0
100
AcDbCircle
 62
7
  6
BYLAYER
 10
112.6313650731
 20
372.5607805517
 40
1.0
100
AcDbArc
 50
90.0
 51
180.0
  0
ARC
  5
286
100
AcDbEntity
  8
0
100
AcDbCircle
 62
7
  6
BYLAYER
 10
112.6313650731
 20
284.5607805517
 40
1.0
100
AcDbArc
 50
180.0
 51
270.0
  0
ARC
  5
287
100
AcDbEntity
  8
0
100
AcDbCircle
 62
7
  6
BYLAYER
 10
295.4313650731
 20
321.8107805517
 40
0.5
100
AcDbArc
 50
90.0
 51
180.0
  0
ARC
  5
288
100
AcDbEntity
  8
0
100
AcDbCircle
 62
7
  6
BYLAYER
 10
295.4313650731
 20
335.3107805517
 40
0.5
100
AcDbArc
 50
180.0
 51
270.0
  0
ARC
  5
289
100
AcDbEntity
  8
0
100
AcDbCircle
 62
7
  6
BYLAYER
 10
296.2313650731
 20
334.3107805517
 40
0.5
100
AcDbArc
 50
0.0
 51
90.0
  0
ARC
  5
28A
100
AcDbEntity
  8
0
100
AcDbCircle
 62
7
  6
BYLAYER
 10
296.2313650731
 20
322.8107805517
 40
0.5
100
AcDbArc
 50
270.0
 51
360.0
  0
SPLINE
  5
28B
100
AcDbEntity
  8
0
100
AcDbSpline
 62
7
  6
BYLAYER
 70
0
 71
3
 72
9
 73
5
 74
0
 42
0.0000001
 43
0.0000001
 44
0.0000000001
 40
0.0
 40
0.0
 40
0.0
 40
0.0
 40
0.2477383079
 40
1.0
 40
1.0
 40
1.0
 40
1.0
 10
91.6638224889
 20
346.2479507449
 30
0.0
 10
91.690035163
 20
346.3316968737
 30
0.0
 10
91.8239069824
 20
346.658208232
 30
0.0
 10
92.0604985601
 20
346.959802711
 30
0.0
 10
92.2928796779
 20
347.0901912439
 30
0.0
  0
SPLINE
  5
28C
100
AcDbEntity
  8
0
100
AcDbSpline
 62
7
  6
BYLAYER
 70
0
 71
3
 72
10
 73
6
 74
0
 42
0.0000001
 43
0.0000001
 44
0.0000000001
 40
0.0
 40
0.0
 40
0.0
 40
0.0
 40
0.3135781913
 40
0.6156053819
 40
1.0
 40
1.0
 40
1.0
 40
1.0
 10
95.6313650731
 20
339.3200345714
 30
0.0
 10
95.5081342137
 20
339.3200345714
 30
0.0
 10
95.2625449202
 20
339.2954429919
 30
0.0
 10
94.8969978915
 20
339.1973717235
 30
0.0
 10
94.6313650731
 20
338.9820412363
 30
0.0
 10
94.6313650731
 20
338.830980734
 30
0.0
  0
SPLINE
  5
28D
100
AcDbEntity
  8
0
100
AcDbSpline
 62
7
  6
BYLAYER
 70
0
 71
3
 72
11
 73
7
 74
0
 42
0.0000001
 43
0.0000001
 44
0.0000000001
 40
0.0
 40
0.0
 40
0.0
 40
0.0
 40
0.2305840991
 40
0.4743825659
 40
0.7320644912
 40
1.0
 40
1.0
 40
1.0
 40
1.0
 10
91.6638185665
 20
346.2479530307
 30
0.0
 10
91.5240318541
 20
346.3385771941
 30
0.0
 10
91.2373337559
 20
346.5285105868
 30
0.0
 10
90.853906246
 20
346.895369749
 30
0.0
 10
90.5254241538
 20
347.3557395365
 30
0.0
 10
90.4477312502
 20
347.7389082881
 30
0.0
 10
90.4348479825
 20
347.9320572731
 30
0.0
  0
SPLINE
  5
28E
100
AcDbEntity
  8
0
100
AcDbSpline
 62
7
  6
BYLAYER
 70
0
 71
3
 72
10
 73
6
 74
0
 42
0.0000001
 43
0.0000001
 44
0.0000000001
 40
0.0
 40
0.0
 40
0.0
 40
0.0
 40
0.5434427047
 40
0.7957174339
 40
1.0
 40
1.0
 40
1.0
 40
1.0
 10
92.2928762383
 20
347.0901947012
 30
0.0
 10
91.9976850482
 20
347.1658425357
 30
0.0
 10
91.569091402
 20
347.3160823449
 30
0.0
 10
91.0865566387
 20
347.5851010325
 30
0.0
 10
90.9102873593
 20
347.8175078558
 30
0.0
 10
90.9102857154
 20
347.932057276
 30
0.0
  0
SPLINE
  5
28F
100
AcDbEntity
  8
0
100
AcDbSpline
 62
7
  6
BYLAYER
 70
0
 71
3
 72
9
 73
5
 74
0
 42
0.0000001
 43
0.0000001
 44
0.0000000001
 40
0.0
 40
0.0
 40
0.0
 40
0.0
 40
0.251164459
 40
1.0
 40
1.0
 40
1.0
 40
1.0
 10
90.4348479831
 20
348.8763205553
 30
0.0
 10
90.3756406131
 20
348.9351784589
 30
0.0
 10
90.1079672634
 20
349.1376800786
 30
0.0
 10
89.7796960792
 20
349.2363606879
 30
0.0
 10
89.5358230878
 20
349.2861675742
 30
0.0
  0
SPLINE
  5
290
100
AcDbEntity
  8
0
100
AcDbSpline
 62
7
  6
BYLAYER
 70
0
 71
3
 72
9
 73
5
 74
0
 42
0.0000001
 43
0.0000001
 44
0.0000000001
 40
0.0
 40
0.0
 40
0.0
 40
0.0
 40
0.5087072073
 40
1.0
 40
1.0
 40
1.0
 40
1.0
 10
90.9102833468
 20
348.4547102642
 30
0.0
 10
90.8340548347
 20
348.5310387403
 30
0.0
 10
90.6510496303
 20
348.6440853125
 30
0.0
 10
90.5087330023
 20
348.8028716359
 30
0.0
 10
90.4348479831
 20
348.8763205553
 30
0.0
  0
SPLINE
  5
291
100
AcDbEntity
  8
0
100
AcDbSpline
 62
7
  6
BYLAYER
 70
0
 71
3
 72
10
 73
6
 74
0
 42
0.0000001
 43
0.0000001
 44
0.0000000001
 40
0.0
 40
0.0
 40
0.0
 40
0.0
 40
0.2313476449
 40
0.4793472996
 40
1.0
 40
1.0
 40
1.0
 40
1.0
 10
447.7313650731
 20
326.7784505686
 30
0.0
 10
447.7313650731
 20
327.3261639963
 30
0.0
 10
447.5503621418
 20
328.4580386838
 30
0.0
 10
446.87260653
 20
330.7264008068
 30
0.0
 10
446.1891562596
 20
332.4163025853
 30
0.0
 10
445.7313650731
 20
333.5607805517
 30
0.0
  0
SPLINE
  5
292
100
AcDbEntity
  8
0
100
AcDbSpline
 62
7
  6
BYLAYER
 70
0
 71
3
 72
9
 73
5
 74
0
 42
0.0000001
 43
0.0000001
 44
0.0000000001
 40
0.0
 40
0.0
 40
0.0
 40
0.0
 40
0.2648998232
 40
1.0
 40
1.0
 40
1.0
 40
1.0
 10
57.5877456855
 20
350.1431803051
 30
0.0
 10
57.5786825577
 20
350.1433174232
 30
0.0
 10
57.5527726202
 20
350.1422789507
 30
0.0
 10
57.4641336043
 20
350.1494096445
 30
0.0
 10
57.4869536773
 20
350.1599891549
 30
0.0
  0
SPLINE
  5
293
100
AcDbEntity
  8
0
100
AcDbSpline
 62
7
  6
BYLAYER
 70
0
 71
3
 72
9
 73
5
 74
0
 42
0.0000001
 43
0.0000001
 44
0.0000000001
 40
0.0
 40
0.0
 40
0.0
 40
0.0
 40
0.2430305204
 40
1.0
 40
1.0
 40
1.0
 40
1.0
 10
89.5358196419
 20
349.2861693544
 30
0.0
 10
89.3316703472
 20
349.327863532
 30
0.0
 10
88.4871471069
 20
349.4770603806
 30
0.0
 10
87.6291623828
 20
349.5455747628
 30
0.0
 10
86.9803201719
 20
349.5595041517
 30
0.0
  0
SPLINE
  5
294
100
AcDbEntity
  8
0
100
AcDbSpline
 62
7
  6
BYLAYER
 70
0
 71
3
 72
8
 73
4
 74
0
 42
0.0000001
 43
0.0000001
 44
0.0000000001
 40
0.0
 40
0.0
 40
0.0
 40
0.0
 40
1.0
 40
1.0
 40
1.0
 40
1.0
 10
57.631365073
 20
414.9106376892
 30
0.0
 10
57.5831170592
 20
393.3253599146
 30
0.0
 10
57.5359442058
 20
371.7400797248
 30
0.0
 10
57.4869536773
 20
350.1548036226
 30
0.0
  0
SPLINE
  5
295
100
AcDbEntity
  8
0
100
AcDbSpline
 62
7
  6
BYLAYER
 70
0
 71
3
 72
10
 73
6
 74
0
 42
0.0000001
 43
0.0000001
 44
0.0000000001
 40
0.0
 40
0.0
 40
0.0
 40
0.0
 40
0.5206488435
 40
0.7686314707
 40
1.0
 40
1.0
 40
1.0
 40
1.0
 10
445.7313650731
 20
293.5607805517
 30
0.0
 10
446.1891533769
 20
294.7052513113
 30
0.0
 10
446.8725480606
 20
296.3951168246
 30
0.0
 10
447.5504324469
 20
298.6634497895
 30
0.0
 10
447.7313650731
 20
299.7953470552
 30
0.0
 10
447.7313650731
 20
300.3431105348
 30
0.0
  0
SPLINE
  5
296
100
AcDbEntity
  8
0
100
AcDbSpline
 62
7
  6
BYLAYER
 70
0
 71
3
 72
9
 73
5
 74
0
 42
0.0000001
 43
0.0000001
 44
0.0000000001
 40
0.0
 40
0.0
 40
0.0
 40
0.0
 40
0.4859985076
 40
1.0
 40
1.0
 40
1.0
 40
1.0
 10
56.6313650731
 20
309.161790335
 30
0.0
 10
56.6313650731
 20
308.9231720316
 30
0.0
 10
56.8641605558
 20
308.4172760208
 30
0.0
 10
57.3789977054
 20
308.2380351567
 30
0.0
 10
57.6313650731
 20
308.2380351567
 30
0.0
  0
SPLINE
  5
297
100
AcDbEntity
  8
0
100
AcDbSpline
 62
7
  6
BYLAYER
 70
0
 71
3
 72
9
 73
5
 74
0
 42
0.0000001
 43
0.0000001
 44
0.0000000001
 40
0.0
 40
0.0
 40
0.0
 40
0.0
 40
0.6008991499
 40
1.0
 40
1.0
 40
1.0
 40
1.0
 10
57.587745671
 20
309.161790335
 30
0.0
 10
57.5910861937
 20
308.9765511522
 30
0.0
 10
57.6013953146
 20
308.6685479695
 30
0.0
 10
57.6162972325
 20
308.3601599514
 30
0.0
 10
57.6313650731
 20
308.2380351567
 30
0.0
  0
SPLINE
  5
298
100
AcDbEntity
  8
0
100
AcDbSpline
 62
7
  6
BYLAYER
 70
0
 71
3
 72
9
 73
5
 74
0
 42
0.0000001
 43
0.0000001
 44
0.0000000001
 40
0.0
 40
0.0
 40
0.0
 40
0.0
 40
0.2861058687
 40
1.0
 40
1.0
 40
1.0
 40
1.0
 10
86.9803197372
 20
309.7450784188
 30
0.0
 10
86.9821672734
 20
309.6595381248
 30
0.0
 10
86.991131065
 20
309.3607038039
 30
0.0
 10
87.0006531976
 20
309.0612849117
 30
0.0
 10
87.0239405984
 20
308.8490680503
 30
0.0
  0
SPLINE
  5
299
100
AcDbEntity
  8
0
100
AcDbSpline
 62
7
  6
BYLAYER
 70
0
 71
3
 72
11
 73
7
 74
0
 42
0.0000001
 43
0.0000001
 44
0.0000000001
 40
0.0
 40
0.0
 40
0.0
 40
0.0
 40
0.2724345693
 40
0.521791085
 40
0.755911593
 40
1.0
 40
1.0
 40
1.0
 40
1.0
 10
95.6313650731
 20
339.320034561
 30
0.0
 10
95.6313640063
 20
340.129224134
 30
0.0
 10
95.5745479309
 20
341.680972378
 30
0.0
 10
95.1337175338
 20
343.9007277816
 30
0.0
 10
94.0858375868
 20
345.8452030236
 30
0.0
 10
92.9300865237
 20
346.7443903051
 30
0.0
 10
92.2928751987
 20
347.0901936793
 30
0.0
  0
SPLINE
  5
29A
100
AcDbEntity
  8
0
100
AcDbSpline
 62
7
  6
BYLAYER
 70
0
 71
3
 72
15
 73
11
 74
0
 42
0.0000001
 43
0.0000001
 44
0.0000000001
 40
0.0
 40
0.0
 40
0.0
 40
0.0
 40
0.1497225232
 40
0.2891339517
 40
0.4141046747
 40
0.5273854513
 40
0.6368929151
 40
0.7501617679
 40
0.8709706207
 40
1.0
 40
1.0
 40
1.0
 40
1.0
 10
87.0239401015
 20
308.8490727761
 30
0.0
 10
87.7406720653
 20
308.8653312897
 30
0.0
 10
89.1249467003
 20
308.9807046137
 30
0.0
 10
91.0650202804
 20
309.4313810974
 30
0.0
 10
92.7248851237
 20
310.1922023773
 30
0.0
 10
94.0097165848
 20
311.2910537737
 30
0.0
 10
94.8703888435
 20
312.6769558704
 30
0.0
 10
95.3652262623
 20
314.258473881
 30
0.0
 10
95.5972089508
 20
315.9865141355
 30
0.0
 10
95.631365178
 20
317.1836951765
 30
0.0
 10
95.6313650731
 20
317.8015265431
 30
0.0
  0
SPLINE
  5
29B
100
AcDbEntity
  8
0
100
AcDbSpline
 62
7
  6
BYLAYER
 70
0
 71
3
 72
10
 73
6
 74
0
 42
0.0000001
 43
0.0000001
 44
0.0000000001
 40
0.0
 40
0.0
 40
0.0
 40
0.0
 40
0.3374949951
 40
0.636335945
 40
1.0
 40
1.0
 40
1.0
 40
1.0
 10
56.6321180277
 20
350.548408516
 30
0.0
 10
56.6209665651
 20
350.4388050212
 30
0.0
 10
56.8502101799
 20
350.2814857603
 30
0.0
 10
57.1446054424
 20
350.2020518
 30
0.0
 10
57.364279492
 20
350.1685423338
 30
0.0
 10
57.4821935414
 20
350.1548033694
 30
0.0
  0
SPLINE
  5
29C
100
AcDbEntity
  8
0
100
AcDbSpline
 62
7
  6
BYLAYER
 70
0
 71
3
 72
11
 73
7
 74
0
 42
0.0000001
 43
0.0000001
 44
0.0000000001
 40
0.0
 40
0.0
 40
0.0
 40
0.0
 40
0.238141964
 40
0.4725848402
 40
0.7248062679
 40
1.0
 40
1.0
 40
1.0
 40
1.0
 10
91.6638191776
 20
346.247954766
 30
0.0
 10
92.2385805108
 20
345.9129958154
 30
0.0
 10
93.2781555751
 20
345.0333746014
 30
0.0
 10
94.1946227568
 20
343.1818101786
 30
0.0
 10
94.5812420446
 20
341.0747120645
 30
0.0
 10
94.631362432
 20
339.599727522
 30
0.0
 10
94.6313650731
 20
338.8309815703
 30
0.0
  0
SPLINE
  5
29D
100
AcDbEntity
  8
0
100
AcDbSpline
 62
7
  6
BYLAYER
 70
0
 71
3
 72
14
 73
10
 74
0
 42
0.0000001
 43
0.0000001
 44
0.0000000001
 40
0.0
 40
0.0
 40
0.0
 40
0.0
 40
0.1332198378
 40
0.2581493157
 40
0.4852525005
 40
0.5986615754
 40
0.7213054986
 40
0.8563656459
 40
1.0
 40
1.0
 40
1.0
 40
1.0
 10
94.6313650731
 20
318.2905784803
 30
0.0
 10
94.6313651147
 20
317.703054678
 30
0.0
 10
94.6014153508
 20
316.5620749538
 30
0.0
 10
94.3418023582
 20
314.4426465261
 30
0.0
 10
93.581122183
 20
312.4355983533
 30
0.0
 10
92.0526155879
 20
311.0298991741
 30
0.0
 10
90.5691125427
 20
310.2991450733
 30
0.0
 10
88.8423556079
 20
309.8703071429
 30
0.0
 10
87.6135857939
 20
309.760494199
 30
0.0
 10
86.9803202779
 20
309.7450539404
 30
0.0
  0
SPLINE
  5
29E
100
AcDbEntity
  8
0
100
AcDbSpline
 62
7
  6
BYLAYER
 70
0
 71
3
 72
10
 73
6
 74
0
 42
0.0000001
 43
0.0000001
 44
0.0000000001
 40
0.0
 40
0.0
 40
0.0
 40
0.0
 40
0.3843945695
 40
0.6864217657
 40
1.0
 40
1.0
 40
1.0
 40
1.0
 10
94.631365073
 20
318.2905803684
 30
0.0
 10
94.631365073
 20
318.1395198845
 30
0.0
 10
94.8969978525
 20
317.9241893976
 30
0.0
 10
95.2625448828
 20
317.8261181156
 30
0.0
 10
95.5081341963
 20
317.8015265308
 30
0.0
 10
95.6313650731
 20
317.8015265308
 30
0.0
  0
ELLIPSE
  5
29F
100
AcDbEntity
  8
0
100
AcDbEllipse
 62
7
  6
BYLAYER
 10
-149.502524865
 20
328.5607805517
 30
0.0
 11
535.9448541272
 21
0.0
 31
0.0
 40
0.0436609429
 41
7.3969963667
 42
7.4572540155
  0
ENDSEC
  0
SECTION
  2
OBJECTS
  0
DICTIONARY
  5
C
100
AcDbDictionary
280
0
281
1
  3
ACAD_GROUP
350
D
  3
ACAD_MLINESTYLE
350
17
  3
ACAD_LAYOUT
350
1A
  3
ACAD_PLOTSETTINGS
350
19
  3
ACAD_PLOTSTYLENAME
350
E
  0
DICTIONARY
  5
D
102
{ACAD_REACTORS
330
C
102
}
100
AcDbDictionary
280
0
281
1
  0
ACDBDICTIONARYWDFLT
  5
E
102
{ACAD_REACTORS
330
C
102
}
100
AcDbDictionary
281
1
  3
Normal
350
F
100
AcDbDictionaryWithDefault
340
F
  0
DICTIONARY
  5
17
102
{ACAD_REACTORS
330
C
102
}
100
AcDbDictionary
280
0
281
1
  3
Standard
350
18
  0
DICTIONARY
  5
19
102
{ACAD_REACTORS
330
C
102
}
100
AcDbDictionary
281
1
  0
DICTIONARY
  5
1A
102
{ACAD_REACTORS
330
C
102
}
100
AcDbDictionary
281
1
  3
Model
350
2A0
  3
Layout1
350
2A1
  0
ACDBPLACEHOLDER
  5
F
102
{ACAD_REACTORS
330
E
102
}
  0
MLINESTYLE
  5
18
102
{ACAD_REACTORS
330
17
102
}
100
AcDbMlineStyle
  2
STANDARD
 70
0
  3

 62
256
 51
90.0
 52
90.0
 71
2
 49
0.5
 62
256
  6
BYLAYER
 49
-0.5
 62
256
  6
BYLAYER
  0
LAYOUT
  5
2A0
102
{ACAD_REACTORS
330
1A
102
}
100
AcDbPlotSettings
  1

  2
none_device
  4

  6

 40
0.0
 41
0.0
 42
0.0
 43
0.0
 44
210.0
 45
297.0
 46
0.0
 47
0.0
 48
0.0
 49
0.0
140
0.0
141
0.0
142
1.0
143
1.0
 70
1024
 72
1
 73
0
 74
0
  7

 75
0
147
1.0
148
0.0
149
0.0
100
AcDbLayout
  1
Model
 70
0
 71
0
 10
0.0
 20
0.0
 11
210.0
 21
297.0
 12
0.0
 22
0.0
 32
0.0
 14
0.0
 24
0.0
 34
0.0
 15
0.0
 25
0.0
 35
0.0
146
0.0
 13
0.0
 23
0.0
 33
0.0
 16
1.0
 26
0.0
 36
0.0
 17
0.0
 27
1.0
 37
0.0
 76
0
330
210
345
0
346
0
  0
LAYOUT
  5
2A1
102
{ACAD_REACTORS
330
1A
102
}
100
AcDbPlotSettings
  1

  2
none_device
  4

  6

 40
0.0
 41
0.0
 42
0.0
 43
0.0
 44
210.0
 45
297.0
 46
0.0
 47
0.0
 48
0.0
 49
0.0
140
0.0
141
0.0
142
1.0
143
1.0
 70
0
 72
1
 73
0
 74
0
  7

 75
0
147
1.0
148
0.0
149
0.0
100
AcDbLayout
  1
Layout1
 70
0
 71
1
 10
0.0
 20
0.0
 11
210.0
 21
297.0
 12
0.0
 22
0.0
 32
0.0
 14
0.0
 24
0.0
 34
0.0
 15
0.0
 25
0.0
 35
0.0
146
0.0
 13
0.0
 23
0.0
 33
0.0
 16
1.0
 26
0.0
 36
0.0
 17
0.0
 27
1.0
 37
0.0
 76
0
330
211
345
0
346
0
  0
ENDSEC
  0
EOF
