  0
SECTION
  2
HEADER
  9
$ACADVER
  1
AC1006
  9
$EXTMIN
 10
-2.186000
 20
-3.693142
  9
$EXTMAX
 10
2.175000
 20
3.689000
  9
$LTSCALE
 40
0.000394
  9
$PDMODE
 70
    35
  9
$PDSIZE
 40
0.000315
  0
ENDSEC
  0
SECTION
  2
TABLES
  0
TABLE
  2
LTYPE
 70
     9
  0
LTYPE
  2
CONTINUOUS
 70
    64
  3
Solid line
 72
    65
 73
     0
 40
0.000000
  0
LTYPE
  2
DASHED
 70
    64
  3
__ __ __ __ __ __ __ __ __ __ __ __ __ __ __
 72
    65
 73
     2
 40
0.000003
 49
0.000002
 49
-0.000001
  0
LTYPE
  2
HIDDEN
 70
    64
  3
 _ _ _ _ _ _ _ _ _ _ _ _ _ _ _ _ _ _ _ _ _ _
 72
    65
 73
     2
 40
0.000001
 49
0.000001
 49
-0.000000
  0
LTYPE
  2
CENTER
 70
    64
  3
____ _ ____ _ ____ _ ____ _ ____ _ ____ _ ____
 72
    65
 73
     4
 40
0.000008
 49
0.000005
 49
-0.000001
 49
0.000001
 49
-0.000001
  0
LTYPE
  2
PHANTOM
 70
    64
  3
_____ _ _ _____ _ _ _____ _ _ _____ _ _ ____
 72
    65
 73
     6
 40
0.000010
 49
0.000005
 49
-0.000001
 49
0.000001
 49
-0.000001
 49
0.000001
 49
-0.000001
  0
LTYPE
  2
DOT
 70
    64
  3
...............................................
 72
    65
 73
     2
 40
0.000001
 49
0.000000
 49
-0.000001
  0
LTYPE
  2
DASHDOT
 70
    64
  3
__ . __ . __ . __ . __ . __ . __ . __ . __ . __
 72
    65
 73
     4
 40
0.000004
 49
0.000002
 49
-0.000001
 49
0.000000
 49
-0.000001
  0
LTYPE
  2
BORDER
 70
    64
  3
__ __ . __ __ . __ __ . __ __ . __ __ . __ __
 72
    65
 73
     6
 40
0.000007
 49
0.000002
 49
-0.000001
 49
0.000002
 49
-0.000001
 49
0.000000
 49
-0.000001
  0
LTYPE
  2
DIVIDE
 70
    64
  3
__ . . __ . . __ . . __ . . __ . . __ . . __
 72
    65
 73
     6
 40
0.000005
 49
0.000002
 49
-0.000001
 49
0.000000
 49
-0.000001
 49
0.000000
 49
-0.000001
  0
LTYPE
  2
DOTDOT
 70
    64
  3
 . .  . .  . .  . .  . .  . . 
 72
    65
 73
     5
 40
0.000002
 49
-0.000001
 49
0.000000
 49
-0.000001
 49
0.000000
 49
-0.000001
  0
ENDTAB
  0
TABLE
  2
STYLE
 70
     0
  0
ENDTAB
  0
TABLE
  2
LAYER
 70
     3
  0
LAYER
  2
FOREGROUND
 70
    64
 62
     7
  6
CONTINUOUS
  0
LAYER
  2
BACKGROUND
 70
    65
 62
    -7
  6
CONTINUOUS
  0
LAYER
  2
PLAN_1
 70
    64
 62
     7
  6
CONTINUOUS
  0
ENDTAB
  0
ENDSEC
  0
SECTION
  2
ENTITIES
  0
POLYLINE
  8
PLAN_1
  6
CONTINUOUS
 66
     1
 40
0.003000
 41
0.003000
  0
VERTEX
  8
PLAN_1
  6
CONTINUOUS
 10
0.386677
 20
-3.658539
  0
VERTEX
  8
PLAN_1
  6
CONTINUOUS
 10
0.229807
 20
-3.658539
  0
VERTEX
  8
PLAN_1
  6
CONTINUOUS
 10
0.229807
 20
-3.635929
  0
VERTEX
  8
PLAN_1
  6
CONTINUOUS
 10
0.352071
 20
-3.483213
  0
VERTEX
  8
PLAN_1
  6
CONTINUOUS
 10
0.239031
 20
-3.483213
  0
VERTEX
  8
PLAN_1
  6
CONTINUOUS
 10
0.239031
 20
-3.459220
  0
VERTEX
  8
PLAN_1
  6
CONTINUOUS
 10
0.386677
 20
-3.459220
  0
VERTEX
  8
PLAN_1
  6
CONTINUOUS
 10
0.386677
 20
-3.482287
  0
VERTEX
  8
PLAN_1
  6
CONTINUOUS
 10
0.263949
 20
-3.634547
  0
VERTEX
  8
PLAN_1
  6
CONTINUOUS
 10
0.386677
 20
-3.634547
  0
VERTEX
  8
PLAN_1
  6
CONTINUOUS
 10
0.386677
 20
-3.658539
  0
SEQEND
  8
0
  0
POLYLINE
  8
PLAN_1
  6
CONTINUOUS
 66
     1
 40
0.003000
 41
0.003000
  0
VERTEX
  8
PLAN_1
  6
CONTINUOUS
 10
0.554157
 20
-3.519201
  0
VERTEX
  8
PLAN_1
  6
CONTINUOUS
 10
0.552315
 20
-3.512740
  0
VERTEX
  8
PLAN_1
  6
CONTINUOUS
 10
0.550469
 20
-3.507205
  0
VERTEX
  8
PLAN_1
  6
CONTINUOUS
 10
0.547701
 20
-3.502130
  0
VERTEX
  8
PLAN_1
  6
CONTINUOUS
 10
0.544929
 20
-3.497976
  0
VERTEX
  8
PLAN_1
  6
CONTINUOUS
 10
0.541701
 20
-3.493823
  0
VERTEX
  8
PLAN_1
  6
CONTINUOUS
 10
0.538012
 20
-3.490594
  0
VERTEX
  8
PLAN_1
  6
CONTINUOUS
 10
0.534319
 20
-3.487827
  0
VERTEX
  8
PLAN_1
  6
CONTINUOUS
 10
0.530630
 20
-3.485520
  0
VERTEX
  8
PLAN_1
  6
CONTINUOUS
 10
0.526476
 20
-3.483213
  0
VERTEX
  8
PLAN_1
  6
CONTINUOUS
 10
0.522323
 20
-3.481827
  0
VERTEX
  8
PLAN_1
  6
CONTINUOUS
 10
0.518169
 20
-3.480445
  0
VERTEX
  8
PLAN_1
  6
CONTINUOUS
 10
0.514020
 20
-3.479520
  0
VERTEX
  8
PLAN_1
  6
CONTINUOUS
 10
0.505713
 20
-3.478138
  0
VERTEX
  8
PLAN_1
  6
CONTINUOUS
 10
0.498331
 20
-3.477673
  0
VERTEX
  8
PLAN_1
  6
CONTINUOUS
 10
0.491409
 20
-3.478138
  0
VERTEX
  8
PLAN_1
  6
CONTINUOUS
 10
0.484953
 20
-3.479059
  0
VERTEX
  8
PLAN_1
  6
CONTINUOUS
 10
0.478953
 20
-3.480445
  0
VERTEX
  8
PLAN_1
  6
CONTINUOUS
 10
0.472957
 20
-3.482752
  0
VERTEX
  8
PLAN_1
  6
CONTINUOUS
 10
0.466957
 20
-3.485520
  0
VERTEX
  8
PLAN_1
  6
CONTINUOUS
 10
0.461882
 20
-3.488748
  0
VERTEX
  8
PLAN_1
  6
CONTINUOUS
 10
0.456807
 20
-3.492902
  0
VERTEX
  8
PLAN_1
  6
CONTINUOUS
 10
0.452193
 20
-3.497516
  0
VERTEX
  8
PLAN_1
  6
CONTINUOUS
 10
0.448039
 20
-3.503051
  0
VERTEX
  8
PLAN_1
  6
CONTINUOUS
 10
0.444350
 20
-3.508587
  0
VERTEX
  8
PLAN_1
  6
CONTINUOUS
 10
0.441118
 20
-3.515047
  0
VERTEX
  8
PLAN_1
  6
CONTINUOUS
 10
0.438350
 20
-3.522429
  0
VERTEX
  8
PLAN_1
  6
CONTINUOUS
 10
0.436043
 20
-3.530272
  0
VERTEX
  8
PLAN_1
  6
CONTINUOUS
 10
0.434197
 20
-3.538579
  0
VERTEX
  8
PLAN_1
  6
CONTINUOUS
 10
0.433276
 20
-3.547343
  0
VERTEX
  8
PLAN_1
  6
CONTINUOUS
 10
0.433276
 20
-3.557031
  0
VERTEX
  8
PLAN_1
  6
CONTINUOUS
 10
0.433276
 20
-3.565339
  0
VERTEX
  8
PLAN_1
  6
CONTINUOUS
 10
0.433736
 20
-3.574102
  0
VERTEX
  8
PLAN_1
  6
CONTINUOUS
 10
0.435122
 20
-3.581949
  0
VERTEX
  8
PLAN_1
  6
CONTINUOUS
 10
0.436504
 20
-3.589791
  0
VERTEX
  8
PLAN_1
  6
CONTINUOUS
 10
0.438350
 20
-3.596713
  0
VERTEX
  8
PLAN_1
  6
CONTINUOUS
 10
0.441118
 20
-3.603634
  0
VERTEX
  8
PLAN_1
  6
CONTINUOUS
 10
0.443890
 20
-3.610091
  0
VERTEX
  8
PLAN_1
  6
CONTINUOUS
 10
0.447579
 20
-3.616091
  0
VERTEX
  8
PLAN_1
  6
CONTINUOUS
 10
0.451732
 20
-3.621165
  0
VERTEX
  8
PLAN_1
  6
CONTINUOUS
 10
0.456346
 20
-3.625780
  0
VERTEX
  8
PLAN_1
  6
CONTINUOUS
 10
0.461882
 20
-3.629933
  0
VERTEX
  8
PLAN_1
  6
CONTINUOUS
 10
0.467878
 20
-3.633622
  0
VERTEX
  8
PLAN_1
  6
CONTINUOUS
 10
0.471110
 20
-3.635008
  0
VERTEX
  8
PLAN_1
  6
CONTINUOUS
 10
0.474799
 20
-3.636390
  0
VERTEX
  8
PLAN_1
  6
CONTINUOUS
 10
0.478492
 20
-3.637315
  0
VERTEX
  8
PLAN_1
  6
CONTINUOUS
 10
0.482181
 20
-3.638236
  0
VERTEX
  8
PLAN_1
  6
CONTINUOUS
 10
0.490028
 20
-3.639622
  0
VERTEX
  8
PLAN_1
  6
CONTINUOUS
 10
0.499252
 20
-3.639622
  0
VERTEX
  8
PLAN_1
  6
CONTINUOUS
 10
0.502484
 20
-3.639622
  0
VERTEX
  8
PLAN_1
  6
CONTINUOUS
 10
0.506173
 20
-3.639622
  0
VERTEX
  8
PLAN_1
  6
CONTINUOUS
 10
0.509866
 20
-3.638697
  0
VERTEX
  8
PLAN_1
  6
CONTINUOUS
 10
0.514020
 20
-3.637776
  0
VERTEX
  8
PLAN_1
  6
CONTINUOUS
 10
0.518169
 20
-3.636390
  0
VERTEX
  8
PLAN_1
  6
CONTINUOUS
 10
0.522323
 20
-3.634547
  0
VERTEX
  8
PLAN_1
  6
CONTINUOUS
 10
0.526476
 20
-3.632701
  0
VERTEX
  8
PLAN_1
  6
CONTINUOUS
 10
0.530630
 20
-3.629933
  0
VERTEX
  8
PLAN_1
  6
CONTINUOUS
 10
0.534780
 20
-3.626701
  0
VERTEX
  8
PLAN_1
  6
CONTINUOUS
 10
0.538472
 20
-3.623012
  0
VERTEX
  8
PLAN_1
  6
CONTINUOUS
 10
0.542161
 20
-3.618398
  0
VERTEX
  8
PLAN_1
  6
CONTINUOUS
 10
0.545854
 20
-3.613323
  0
VERTEX
  8
PLAN_1
  6
CONTINUOUS
 10
0.549083
 20
-3.607323
  0
VERTEX
  8
PLAN_1
  6
CONTINUOUS
 10
0.551850
 20
-3.600866
  0
VERTEX
  8
PLAN_1
  6
CONTINUOUS
 10
0.554157
 20
-3.593484
  0
VERTEX
  8
PLAN_1
  6
CONTINUOUS
 10
0.556004
 20
-3.585177
  0
VERTEX
  8
PLAN_1
  6
CONTINUOUS
 10
0.582303
 20
-3.585177
  0
VERTEX
  8
PLAN_1
  6
CONTINUOUS
 10
0.580917
 20
-3.592098
  0
VERTEX
  8
PLAN_1
  6
CONTINUOUS
 10
0.579535
 20
-3.598559
  0
VERTEX
  8
PLAN_1
  6
CONTINUOUS
 10
0.577689
 20
-3.604555
  0
VERTEX
  8
PLAN_1
  6
CONTINUOUS
 10
0.575843
 20
-3.610091
  0
VERTEX
  8
PLAN_1
  6
CONTINUOUS
 10
0.573535
 20
-3.615630
  0
VERTEX
  8
PLAN_1
  6
CONTINUOUS
 10
0.571228
 20
-3.620244
  0
VERTEX
  8
PLAN_1
  6
CONTINUOUS
 10
0.568461
 20
-3.624858
  0
VERTEX
  8
PLAN_1
  6
CONTINUOUS
 10
0.566154
 20
-3.629008
  0
VERTEX
  8
PLAN_1
  6
CONTINUOUS
 10
0.562925
 20
-3.633161
  0
VERTEX
  8
PLAN_1
  6
CONTINUOUS
 10
0.560157
 20
-3.636854
  0
VERTEX
  8
PLAN_1
  6
CONTINUOUS
 10
0.556925
 20
-3.640083
  0
VERTEX
  8
PLAN_1
  6
CONTINUOUS
 10
0.553697
 20
-3.643311
  0
VERTEX
  8
PLAN_1
  6
CONTINUOUS
 10
0.546776
 20
-3.648386
  0
VERTEX
  8
PLAN_1
  6
CONTINUOUS
 10
0.539854
 20
-3.652539
  0
VERTEX
  8
PLAN_1
  6
CONTINUOUS
 10
0.532933
 20
-3.656232
  0
VERTEX
  8
PLAN_1
  6
CONTINUOUS
 10
0.526016
 20
-3.658539
  0
VERTEX
  8
PLAN_1
  6
CONTINUOUS
 10
0.519555
 20
-3.660843
  0
VERTEX
  8
PLAN_1
  6
CONTINUOUS
 10
0.513555
 20
-3.662228
  0
VERTEX
  8
PLAN_1
  6
CONTINUOUS
 10
0.502484
 20
-3.663614
  0
VERTEX
  8
PLAN_1
  6
CONTINUOUS
 10
0.495102
 20
-3.663614
  0
VERTEX
  8
PLAN_1
  6
CONTINUOUS
 10
0.486335
 20
-3.663150
  0
VERTEX
  8
PLAN_1
  6
CONTINUOUS
 10
0.478031
 20
-3.662228
  0
VERTEX
  8
PLAN_1
  6
CONTINUOUS
 10
0.469724
 20
-3.660382
  0
VERTEX
  8
PLAN_1
  6
CONTINUOUS
 10
0.461882
 20
-3.658075
  0
VERTEX
  8
PLAN_1
  6
CONTINUOUS
 10
0.454039
 20
-3.654386
  0
VERTEX
  8
PLAN_1
  6
CONTINUOUS
 10
0.446657
 20
-3.650232
  0
VERTEX
  8
PLAN_1
  6
CONTINUOUS
 10
0.442965
 20
-3.647925
  0
VERTEX
  8
PLAN_1
  6
CONTINUOUS
 10
0.439736
 20
-3.645157
  0
VERTEX
  8
PLAN_1
  6
CONTINUOUS
 10
0.436504
 20
-3.642390
  0
VERTEX
  8
PLAN_1
  6
CONTINUOUS
 10
0.433276
 20
-3.639622
  0
VERTEX
  8
PLAN_1
  6
CONTINUOUS
 10
0.430047
 20
-3.636390
  0
VERTEX
  8
PLAN_1
  6
CONTINUOUS
 10
0.427280
 20
-3.632701
  0
VERTEX
  8
PLAN_1
  6
CONTINUOUS
 10
0.424508
 20
-3.629008
  0
VERTEX
  8
PLAN_1
  6
CONTINUOUS
 10
0.421740
 20
-3.624858
  0
VERTEX
  8
PLAN_1
  6
CONTINUOUS
 10
0.419433
 20
-3.620705
  0
VERTEX
  8
PLAN_1
  6
CONTINUOUS
 10
0.417126
 20
-3.616091
  0
VERTEX
  8
PLAN_1
  6
CONTINUOUS
 10
0.414819
 20
-3.611476
  0
VERTEX
  8
PLAN_1
  6
CONTINUOUS
 10
0.412976
 20
-3.606402
  0
VERTEX
  8
PLAN_1
  6
CONTINUOUS
 10
0.411130
 20
-3.601327
  0
VERTEX
  8
PLAN_1
  6
CONTINUOUS
 10
0.409744
 20
-3.595787
  0
VERTEX
  8
PLAN_1
  6
CONTINUOUS
 10
0.408362
 20
-3.590252
  0
VERTEX
  8
PLAN_1
  6
CONTINUOUS
 10
0.407437
 20
-3.584256
  0
VERTEX
  8
PLAN_1
  6
CONTINUOUS
 10
0.406516
 20
-3.577795
  0
VERTEX
  8
PLAN_1
  6
CONTINUOUS
 10
0.405594
 20
-3.571335
  0
VERTEX
  8
PLAN_1
  6
CONTINUOUS
 10
0.405594
 20
-3.564878
  0
VERTEX
  8
PLAN_1
  6
CONTINUOUS
 10
0.405130
 20
-3.557496
  0
VERTEX
  8
PLAN_1
  6
CONTINUOUS
 10
0.405594
 20
-3.546421
  0
VERTEX
  8
PLAN_1
  6
CONTINUOUS
 10
0.406976
 20
-3.535811
  0
VERTEX
  8
PLAN_1
  6
CONTINUOUS
 10
0.408823
 20
-3.525197
  0
VERTEX
  8
PLAN_1
  6
CONTINUOUS
 10
0.411591
 20
-3.515508
  0
VERTEX
  8
PLAN_1
  6
CONTINUOUS
 10
0.413437
 20
-3.510894
  0
VERTEX
  8
PLAN_1
  6
CONTINUOUS
 10
0.415283
 20
-3.506280
  0
VERTEX
  8
PLAN_1
  6
CONTINUOUS
 10
0.417126
 20
-3.502130
  0
VERTEX
  8
PLAN_1
  6
CONTINUOUS
 10
0.419433
 20
-3.497976
  0
VERTEX
  8
PLAN_1
  6
CONTINUOUS
 10
0.421740
 20
-3.493823
  0
VERTEX
  8
PLAN_1
  6
CONTINUOUS
 10
0.424508
 20
-3.490134
  0
VERTEX
  8
PLAN_1
  6
CONTINUOUS
 10
0.427280
 20
-3.486441
  0
VERTEX
  8
PLAN_1
  6
CONTINUOUS
 10
0.430047
 20
-3.482752
  0
VERTEX
  8
PLAN_1
  6
CONTINUOUS
 10
0.433276
 20
-3.479520
  0
VERTEX
  8
PLAN_1
  6
CONTINUOUS
 10
0.436504
 20
-3.476291
  0
VERTEX
  8
PLAN_1
  6
CONTINUOUS
 10
0.439736
 20
-3.473524
  0
VERTEX
  8
PLAN_1
  6
CONTINUOUS
 10
0.443425
 20
-3.470756
  0
VERTEX
  8
PLAN_1
  6
CONTINUOUS
 10
0.447118
 20
-3.467984
  0
VERTEX
  8
PLAN_1
  6
CONTINUOUS
 10
0.450807
 20
-3.465677
  0
VERTEX
  8
PLAN_1
  6
CONTINUOUS
 10
0.454961
 20
-3.463374
  0
VERTEX
  8
PLAN_1
  6
CONTINUOUS
 10
0.459114
 20
-3.461528
  0
VERTEX
  8
PLAN_1
  6
CONTINUOUS
 10
0.463728
 20
-3.459681
  0
VERTEX
  8
PLAN_1
  6
CONTINUOUS
 10
0.468343
 20
-3.458295
  0
VERTEX
  8
PLAN_1
  6
CONTINUOUS
 10
0.472957
 20
-3.456913
  0
VERTEX
  8
PLAN_1
  6
CONTINUOUS
 10
0.477567
 20
-3.455988
  0
VERTEX
  8
PLAN_1
  6
CONTINUOUS
 10
0.482646
 20
-3.455067
  0
VERTEX
  8
PLAN_1
  6
CONTINUOUS
 10
0.487720
 20
-3.454146
  0
VERTEX
  8
PLAN_1
  6
CONTINUOUS
 10
0.492795
 20
-3.454146
  0
VERTEX
  8
PLAN_1
  6
CONTINUOUS
 10
0.498331
 20
-3.453685
  0
VERTEX
  8
PLAN_1
  6
CONTINUOUS
 10
0.507559
 20
-3.454146
  0
VERTEX
  8
PLAN_1
  6
CONTINUOUS
 10
0.516327
 20
-3.455528
  0
VERTEX
  8
PLAN_1
  6
CONTINUOUS
 10
0.524630
 20
-3.456913
  0
VERTEX
  8
PLAN_1
  6
CONTINUOUS
 10
0.532012
 20
-3.459220
  0
VERTEX
  8
PLAN_1
  6
CONTINUOUS
 10
0.539394
 20
-3.462449
  0
VERTEX
  8
PLAN_1
  6
CONTINUOUS
 10
0.545854
 20
-3.465677
  0
VERTEX
  8
PLAN_1
  6
CONTINUOUS
 10
0.551850
 20
-3.469831
  0
VERTEX
  8
PLAN_1
  6
CONTINUOUS
 10
0.556925
 20
-3.473984
  0
VERTEX
  8
PLAN_1
  6
CONTINUOUS
 10
0.562004
 20
-3.478598
  0
VERTEX
  8
PLAN_1
  6
CONTINUOUS
 10
0.566154
 20
-3.483673
  0
VERTEX
  8
PLAN_1
  6
CONTINUOUS
 10
0.569846
 20
-3.489209
  0
VERTEX
  8
PLAN_1
  6
CONTINUOUS
 10
0.573075
 20
-3.494748
  0
VERTEX
  8
PLAN_1
  6
CONTINUOUS
 10
0.575382
 20
-3.500744
  0
VERTEX
  8
PLAN_1
  6
CONTINUOUS
 10
0.577689
 20
-3.506744
  0
VERTEX
  8
PLAN_1
  6
CONTINUOUS
 10
0.579075
 20
-3.512740
  0
VERTEX
  8
PLAN_1
  6
CONTINUOUS
 10
0.579996
 20
-3.519201
  0
VERTEX
  8
PLAN_1
  6
CONTINUOUS
 10
0.554157
 20
-3.519201
  0
SEQEND
  8
0
  0
POLYLINE
  8
PLAN_1
  6
CONTINUOUS
 66
     1
 40
0.003000
 41
0.003000
  0
VERTEX
  8
PLAN_1
  6
CONTINUOUS
 10
0.641823
 20
-3.658539
  0
VERTEX
  8
PLAN_1
  6
CONTINUOUS
 10
0.614598
 20
-3.658539
  0
VERTEX
  8
PLAN_1
  6
CONTINUOUS
 10
0.614598
 20
-3.459220
  0
VERTEX
  8
PLAN_1
  6
CONTINUOUS
 10
0.641823
 20
-3.459220
  0
VERTEX
  8
PLAN_1
  6
CONTINUOUS
 10
0.641823
 20
-3.555650
  0
VERTEX
  8
PLAN_1
  6
CONTINUOUS
 10
0.738252
 20
-3.459220
  0
VERTEX
  8
PLAN_1
  6
CONTINUOUS
 10
0.775622
 20
-3.459220
  0
VERTEX
  8
PLAN_1
  6
CONTINUOUS
 10
0.692575
 20
-3.539500
  0
VERTEX
  8
PLAN_1
  6
CONTINUOUS
 10
0.777469
 20
-3.658539
  0
VERTEX
  8
PLAN_1
  6
CONTINUOUS
 10
0.742866
 20
-3.658539
  0
VERTEX
  8
PLAN_1
  6
CONTINUOUS
 10
0.673197
 20
-3.558417
  0
VERTEX
  8
PLAN_1
  6
CONTINUOUS
 10
0.641823
 20
-3.588406
  0
VERTEX
  8
PLAN_1
  6
CONTINUOUS
 10
0.641823
 20
-3.658539
  0
SEQEND
  8
0
  0
POLYLINE
  8
PLAN_1
  6
CONTINUOUS
 66
     1
 40
0.003000
 41
0.003000
  0
VERTEX
  8
PLAN_1
  6
CONTINUOUS
 10
0.884972
 20
-3.658539
  0
VERTEX
  8
PLAN_1
  6
CONTINUOUS
 10
0.857748
 20
-3.658539
  0
VERTEX
  8
PLAN_1
  6
CONTINUOUS
 10
0.857748
 20
-3.578256
  0
VERTEX
  8
PLAN_1
  6
CONTINUOUS
 10
0.782543
 20
-3.459220
  0
VERTEX
  8
PLAN_1
  6
CONTINUOUS
 10
0.813917
 20
-3.459220
  0
VERTEX
  8
PLAN_1
  6
CONTINUOUS
 10
0.871130
 20
-3.554724
  0
VERTEX
  8
PLAN_1
  6
CONTINUOUS
 10
0.928343
 20
-3.459220
  0
VERTEX
  8
PLAN_1
  6
CONTINUOUS
 10
0.960177
 20
-3.459220
  0
VERTEX
  8
PLAN_1
  6
CONTINUOUS
 10
0.884972
 20
-3.578256
  0
VERTEX
  8
PLAN_1
  6
CONTINUOUS
 10
0.884972
 20
-3.658539
  0
SEQEND
  8
0
  0
POLYLINE
  8
PLAN_1
  6
CONTINUOUS
 66
     1
 40
0.003000
 41
0.003000
  0
VERTEX
  8
PLAN_1
  6
CONTINUOUS
 10
0.974480
 20
-3.467524
  0
VERTEX
  8
PLAN_1
  6
CONTINUOUS
 10
1.109205
 20
-3.467524
  0
VERTEX
  8
PLAN_1
  6
CONTINUOUS
 10
1.109205
 20
-3.488748
  0
VERTEX
  8
PLAN_1
  6
CONTINUOUS
 10
1.105512
 20
-3.493362
  0
VERTEX
  8
PLAN_1
  6
CONTINUOUS
 10
1.100898
 20
-3.498437
  0
VERTEX
  8
PLAN_1
  6
CONTINUOUS
 10
1.095823
 20
-3.504437
  0
VERTEX
  8
PLAN_1
  6
CONTINUOUS
 10
1.090287
 20
-3.511819
  0
VERTEX
  8
PLAN_1
  6
CONTINUOUS
 10
1.084752
 20
-3.519661
  0
VERTEX
  8
PLAN_1
  6
CONTINUOUS
 10
1.079213
 20
-3.528429
  0
VERTEX
  8
PLAN_1
  6
CONTINUOUS
 10
1.073217
 20
-3.538118
  0
VERTEX
  8
PLAN_1
  6
CONTINUOUS
 10
1.067217
 20
-3.548728
  0
VERTEX
  8
PLAN_1
  6
CONTINUOUS
 10
1.061220
 20
-3.559803
  0
VERTEX
  8
PLAN_1
  6
CONTINUOUS
 10
1.055681
 20
-3.571799
  0
VERTEX
  8
PLAN_1
  6
CONTINUOUS
 10
1.050146
 20
-3.584717
  0
VERTEX
  8
PLAN_1
  6
CONTINUOUS
 10
1.044610
 20
-3.598094
  0
VERTEX
  8
PLAN_1
  6
CONTINUOUS
 10
1.039996
 20
-3.612398
  0
VERTEX
  8
PLAN_1
  6
CONTINUOUS
 10
1.035843
 20
-3.627165
  0
VERTEX
  8
PLAN_1
  6
CONTINUOUS
 10
1.032154
 20
-3.642390
  0
VERTEX
  8
PLAN_1
  6
CONTINUOUS
 10
1.028921
 20
-3.658539
  0
VERTEX
  8
PLAN_1
  6
CONTINUOUS
 10
1.002161
 20
-3.658539
  0
VERTEX
  8
PLAN_1
  6
CONTINUOUS
 10
1.003547
 20
-3.648386
  0
VERTEX
  8
PLAN_1
  6
CONTINUOUS
 10
1.005854
 20
-3.637776
  0
VERTEX
  8
PLAN_1
  6
CONTINUOUS
 10
1.008622
 20
-3.626701
  0
VERTEX
  8
PLAN_1
  6
CONTINUOUS
 10
1.012311
 20
-3.616091
  0
VERTEX
  8
PLAN_1
  6
CONTINUOUS
 10
1.016004
 20
-3.604555
  0
VERTEX
  8
PLAN_1
  6
CONTINUOUS
 10
1.020157
 20
-3.593484
  0
VERTEX
  8
PLAN_1
  6
CONTINUOUS
 10
1.025232
 20
-3.582409
  0
VERTEX
  8
PLAN_1
  6
CONTINUOUS
 10
1.030307
 20
-3.571335
  0
VERTEX
  8
PLAN_1
  6
CONTINUOUS
 10
1.035843
 20
-3.560264
  0
VERTEX
  8
PLAN_1
  6
CONTINUOUS
 10
1.041843
 20
-3.549189
  0
VERTEX
  8
PLAN_1
  6
CONTINUOUS
 10
1.047839
 20
-3.538579
  0
VERTEX
  8
PLAN_1
  6
CONTINUOUS
 10
1.054299
 20
-3.528429
  0
VERTEX
  8
PLAN_1
  6
CONTINUOUS
 10
1.061220
 20
-3.518276
  0
VERTEX
  8
PLAN_1
  6
CONTINUOUS
 10
1.067677
 20
-3.509047
  0
VERTEX
  8
PLAN_1
  6
CONTINUOUS
 10
1.074598
 20
-3.499823
  0
VERTEX
  8
PLAN_1
  6
CONTINUOUS
 10
1.081980
 20
-3.491516
  0
VERTEX
  8
PLAN_1
  6
CONTINUOUS
 10
0.974480
 20
-3.491516
  0
VERTEX
  8
PLAN_1
  6
CONTINUOUS
 10
0.974480
 20
-3.467524
  0
SEQEND
  8
0
  0
POLYLINE
  8
PLAN_1
  6
CONTINUOUS
 66
     1
 40
0.003000
 41
0.003000
  0
VERTEX
  8
PLAN_1
  6
CONTINUOUS
 10
1.218091
 20
-3.658539
  0
VERTEX
  8
PLAN_1
  6
CONTINUOUS
 10
1.192252
 20
-3.658539
  0
VERTEX
  8
PLAN_1
  6
CONTINUOUS
 10
1.192252
 20
-3.520122
  0
VERTEX
  8
PLAN_1
  6
CONTINUOUS
 10
1.146575
 20
-3.520122
  0
VERTEX
  8
PLAN_1
  6
CONTINUOUS
 10
1.146575
 20
-3.500744
  0
VERTEX
  8
PLAN_1
  6
CONTINUOUS
 10
1.157650
 20
-3.499358
  0
VERTEX
  8
PLAN_1
  6
CONTINUOUS
 10
1.166878
 20
-3.498437
  0
VERTEX
  8
PLAN_1
  6
CONTINUOUS
 10
1.171028
 20
-3.497516
  0
VERTEX
  8
PLAN_1
  6
CONTINUOUS
 10
1.175181
 20
-3.496130
  0
VERTEX
  8
PLAN_1
  6
CONTINUOUS
 10
1.178409
 20
-3.494748
  0
VERTEX
  8
PLAN_1
  6
CONTINUOUS
 10
1.181642
 20
-3.492902
  0
VERTEX
  8
PLAN_1
  6
CONTINUOUS
 10
1.184409
 20
-3.491055
  0
VERTEX
  8
PLAN_1
  6
CONTINUOUS
 10
1.187177
 20
-3.488748
  0
VERTEX
  8
PLAN_1
  6
CONTINUOUS
 10
1.189945
 20
-3.485520
  0
VERTEX
  8
PLAN_1
  6
CONTINUOUS
 10
1.191791
 20
-3.482287
  0
VERTEX
  8
PLAN_1
  6
CONTINUOUS
 10
1.194098
 20
-3.478598
  0
VERTEX
  8
PLAN_1
  6
CONTINUOUS
 10
1.195945
 20
-3.473984
  0
VERTEX
  8
PLAN_1
  6
CONTINUOUS
 10
1.197327
 20
-3.468909
  0
VERTEX
  8
PLAN_1
  6
CONTINUOUS
 10
1.199173
 20
-3.463374
  0
VERTEX
  8
PLAN_1
  6
CONTINUOUS
 10
1.218091
 20
-3.463374
  0
VERTEX
  8
PLAN_1
  6
CONTINUOUS
 10
1.218091
 20
-3.658539
  0
SEQEND
  8
0
  0
SOLID
  8
PLAN_1
 10
1.272996
 20
-3.693142
 11
1.272996
 21
-3.679299
 12
1.427098
 22
-3.693142
 13
1.427098
 23
-3.679299
  0
POLYLINE
  8
PLAN_1
  6
CONTINUOUS
 66
     1
 40
0.003000
 41
0.003000
  0
VERTEX
  8
PLAN_1
  6
CONTINUOUS
 10
1.272996
 20
-3.693142
  0
VERTEX
  8
PLAN_1
  6
CONTINUOUS
 10
1.272996
 20
-3.679299
  0
VERTEX
  8
PLAN_1
  6
CONTINUOUS
 10
1.427098
 20
-3.679299
  0
VERTEX
  8
PLAN_1
  6
CONTINUOUS
 10
1.427098
 20
-3.693142
  0
VERTEX
  8
PLAN_1
  6
CONTINUOUS
 10
1.272996
 20
-3.693142
  0
SEQEND
  8
0
  0
POLYLINE
  8
PLAN_1
  6
CONTINUOUS
 66
     1
 40
0.003000
 41
0.003000
  0
VERTEX
  8
PLAN_1
  6
CONTINUOUS
 10
1.477850
 20
-3.658539
  0
VERTEX
  8
PLAN_1
  6
CONTINUOUS
 10
1.451091
 20
-3.658539
  0
VERTEX
  8
PLAN_1
  6
CONTINUOUS
 10
1.451091
 20
-3.459220
  0
VERTEX
  8
PLAN_1
  6
CONTINUOUS
 10
1.589043
 20
-3.459220
  0
VERTEX
  8
PLAN_1
  6
CONTINUOUS
 10
1.589043
 20
-3.483213
  0
VERTEX
  8
PLAN_1
  6
CONTINUOUS
 10
1.477850
 20
-3.483213
  0
VERTEX
  8
PLAN_1
  6
CONTINUOUS
 10
1.477850
 20
-3.544114
  0
VERTEX
  8
PLAN_1
  6
CONTINUOUS
 10
1.575661
 20
-3.544114
  0
VERTEX
  8
PLAN_1
  6
CONTINUOUS
 10
1.575661
 20
-3.568106
  0
VERTEX
  8
PLAN_1
  6
CONTINUOUS
 10
1.477850
 20
-3.568106
  0
VERTEX
  8
PLAN_1
  6
CONTINUOUS
 10
1.477850
 20
-3.658539
  0
SEQEND
  8
0
  0
SOLID
  8
PLAN_1
 10
1.608421
 20
-3.658539
 11
1.579354
 21
-3.658539
 12
1.608421
 22
-3.629008
 13
1.579354
 23
-3.629008
  0
POLYLINE
  8
PLAN_1
  6
CONTINUOUS
 66
     1
 40
0.003000
 41
0.003000
  0
VERTEX
  8
PLAN_1
  6
CONTINUOUS
 10
1.608421
 20
-3.658539
  0
VERTEX
  8
PLAN_1
  6
CONTINUOUS
 10
1.579354
 20
-3.658539
  0
VERTEX
  8
PLAN_1
  6
CONTINUOUS
 10
1.579354
 20
-3.629008
  0
VERTEX
  8
PLAN_1
  6
CONTINUOUS
 10
1.608421
 20
-3.629008
  0
VERTEX
  8
PLAN_1
  6
CONTINUOUS
 10
1.608421
 20
-3.658539
  0
SEQEND
  8
0
  0
POLYLINE
  8
PLAN_1
  6
CONTINUOUS
 66
     1
 40
0.003000
 41
0.003000
  0
VERTEX
  8
PLAN_1
  6
CONTINUOUS
 10
1.803587
 20
-3.658539
  0
VERTEX
  8
PLAN_1
  6
CONTINUOUS
 10
1.656406
 20
-3.658539
  0
VERTEX
  8
PLAN_1
  6
CONTINUOUS
 10
1.656406
 20
-3.459220
  0
VERTEX
  8
PLAN_1
  6
CONTINUOUS
 10
1.801280
 20
-3.459220
  0
VERTEX
  8
PLAN_1
  6
CONTINUOUS
 10
1.801280
 20
-3.483213
  0
VERTEX
  8
PLAN_1
  6
CONTINUOUS
 10
1.683165
 20
-3.483213
  0
VERTEX
  8
PLAN_1
  6
CONTINUOUS
 10
1.683165
 20
-3.544114
  0
VERTEX
  8
PLAN_1
  6
CONTINUOUS
 10
1.792512
 20
-3.544114
  0
VERTEX
  8
PLAN_1
  6
CONTINUOUS
 10
1.792512
 20
-3.568106
  0
VERTEX
  8
PLAN_1
  6
CONTINUOUS
 10
1.683165
 20
-3.568106
  0
VERTEX
  8
PLAN_1
  6
CONTINUOUS
 10
1.683165
 20
-3.634547
  0
VERTEX
  8
PLAN_1
  6
CONTINUOUS
 10
1.803587
 20
-3.634547
  0
VERTEX
  8
PLAN_1
  6
CONTINUOUS
 10
1.803587
 20
-3.658539
  0
SEQEND
  8
0
  0
POLYLINE
  8
PLAN_1
  6
CONTINUOUS
 66
     1
 40
0.003000
 41
0.003000
  0
VERTEX
  8
PLAN_1
  6
CONTINUOUS
 10
1.868642
 20
-3.658539
  0
VERTEX
  8
PLAN_1
  6
CONTINUOUS
 10
1.841421
 20
-3.658539
  0
VERTEX
  8
PLAN_1
  6
CONTINUOUS
 10
1.841421
 20
-3.459220
  0
VERTEX
  8
PLAN_1
  6
CONTINUOUS
 10
1.931390
 20
-3.459220
  0
VERTEX
  8
PLAN_1
  6
CONTINUOUS
 10
1.937850
 20
-3.459220
  0
VERTEX
  8
PLAN_1
  6
CONTINUOUS
 10
1.944307
 20
-3.460142
  0
VERTEX
  8
PLAN_1
  6
CONTINUOUS
 10
1.950307
 20
-3.461528
  0
VERTEX
  8
PLAN_1
  6
CONTINUOUS
 10
1.955843
 20
-3.463374
  0
VERTEX
  8
PLAN_1
  6
CONTINUOUS
 10
1.961378
 20
-3.465677
  0
VERTEX
  8
PLAN_1
  6
CONTINUOUS
 10
1.965992
 20
-3.468449
  0
VERTEX
  8
PLAN_1
  6
CONTINUOUS
 10
1.970606
 20
-3.471677
  0
VERTEX
  8
PLAN_1
  6
CONTINUOUS
 10
1.974760
 20
-3.474906
  0
VERTEX
  8
PLAN_1
  6
CONTINUOUS
 10
1.977988
 20
-3.479059
  0
VERTEX
  8
PLAN_1
  6
CONTINUOUS
 10
1.981220
 20
-3.483213
  0
VERTEX
  8
PLAN_1
  6
CONTINUOUS
 10
1.983988
 20
-3.487827
  0
VERTEX
  8
PLAN_1
  6
CONTINUOUS
 10
1.986295
 20
-3.492902
  0
VERTEX
  8
PLAN_1
  6
CONTINUOUS
 10
1.988138
 20
-3.497976
  0
VERTEX
  8
PLAN_1
  6
CONTINUOUS
 10
1.989063
 20
-3.503512
  0
VERTEX
  8
PLAN_1
  6
CONTINUOUS
 10
1.989984
 20
-3.509512
  0
VERTEX
  8
PLAN_1
  6
CONTINUOUS
 10
1.990445
 20
-3.515047
  0
VERTEX
  8
PLAN_1
  6
CONTINUOUS
 10
1.989984
 20
-3.520583
  0
VERTEX
  8
PLAN_1
  6
CONTINUOUS
 10
1.989524
 20
-3.525657
  0
VERTEX
  8
PLAN_1
  6
CONTINUOUS
 10
1.988602
 20
-3.531197
  0
VERTEX
  8
PLAN_1
  6
CONTINUOUS
 10
1.987217
 20
-3.536272
  0
VERTEX
  8
PLAN_1
  6
CONTINUOUS
 10
1.985370
 20
-3.541346
  0
VERTEX
  8
PLAN_1
  6
CONTINUOUS
 10
1.983063
 20
-3.545961
  0
VERTEX
  8
PLAN_1
  6
CONTINUOUS
 10
1.980295
 20
-3.551035
  0
VERTEX
  8
PLAN_1
  6
CONTINUOUS
 10
1.977067
 20
-3.555189
  0
VERTEX
  8
PLAN_1
  6
CONTINUOUS
 10
1.973374
 20
-3.559339
  0
VERTEX
  8
PLAN_1
  6
CONTINUOUS
 10
1.968760
 20
-3.563031
  0
VERTEX
  8
PLAN_1
  6
CONTINUOUS
 10
1.964146
 20
-3.566260
  0
VERTEX
  8
PLAN_1
  6
CONTINUOUS
 10
1.958610
 20
-3.569028
  0
VERTEX
  8
PLAN_1
  6
CONTINUOUS
 10
1.952614
 20
-3.571335
  0
VERTEX
  8
PLAN_1
  6
CONTINUOUS
 10
1.946154
 20
-3.572720
  0
VERTEX
  8
PLAN_1
  6
CONTINUOUS
 10
1.938772
 20
-3.574102
  0
VERTEX
  8
PLAN_1
  6
CONTINUOUS
 10
1.931390
 20
-3.574567
  0
VERTEX
  8
PLAN_1
  6
CONTINUOUS
 10
1.868642
 20
-3.574567
  0
VERTEX
  8
PLAN_1
  6
CONTINUOUS
 10
1.868642
 20
-3.658539
  0
SEQEND
  8
0
  0
POLYLINE
  8
PLAN_1
  6
CONTINUOUS
 66
     1
 40
0.003000
 41
0.003000
  0
VERTEX
  8
PLAN_1
  6
CONTINUOUS
 10
1.868642
 20
-3.551496
  0
VERTEX
  8
PLAN_1
  6
CONTINUOUS
 10
1.922161
 20
-3.551496
  0
VERTEX
  8
PLAN_1
  6
CONTINUOUS
 10
1.926315
 20
-3.551035
  0
VERTEX
  8
PLAN_1
  6
CONTINUOUS
 10
1.930929
 20
-3.551035
  0
VERTEX
  8
PLAN_1
  6
CONTINUOUS
 10
1.934618
 20
-3.550114
  0
VERTEX
  8
PLAN_1
  6
CONTINUOUS
 10
1.938772
 20
-3.549650
  0
VERTEX
  8
PLAN_1
  6
CONTINUOUS
 10
1.942000
 20
-3.548268
  0
VERTEX
  8
PLAN_1
  6
CONTINUOUS
 10
1.945232
 20
-3.546882
  0
VERTEX
  8
PLAN_1
  6
CONTINUOUS
 10
1.948461
 20
-3.545500
  0
VERTEX
  8
PLAN_1
  6
CONTINUOUS
 10
1.951228
 20
-3.543654
  0
VERTEX
  8
PLAN_1
  6
CONTINUOUS
 10
1.953996
 20
-3.541346
  0
VERTEX
  8
PLAN_1
  6
CONTINUOUS
 10
1.956303
 20
-3.538579
  0
VERTEX
  8
PLAN_1
  6
CONTINUOUS
 10
1.958150
 20
-3.535811
  0
VERTEX
  8
PLAN_1
  6
CONTINUOUS
 10
1.959535
 20
-3.532579
  0
VERTEX
  8
PLAN_1
  6
CONTINUOUS
 10
1.960917
 20
-3.528890
  0
VERTEX
  8
PLAN_1
  6
CONTINUOUS
 10
1.961843
 20
-3.524736
  0
VERTEX
  8
PLAN_1
  6
CONTINUOUS
 10
1.962303
 20
-3.520122
  0
VERTEX
  8
PLAN_1
  6
CONTINUOUS
 10
1.962764
 20
-3.515508
  0
VERTEX
  8
PLAN_1
  6
CONTINUOUS
 10
1.962303
 20
-3.510894
  0
VERTEX
  8
PLAN_1
  6
CONTINUOUS
 10
1.961843
 20
-3.506744
  0
VERTEX
  8
PLAN_1
  6
CONTINUOUS
 10
1.960917
 20
-3.503051
  0
VERTEX
  8
PLAN_1
  6
CONTINUOUS
 10
1.959535
 20
-3.499823
  0
VERTEX
  8
PLAN_1
  6
CONTINUOUS
 10
1.957689
 20
-3.496591
  0
VERTEX
  8
PLAN_1
  6
CONTINUOUS
 10
1.955843
 20
-3.493823
  0
VERTEX
  8
PLAN_1
  6
CONTINUOUS
 10
1.953535
 20
-3.491516
  0
VERTEX
  8
PLAN_1
  6
CONTINUOUS
 10
1.951228
 20
-3.489209
  0
VERTEX
  8
PLAN_1
  6
CONTINUOUS
 10
1.948461
 20
-3.487362
  0
VERTEX
  8
PLAN_1
  6
CONTINUOUS
 10
1.945232
 20
-3.485980
  0
VERTEX
  8
PLAN_1
  6
CONTINUOUS
 10
1.942000
 20
-3.485059
  0
VERTEX
  8
PLAN_1
  6
CONTINUOUS
 10
1.938772
 20
-3.483673
  0
VERTEX
  8
PLAN_1
  6
CONTINUOUS
 10
1.935079
 20
-3.483213
  0
VERTEX
  8
PLAN_1
  6
CONTINUOUS
 10
1.931390
 20
-3.482752
  0
VERTEX
  8
PLAN_1
  6
CONTINUOUS
 10
1.927236
 20
-3.482287
  0
VERTEX
  8
PLAN_1
  6
CONTINUOUS
 10
1.923083
 20
-3.482287
  0
VERTEX
  8
PLAN_1
  6
CONTINUOUS
 10
1.868642
 20
-3.482287
  0
VERTEX
  8
PLAN_1
  6
CONTINUOUS
 10
1.868642
 20
-3.551496
  0
SEQEND
  8
0
  0
POLYLINE
  8
PLAN_1
  6
CONTINUOUS
 66
     1
 40
0.003000
 41
0.003000
  0
VERTEX
  8
PLAN_1
  6
CONTINUOUS
 10
2.144087
 20
-3.517354
  0
VERTEX
  8
PLAN_1
  6
CONTINUOUS
 10
2.143626
 20
-3.511819
  0
VERTEX
  8
PLAN_1
  6
CONTINUOUS
 10
2.142705
 20
-3.506744
  0
VERTEX
  8
PLAN_1
  6
CONTINUOUS
 10
2.140858
 20
-3.502130
  0
VERTEX
  8
PLAN_1
  6
CONTINUOUS
 10
2.139012
 20
-3.497976
  0
VERTEX
  8
PLAN_1
  6
CONTINUOUS
 10
2.136705
 20
-3.494283
  0
VERTEX
  8
PLAN_1
  6
CONTINUOUS
 10
2.133937
 20
-3.491055
  0
VERTEX
  8
PLAN_1
  6
CONTINUOUS
 10
2.130709
 20
-3.488287
  0
VERTEX
  8
PLAN_1
  6
CONTINUOUS
 10
2.127476
 20
-3.485520
  0
VERTEX
  8
PLAN_1
  6
CONTINUOUS
 10
2.123787
 20
-3.483673
  0
VERTEX
  8
PLAN_1
  6
CONTINUOUS
 10
2.120094
 20
-3.481827
  0
VERTEX
  8
PLAN_1
  6
CONTINUOUS
 10
2.115941
 20
-3.479980
  0
VERTEX
  8
PLAN_1
  6
CONTINUOUS
 10
2.111791
 20
-3.479059
  0
VERTEX
  8
PLAN_1
  6
CONTINUOUS
 10
2.107638
 20
-3.478138
  0
VERTEX
  8
PLAN_1
  6
CONTINUOUS
 10
2.103484
 20
-3.477213
  0
VERTEX
  8
PLAN_1
  6
CONTINUOUS
 10
2.098870
 20
-3.477213
  0
VERTEX
  8
PLAN_1
  6
CONTINUOUS
 10
2.094720
 20
-3.476752
  0
VERTEX
  8
PLAN_1
  6
CONTINUOUS
 10
2.087799
 20
-3.477213
  0
VERTEX
  8
PLAN_1
  6
CONTINUOUS
 10
2.080417
 20
-3.478138
  0
VERTEX
  8
PLAN_1
  6
CONTINUOUS
 10
2.076724
 20
-3.479059
  0
VERTEX
  8
PLAN_1
  6
CONTINUOUS
 10
2.073035
 20
-3.479980
  0
VERTEX
  8
PLAN_1
  6
CONTINUOUS
 10
2.069343
 20
-3.481366
  0
VERTEX
  8
PLAN_1
  6
CONTINUOUS
 10
2.065654
 20
-3.483213
  0
VERTEX
  8
PLAN_1
  6
CONTINUOUS
 10
2.062421
 20
-3.485059
  0
VERTEX
  8
PLAN_1
  6
CONTINUOUS
 10
2.059193
 20
-3.487362
  0
VERTEX
  8
PLAN_1
  6
CONTINUOUS
 10
2.056425
 20
-3.490594
  0
VERTEX
  8
PLAN_1
  6
CONTINUOUS
 10
2.054118
 20
-3.493823
  0
VERTEX
  8
PLAN_1
  6
CONTINUOUS
 10
2.051811
 20
-3.497516
  0
VERTEX
  8
PLAN_1
  6
CONTINUOUS
 10
2.050425
 20
-3.501665
  0
VERTEX
  8
PLAN_1
  6
CONTINUOUS
 10
2.049504
 20
-3.506744
  0
VERTEX
  8
PLAN_1
  6
CONTINUOUS
 10
2.049043
 20
-3.511819
  0
VERTEX
  8
PLAN_1
  6
CONTINUOUS
 10
2.049504
 20
-3.515047
  0
VERTEX
  8
PLAN_1
  6
CONTINUOUS
 10
2.049965
 20
-3.517815
  0
VERTEX
  8
PLAN_1
  6
CONTINUOUS
 10
2.050425
 20
-3.520122
  0
VERTEX
  8
PLAN_1
  6
CONTINUOUS
 10
2.051350
 20
-3.522429
  0
VERTEX
  8
PLAN_1
  6
CONTINUOUS
 10
2.052272
 20
-3.524736
  0
VERTEX
  8
PLAN_1
  6
CONTINUOUS
 10
2.053657
 20
-3.526583
  0
VERTEX
  8
PLAN_1
  6
CONTINUOUS
 10
2.055039
 20
-3.528429
  0
VERTEX
  8
PLAN_1
  6
CONTINUOUS
 10
2.056886
 20
-3.529811
  0
VERTEX
  8
PLAN_1
  6
CONTINUOUS
 10
2.060114
 20
-3.532579
  0
VERTEX
  8
PLAN_1
  6
CONTINUOUS
 10
2.064268
 20
-3.534425
  0
VERTEX
  8
PLAN_1
  6
CONTINUOUS
 10
2.068421
 20
-3.535811
  0
VERTEX
  8
PLAN_1
  6
CONTINUOUS
 10
2.073035
 20
-3.537193
  0
VERTEX
  8
PLAN_1
  6
CONTINUOUS
 10
2.129783
 20
-3.550114
  0
VERTEX
  8
PLAN_1
  6
CONTINUOUS
 10
2.134398
 20
-3.551496
  0
VERTEX
  8
PLAN_1
  6
CONTINUOUS
 10
2.139012
 20
-3.552882
  0
VERTEX
  8
PLAN_1
  6
CONTINUOUS
 10
2.143626
 20
-3.554724
  0
VERTEX
  8
PLAN_1
  6
CONTINUOUS
 10
2.147780
 20
-3.556571
  0
VERTEX
  8
PLAN_1
  6
CONTINUOUS
 10
2.151469
 20
-3.558878
  0
VERTEX
  8
PLAN_1
  6
CONTINUOUS
 10
2.155622
 20
-3.561185
  0
VERTEX
  8
PLAN_1
  6
CONTINUOUS
 10
2.158850
 20
-3.564413
  0
VERTEX
  8
PLAN_1
  6
CONTINUOUS
 10
2.162083
 20
-3.567185
  0
VERTEX
  8
PLAN_1
  6
CONTINUOUS
 10
2.164850
 20
-3.570874
  0
VERTEX
  8
PLAN_1
  6
CONTINUOUS
 10
2.167618
 20
-3.574102
  0
VERTEX
  8
PLAN_1
  6
CONTINUOUS
 10
2.169925
 20
-3.578256
  0
VERTEX
  8
PLAN_1
  6
CONTINUOUS
 10
2.171772
 20
-3.582870
  0
VERTEX
  8
PLAN_1
  6
CONTINUOUS
 10
2.173154
 20
-3.587484
  0
VERTEX
  8
PLAN_1
  6
CONTINUOUS
 10
2.174079
 20
-3.592559
  0
VERTEX
  8
PLAN_1
  6
CONTINUOUS
 10
2.175000
 20
-3.597634
  0
VERTEX
  8
PLAN_1
  6
CONTINUOUS
 10
2.175000
 20
-3.603634
  0
VERTEX
  8
PLAN_1
  6
CONTINUOUS
 10
2.175000
 20
-3.607783
  0
VERTEX
  8
PLAN_1
  6
CONTINUOUS
 10
2.174539
 20
-3.611937
  0
VERTEX
  8
PLAN_1
  6
CONTINUOUS
 10
2.174079
 20
-3.616091
  0
VERTEX
  8
PLAN_1
  6
CONTINUOUS
 10
2.173154
 20
-3.619780
  0
VERTEX
  8
PLAN_1
  6
CONTINUOUS
 10
2.171772
 20
-3.623012
  0
VERTEX
  8
PLAN_1
  6
CONTINUOUS
 10
2.170846
 20
-3.626701
  0
VERTEX
  8
PLAN_1
  6
CONTINUOUS
 10
2.169465
 20
-3.629933
  0
VERTEX
  8
PLAN_1
  6
CONTINUOUS
 10
2.167618
 20
-3.632701
  0
VERTEX
  8
PLAN_1
  6
CONTINUOUS
 10
2.163925
 20
-3.638236
  0
VERTEX
  8
PLAN_1
  6
CONTINUOUS
 10
2.159311
 20
-3.643311
  0
VERTEX
  8
PLAN_1
  6
CONTINUOUS
 10
2.154236
 20
-3.647465
  0
VERTEX
  8
PLAN_1
  6
CONTINUOUS
 10
2.148701
 20
-3.651154
  0
VERTEX
  8
PLAN_1
  6
CONTINUOUS
 10
2.142705
 20
-3.654386
  0
VERTEX
  8
PLAN_1
  6
CONTINUOUS
 10
2.136705
 20
-3.657154
  0
VERTEX
  8
PLAN_1
  6
CONTINUOUS
 10
2.130244
 20
-3.659461
  0
VERTEX
  8
PLAN_1
  6
CONTINUOUS
 10
2.123787
 20
-3.660843
  0
VERTEX
  8
PLAN_1
  6
CONTINUOUS
 10
2.116866
 20
-3.662228
  0
VERTEX
  8
PLAN_1
  6
CONTINUOUS
 10
2.109945
 20
-3.663150
  0
VERTEX
  8
PLAN_1
  6
CONTINUOUS
 10
2.103484
 20
-3.663614
  0
VERTEX
  8
PLAN_1
  6
CONTINUOUS
 10
2.097028
 20
-3.663614
  0
VERTEX
  8
PLAN_1
  6
CONTINUOUS
 10
2.090106
 20
-3.663614
  0
VERTEX
  8
PLAN_1
  6
CONTINUOUS
 10
2.084106
 20
-3.663150
  0
VERTEX
  8
PLAN_1
  6
CONTINUOUS
 10
2.078571
 20
-3.662689
  0
VERTEX
  8
PLAN_1
  6
CONTINUOUS
 10
2.073035
 20
-3.661768
  0
VERTEX
  8
PLAN_1
  6
CONTINUOUS
 10
2.068421
 20
-3.660843
  0
VERTEX
  8
PLAN_1
  6
CONTINUOUS
 10
2.064268
 20
-3.659921
  0
VERTEX
  8
PLAN_1
  6
CONTINUOUS
 10
2.060114
 20
-3.658539
  0
VERTEX
  8
PLAN_1
  6
CONTINUOUS
 10
2.056425
 20
-3.657154
  0
VERTEX
  8
PLAN_1
  6
CONTINUOUS
 10
2.049965
 20
-3.654386
  0
VERTEX
  8
PLAN_1
  6
CONTINUOUS
 10
2.044890
 20
-3.651154
  0
VERTEX
  8
PLAN_1
  6
CONTINUOUS
 10
2.040276
 20
-3.647925
  0
VERTEX
  8
PLAN_1
  6
CONTINUOUS
 10
2.036587
 20
-3.644697
  0
VERTEX
  8
PLAN_1
  6
CONTINUOUS
 10
2.033815
 20
-3.641465
  0
VERTEX
  8
PLAN_1
  6
CONTINUOUS
 10
2.031047
 20
-3.638697
  0
VERTEX
  8
PLAN_1
  6
CONTINUOUS
 10
2.028740
 20
-3.635929
  0
VERTEX
  8
PLAN_1
  6
CONTINUOUS
 10
2.026433
 20
-3.632701
  0
VERTEX
  8
PLAN_1
  6
CONTINUOUS
 10
2.022744
 20
-3.626701
  0
VERTEX
  8
PLAN_1
  6
CONTINUOUS
 10
2.020437
 20
-3.620705
  0
VERTEX
  8
PLAN_1
  6
CONTINUOUS
 10
2.018591
 20
-3.614244
  0
VERTEX
  8
PLAN_1
  6
CONTINUOUS
 10
2.017209
 20
-3.607783
  0
VERTEX
  8
PLAN_1
  6
CONTINUOUS
 10
2.016744
 20
-3.600866
  0
VERTEX
  8
PLAN_1
  6
CONTINUOUS
 10
2.016283
 20
-3.593945
  0
VERTEX
  8
PLAN_1
  6
CONTINUOUS
 10
2.041661
 20
-3.593945
  0
VERTEX
  8
PLAN_1
  6
CONTINUOUS
 10
2.042122
 20
-3.600402
  0
VERTEX
  8
PLAN_1
  6
CONTINUOUS
 10
2.043043
 20
-3.606402
  0
VERTEX
  8
PLAN_1
  6
CONTINUOUS
 10
2.044429
 20
-3.611937
  0
VERTEX
  8
PLAN_1
  6
CONTINUOUS
 10
2.046736
 20
-3.616551
  0
VERTEX
  8
PLAN_1
  6
CONTINUOUS
 10
2.049504
 20
-3.620705
  0
VERTEX
  8
PLAN_1
  6
CONTINUOUS
 10
2.052272
 20
-3.624858
  0
VERTEX
  8
PLAN_1
  6
CONTINUOUS
 10
2.055965
 20
-3.628087
  0
VERTEX
  8
PLAN_1
  6
CONTINUOUS
 10
2.059654
 20
-3.630854
  0
VERTEX
  8
PLAN_1
  6
CONTINUOUS
 10
2.063807
 20
-3.633161
  0
VERTEX
  8
PLAN_1
  6
CONTINUOUS
 10
2.067961
 20
-3.635469
  0
VERTEX
  8
PLAN_1
  6
CONTINUOUS
 10
2.072571
 20
-3.637315
  0
VERTEX
  8
PLAN_1
  6
CONTINUOUS
 10
2.077185
 20
-3.638697
  0
VERTEX
  8
PLAN_1
  6
CONTINUOUS
 10
2.082264
 20
-3.639622
  0
VERTEX
  8
PLAN_1
  6
CONTINUOUS
 10
2.086874
 20
-3.640083
  0
VERTEX
  8
PLAN_1
  6
CONTINUOUS
 10
2.091953
 20
-3.640543
  0
VERTEX
  8
PLAN_1
  6
CONTINUOUS
 10
2.096563
 20
-3.640543
  0
VERTEX
  8
PLAN_1
  6
CONTINUOUS
 10
2.104409
 20
-3.640543
  0
VERTEX
  8
PLAN_1
  6
CONTINUOUS
 10
2.113173
 20
-3.639622
  0
VERTEX
  8
PLAN_1
  6
CONTINUOUS
 10
2.117327
 20
-3.638697
  0
VERTEX
  8
PLAN_1
  6
CONTINUOUS
 10
2.121941
 20
-3.637776
  0
VERTEX
  8
PLAN_1
  6
CONTINUOUS
 10
2.126094
 20
-3.636390
  0
VERTEX
  8
PLAN_1
  6
CONTINUOUS
 10
2.130244
 20
-3.634547
  0
VERTEX
  8
PLAN_1
  6
CONTINUOUS
 10
2.133937
 20
-3.632701
  0
VERTEX
  8
PLAN_1
  6
CONTINUOUS
 10
2.137626
 20
-3.630394
  0
VERTEX
  8
PLAN_1
  6
CONTINUOUS
 10
2.140858
 20
-3.627626
  0
VERTEX
  8
PLAN_1
  6
CONTINUOUS
 10
2.143626
 20
-3.624394
  0
VERTEX
  8
PLAN_1
  6
CONTINUOUS
 10
2.145933
 20
-3.620705
  0
VERTEX
  8
PLAN_1
  6
CONTINUOUS
 10
2.147319
 20
-3.616551
  0
VERTEX
  8
PLAN_1
  6
CONTINUOUS
 10
2.148701
 20
-3.612398
  0
VERTEX
  8
PLAN_1
  6
CONTINUOUS
 10
2.148701
 20
-3.607323
  0
VERTEX
  8
PLAN_1
  6
CONTINUOUS
 10
2.148701
 20
-3.603173
  0
VERTEX
  8
PLAN_1
  6
CONTINUOUS
 10
2.148240
 20
-3.599941
  0
VERTEX
  8
PLAN_1
  6
CONTINUOUS
 10
2.147780
 20
-3.596713
  0
VERTEX
  8
PLAN_1
  6
CONTINUOUS
 10
2.146854
 20
-3.593945
  0
VERTEX
  8
PLAN_1
  6
CONTINUOUS
 10
2.145472
 20
-3.591177
  0
VERTEX
  8
PLAN_1
  6
CONTINUOUS
 10
2.144087
 20
-3.588870
  0
VERTEX
  8
PLAN_1
  6
CONTINUOUS
 10
2.142240
 20
-3.586563
  0
VERTEX
  8
PLAN_1
  6
CONTINUOUS
 10
2.139933
 20
-3.584717
  0
VERTEX
  8
PLAN_1
  6
CONTINUOUS
 10
2.137165
 20
-3.582870
  0
VERTEX
  8
PLAN_1
  6
CONTINUOUS
 10
2.134398
 20
-3.581024
  0
VERTEX
  8
PLAN_1
  6
CONTINUOUS
 10
2.130709
 20
-3.579181
  0
VERTEX
  8
PLAN_1
  6
CONTINUOUS
 10
2.127016
 20
-3.577795
  0
VERTEX
  8
PLAN_1
  6
CONTINUOUS
 10
2.117787
 20
-3.574567
  0
VERTEX
  8
PLAN_1
  6
CONTINUOUS
 10
2.106252
 20
-3.571799
  0
VERTEX
  8
PLAN_1
  6
CONTINUOUS
 10
2.065654
 20
-3.562571
  0
VERTEX
  8
PLAN_1
  6
CONTINUOUS
 10
2.060114
 20
-3.560724
  0
VERTEX
  8
PLAN_1
  6
CONTINUOUS
 10
2.053657
 20
-3.558878
  0
VERTEX
  8
PLAN_1
  6
CONTINUOUS
 10
2.049965
 20
-3.557031
  0
VERTEX
  8
PLAN_1
  6
CONTINUOUS
 10
2.046276
 20
-3.555189
  0
VERTEX
  8
PLAN_1
  6
CONTINUOUS
 10
2.043043
 20
-3.553343
  0
VERTEX
  8
PLAN_1
  6
CONTINUOUS
 10
2.039354
 20
-3.551035
  0
VERTEX
  8
PLAN_1
  6
CONTINUOUS
 10
2.036122
 20
-3.547807
  0
VERTEX
  8
PLAN_1
  6
CONTINUOUS
 10
2.033354
 20
-3.544575
  0
VERTEX
  8
PLAN_1
  6
CONTINUOUS
 10
2.030587
 20
-3.541346
  0
VERTEX
  8
PLAN_1
  6
CONTINUOUS
 10
2.027819
 20
-3.537193
  0
VERTEX
  8
PLAN_1
  6
CONTINUOUS
 10
2.025972
 20
-3.532579
  0
VERTEX
  8
PLAN_1
  6
CONTINUOUS
 10
2.024591
 20
-3.527504
  0
VERTEX
  8
PLAN_1
  6
CONTINUOUS
 10
2.023665
 20
-3.521508
  0
VERTEX
  8
PLAN_1
  6
CONTINUOUS
 10
2.023205
 20
-3.515508
  0
VERTEX
  8
PLAN_1
  6
CONTINUOUS
 10
2.023205
 20
-3.509512
  0
VERTEX
  8
PLAN_1
  6
CONTINUOUS
 10
2.024126
 20
-3.503972
  0
VERTEX
  8
PLAN_1
  6
CONTINUOUS
 10
2.025512
 20
-3.498437
  0
VERTEX
  8
PLAN_1
  6
CONTINUOUS
 10
2.026898
 20
-3.492902
  0
VERTEX
  8
PLAN_1
  6
CONTINUOUS
 10
2.029201
 20
-3.487362
  0
VERTEX
  8
PLAN_1
  6
CONTINUOUS
 10
2.031972
 20
-3.482287
  0
VERTEX
  8
PLAN_1
  6
CONTINUOUS
 10
2.035661
 20
-3.477673
  0
VERTEX
  8
PLAN_1
  6
CONTINUOUS
 10
2.039354
 20
-3.473063
  0
VERTEX
  8
PLAN_1
  6
CONTINUOUS
 10
2.043969
 20
-3.468909
  0
VERTEX
  8
PLAN_1
  6
CONTINUOUS
 10
2.048583
 20
-3.465217
  0
VERTEX
  8
PLAN_1
  6
CONTINUOUS
 10
2.054579
 20
-3.461988
  0
VERTEX
  8
PLAN_1
  6
CONTINUOUS
 10
2.060579
 20
-3.459220
  0
VERTEX
  8
PLAN_1
  6
CONTINUOUS
 10
2.067496
 20
-3.456913
  0
VERTEX
  8
PLAN_1
  6
CONTINUOUS
 10
2.074878
 20
-3.455067
  0
VERTEX
  8
PLAN_1
  6
CONTINUOUS
 10
2.083185
 20
-3.454146
  0
VERTEX
  8
PLAN_1
  6
CONTINUOUS
 10
2.091953
 20
-3.453685
  0
VERTEX
  8
PLAN_1
  6
CONTINUOUS
 10
2.097949
 20
-3.454146
  0
VERTEX
  8
PLAN_1
  6
CONTINUOUS
 10
2.103949
 20
-3.454146
  0
VERTEX
  8
PLAN_1
  6
CONTINUOUS
 10
2.109484
 20
-3.455067
  0
VERTEX
  8
PLAN_1
  6
CONTINUOUS
 10
2.115020
 20
-3.455528
  0
VERTEX
  8
PLAN_1
  6
CONTINUOUS
 10
2.120094
 20
-3.456913
  0
VERTEX
  8
PLAN_1
  6
CONTINUOUS
 10
2.124709
 20
-3.457835
  0
VERTEX
  8
PLAN_1
  6
CONTINUOUS
 10
2.128862
 20
-3.459220
  0
VERTEX
  8
PLAN_1
  6
CONTINUOUS
 10
2.133016
 20
-3.460602
  0
VERTEX
  8
PLAN_1
  6
CONTINUOUS
 10
2.136705
 20
-3.462449
  0
VERTEX
  8
PLAN_1
  6
CONTINUOUS
 10
2.140398
 20
-3.464295
  0
VERTEX
  8
PLAN_1
  6
CONTINUOUS
 10
2.143626
 20
-3.466142
  0
VERTEX
  8
PLAN_1
  6
CONTINUOUS
 10
2.146854
 20
-3.468449
  0
VERTEX
  8
PLAN_1
  6
CONTINUOUS
 10
2.151929
 20
-3.472598
  0
VERTEX
  8
PLAN_1
  6
CONTINUOUS
 10
2.156083
 20
-3.477213
  0
VERTEX
  8
PLAN_1
  6
CONTINUOUS
 10
2.159776
 20
-3.482287
  0
VERTEX
  8
PLAN_1
  6
CONTINUOUS
 10
2.162543
 20
-3.487827
  0
VERTEX
  8
PLAN_1
  6
CONTINUOUS
 10
2.164850
 20
-3.492902
  0
VERTEX
  8
PLAN_1
  6
CONTINUOUS
 10
2.166697
 20
-3.498437
  0
VERTEX
  8
PLAN_1
  6
CONTINUOUS
 10
2.167618
 20
-3.503512
  0
VERTEX
  8
PLAN_1
  6
CONTINUOUS
 10
2.168539
 20
-3.508587
  0
VERTEX
  8
PLAN_1
  6
CONTINUOUS
 10
2.169004
 20
-3.513201
  0
VERTEX
  8
PLAN_1
  6
CONTINUOUS
 10
2.169465
 20
-3.517354
  0
VERTEX
  8
PLAN_1
  6
CONTINUOUS
 10
2.144087
 20
-3.517354
  0
SEQEND
  8
0
  0
POLYLINE
  8
PLAN_1
 62
     5
  6
CONTINUOUS
 66
     1
 40
0.003000
 41
0.003000
  0
VERTEX
  8
PLAN_1
 62
     5
  6
CONTINUOUS
 10
-1.356894
 20
0.230004
  0
VERTEX
  8
PLAN_1
 62
     5
  6
CONTINUOUS
 10
-1.356894
 20
0.238311
  0
SEQEND
  8
0
  0
POLYLINE
  8
PLAN_1
 62
     5
  6
CONTINUOUS
 66
     1
 40
0.003000
 41
0.003000
  0
VERTEX
  8
PLAN_1
 62
     5
  6
CONTINUOUS
 10
-1.356894
 20
0.246614
  0
VERTEX
  8
PLAN_1
 62
     5
  6
CONTINUOUS
 10
-1.356894
 20
0.254921
  0
SEQEND
  8
0
  0
POLYLINE
  8
PLAN_1
 62
     5
  6
CONTINUOUS
 66
     1
 40
0.003000
 41
0.003000
  0
VERTEX
  8
PLAN_1
 62
     5
  6
CONTINUOUS
 10
-1.356894
 20
0.263224
  0
VERTEX
  8
PLAN_1
 62
     5
  6
CONTINUOUS
 10
-1.356894
 20
0.271531
  0
SEQEND
  8
0
  0
POLYLINE
  8
PLAN_1
 62
     5
  6
CONTINUOUS
 66
     1
 40
0.003000
 41
0.003000
  0
VERTEX
  8
PLAN_1
 62
     5
  6
CONTINUOUS
 10
-1.356894
 20
0.279835
  0
VERTEX
  8
PLAN_1
 62
     5
  6
CONTINUOUS
 10
-1.356894
 20
0.288138
  0
SEQEND
  8
0
  0
POLYLINE
  8
PLAN_1
 62
     5
  6
CONTINUOUS
 66
     1
 40
0.003000
 41
0.003000
  0
VERTEX
  8
PLAN_1
 62
     5
  6
CONTINUOUS
 10
-1.356894
 20
0.296445
  0
VERTEX
  8
PLAN_1
 62
     5
  6
CONTINUOUS
 10
-1.356894
 20
0.304748
  0
SEQEND
  8
0
  0
POLYLINE
  8
PLAN_1
 62
     5
  6
CONTINUOUS
 66
     1
 40
0.003000
 41
0.003000
  0
VERTEX
  8
PLAN_1
 62
     5
  6
CONTINUOUS
 10
-1.356894
 20
0.313055
  0
VERTEX
  8
PLAN_1
 62
     5
  6
CONTINUOUS
 10
-1.356894
 20
0.321358
  0
SEQEND
  8
0
  0
POLYLINE
  8
PLAN_1
 62
     5
  6
CONTINUOUS
 66
     1
 40
0.003000
 41
0.003000
  0
VERTEX
  8
PLAN_1
 62
     5
  6
CONTINUOUS
 10
-1.356894
 20
0.329665
  0
VERTEX
  8
PLAN_1
 62
     5
  6
CONTINUOUS
 10
-1.356894
 20
0.337969
  0
SEQEND
  8
0
  0
POLYLINE
  8
PLAN_1
 62
     5
  6
CONTINUOUS
 66
     1
 40
0.003000
 41
0.003000
  0
VERTEX
  8
PLAN_1
 62
     5
  6
CONTINUOUS
 10
-1.356894
 20
0.346276
  0
VERTEX
  8
PLAN_1
 62
     5
  6
CONTINUOUS
 10
-1.356894
 20
0.354579
  0
SEQEND
  8
0
  0
POLYLINE
  8
PLAN_1
 62
     5
  6
CONTINUOUS
 66
     1
 40
0.003000
 41
0.003000
  0
VERTEX
  8
PLAN_1
 62
     5
  6
CONTINUOUS
 10
-1.356894
 20
0.362886
  0
VERTEX
  8
PLAN_1
 62
     5
  6
CONTINUOUS
 10
-1.356894
 20
0.371189
  0
SEQEND
  8
0
  0
POLYLINE
  8
PLAN_1
 62
     5
  6
CONTINUOUS
 66
     1
 40
0.003000
 41
0.003000
  0
VERTEX
  8
PLAN_1
 62
     5
  6
CONTINUOUS
 10
-1.356894
 20
0.379957
  0
VERTEX
  8
PLAN_1
 62
     5
  6
CONTINUOUS
 10
-1.356894
 20
0.388260
  0
SEQEND
  8
0
  0
POLYLINE
  8
PLAN_1
 62
     5
  6
CONTINUOUS
 66
     1
 40
0.003000
 41
0.003000
  0
VERTEX
  8
PLAN_1
 62
     5
  6
CONTINUOUS
 10
-1.356894
 20
0.396563
  0
VERTEX
  8
PLAN_1
 62
     5
  6
CONTINUOUS
 10
-1.356894
 20
0.404870
  0
SEQEND
  8
0
  0
POLYLINE
  8
PLAN_1
 62
     5
  6
CONTINUOUS
 66
     1
 40
0.003000
 41
0.003000
  0
VERTEX
  8
PLAN_1
 62
     5
  6
CONTINUOUS
 10
-1.356894
 20
0.413173
  0
VERTEX
  8
PLAN_1
 62
     5
  6
CONTINUOUS
 10
-1.356894
 20
0.421480
  0
SEQEND
  8
0
  0
POLYLINE
  8
PLAN_1
 62
     5
  6
CONTINUOUS
 66
     1
 40
0.003000
 41
0.003000
  0
VERTEX
  8
PLAN_1
 62
     5
  6
CONTINUOUS
 10
-1.356894
 20
0.429783
  0
VERTEX
  8
PLAN_1
 62
     5
  6
CONTINUOUS
 10
-1.356894
 20
0.438091
  0
SEQEND
  8
0
  0
POLYLINE
  8
PLAN_1
 62
     5
  6
CONTINUOUS
 66
     1
 40
0.003000
 41
0.003000
  0
VERTEX
  8
PLAN_1
 62
     5
  6
CONTINUOUS
 10
-1.356894
 20
0.446394
  0
VERTEX
  8
PLAN_1
 62
     5
  6
CONTINUOUS
 10
-1.356894
 20
0.454701
  0
SEQEND
  8
0
  0
POLYLINE
  8
PLAN_1
 62
     5
  6
CONTINUOUS
 66
     1
 40
0.003000
 41
0.003000
  0
VERTEX
  8
PLAN_1
 62
     5
  6
CONTINUOUS
 10
-1.356894
 20
0.463004
  0
VERTEX
  8
PLAN_1
 62
     5
  6
CONTINUOUS
 10
-1.356894
 20
0.471311
  0
SEQEND
  8
0
  0
POLYLINE
  8
PLAN_1
 62
     5
  6
CONTINUOUS
 66
     1
 40
0.003000
 41
0.003000
  0
VERTEX
  8
PLAN_1
 62
     5
  6
CONTINUOUS
 10
-1.356894
 20
0.479614
  0
VERTEX
  8
PLAN_1
 62
     5
  6
CONTINUOUS
 10
-1.356894
 20
0.487917
  0
SEQEND
  8
0
  0
POLYLINE
  8
PLAN_1
 62
     5
  6
CONTINUOUS
 66
     1
 40
0.003000
 41
0.003000
  0
VERTEX
  8
PLAN_1
 62
     5
  6
CONTINUOUS
 10
-1.356894
 20
0.496224
  0
VERTEX
  8
PLAN_1
 62
     5
  6
CONTINUOUS
 10
-1.356894
 20
0.504528
  0
SEQEND
  8
0
  0
POLYLINE
  8
PLAN_1
 62
     5
  6
CONTINUOUS
 66
     1
 40
0.003000
 41
0.003000
  0
VERTEX
  8
PLAN_1
 62
     5
  6
CONTINUOUS
 10
-1.356894
 20
0.512835
  0
VERTEX
  8
PLAN_1
 62
     5
  6
CONTINUOUS
 10
-1.356894
 20
0.521138
  0
SEQEND
  8
0
  0
POLYLINE
  8
PLAN_1
 62
     5
  6
CONTINUOUS
 66
     1
 40
0.003000
 41
0.003000
  0
VERTEX
  8
PLAN_1
 62
     5
  6
CONTINUOUS
 10
-1.356894
 20
0.529445
  0
VERTEX
  8
PLAN_1
 62
     5
  6
CONTINUOUS
 10
-1.356894
 20
0.538209
  0
SEQEND
  8
0
  0
POLYLINE
  8
PLAN_1
 62
     5
  6
CONTINUOUS
 66
     1
 40
0.003000
 41
0.003000
  0
VERTEX
  8
PLAN_1
 62
     5
  6
CONTINUOUS
 10
-1.356894
 20
0.546516
  0
VERTEX
  8
PLAN_1
 62
     5
  6
CONTINUOUS
 10
-1.356894
 20
0.554819
  0
SEQEND
  8
0
  0
POLYLINE
  8
PLAN_1
 62
     5
  6
CONTINUOUS
 66
     1
 40
0.003000
 41
0.003000
  0
VERTEX
  8
PLAN_1
 62
     5
  6
CONTINUOUS
 10
-1.356894
 20
0.563126
  0
VERTEX
  8
PLAN_1
 62
     5
  6
CONTINUOUS
 10
-1.356894
 20
0.571429
  0
SEQEND
  8
0
  0
POLYLINE
  8
PLAN_1
 62
     5
  6
CONTINUOUS
 66
     1
 40
0.003000
 41
0.003000
  0
VERTEX
  8
PLAN_1
 62
     5
  6
CONTINUOUS
 10
-1.356894
 20
0.579736
  0
VERTEX
  8
PLAN_1
 62
     5
  6
CONTINUOUS
 10
-1.356894
 20
0.588039
  0
SEQEND
  8
0
  0
POLYLINE
  8
PLAN_1
 62
     5
  6
CONTINUOUS
 66
     1
 40
0.003000
 41
0.003000
  0
VERTEX
  8
PLAN_1
 62
     5
  6
CONTINUOUS
 10
-1.356894
 20
0.596343
  0
VERTEX
  8
PLAN_1
 62
     5
  6
CONTINUOUS
 10
-1.356894
 20
0.604650
  0
SEQEND
  8
0
  0
POLYLINE
  8
PLAN_1
 62
     5
  6
CONTINUOUS
 66
     1
 40
0.003000
 41
0.003000
  0
VERTEX
  8
PLAN_1
 62
     5
  6
CONTINUOUS
 10
-1.356894
 20
0.612953
  0
VERTEX
  8
PLAN_1
 62
     5
  6
CONTINUOUS
 10
-1.356894
 20
0.621260
  0
SEQEND
  8
0
  0
POLYLINE
  8
PLAN_1
 62
     5
  6
CONTINUOUS
 66
     1
 40
0.003000
 41
0.003000
  0
VERTEX
  8
PLAN_1
 62
     5
  6
CONTINUOUS
 10
-1.356894
 20
0.629563
  0
VERTEX
  8
PLAN_1
 62
     5
  6
CONTINUOUS
 10
-1.356894
 20
0.637870
  0
SEQEND
  8
0
  0
POLYLINE
  8
PLAN_1
 62
     5
  6
CONTINUOUS
 66
     1
 40
0.003000
 41
0.003000
  0
VERTEX
  8
PLAN_1
 62
     5
  6
CONTINUOUS
 10
-1.356894
 20
0.646173
  0
VERTEX
  8
PLAN_1
 62
     5
  6
CONTINUOUS
 10
-1.356894
 20
0.654480
  0
SEQEND
  8
0
  0
POLYLINE
  8
PLAN_1
 62
     5
  6
CONTINUOUS
 66
     1
 40
0.003000
 41
0.003000
  0
VERTEX
  8
PLAN_1
 62
     5
  6
CONTINUOUS
 10
-1.356894
 20
0.662783
  0
VERTEX
  8
PLAN_1
 62
     5
  6
CONTINUOUS
 10
-1.356894
 20
0.671087
  0
SEQEND
  8
0
  0
POLYLINE
  8
PLAN_1
 62
     5
  6
CONTINUOUS
 66
     1
 40
0.003000
 41
0.003000
  0
VERTEX
  8
PLAN_1
 62
     5
  6
CONTINUOUS
 10
-1.356894
 20
0.679394
  0
VERTEX
  8
PLAN_1
 62
     5
  6
CONTINUOUS
 10
-1.356894
 20
0.687697
  0
SEQEND
  8
0
  0
POLYLINE
  8
PLAN_1
 62
     5
  6
CONTINUOUS
 66
     1
 40
0.003000
 41
0.003000
  0
VERTEX
  8
PLAN_1
 62
     5
  6
CONTINUOUS
 10
-1.356894
 20
0.696004
  0
VERTEX
  8
PLAN_1
 62
     5
  6
CONTINUOUS
 10
-1.356894
 20
0.704768
  0
SEQEND
  8
0
  0
POLYLINE
  8
PLAN_1
 62
     5
  6
CONTINUOUS
 66
     1
 40
0.003000
 41
0.003000
  0
VERTEX
  8
PLAN_1
 62
     5
  6
CONTINUOUS
 10
-1.356894
 20
0.713075
  0
VERTEX
  8
PLAN_1
 62
     5
  6
CONTINUOUS
 10
-1.356894
 20
0.721378
  0
SEQEND
  8
0
  0
POLYLINE
  8
PLAN_1
 62
     5
  6
CONTINUOUS
 66
     1
 40
0.003000
 41
0.003000
  0
VERTEX
  8
PLAN_1
 62
     5
  6
CONTINUOUS
 10
-1.356894
 20
0.729685
  0
VERTEX
  8
PLAN_1
 62
     5
  6
CONTINUOUS
 10
-1.356894
 20
0.737988
  0
SEQEND
  8
0
  0
POLYLINE
  8
PLAN_1
 62
     5
  6
CONTINUOUS
 66
     1
 40
0.003000
 41
0.003000
  0
VERTEX
  8
PLAN_1
 62
     5
  6
CONTINUOUS
 10
-1.356894
 20
0.746295
  0
VERTEX
  8
PLAN_1
 62
     5
  6
CONTINUOUS
 10
-1.356894
 20
0.754598
  0
SEQEND
  8
0
  0
POLYLINE
  8
PLAN_1
 62
     5
  6
CONTINUOUS
 66
     1
 40
0.003000
 41
0.003000
  0
VERTEX
  8
PLAN_1
 62
     5
  6
CONTINUOUS
 10
-1.356894
 20
0.762906
  0
VERTEX
  8
PLAN_1
 62
     5
  6
CONTINUOUS
 10
-1.356894
 20
0.771209
  0
SEQEND
  8
0
  0
POLYLINE
  8
PLAN_1
 62
     5
  6
CONTINUOUS
 66
     1
 40
0.003000
 41
0.003000
  0
VERTEX
  8
PLAN_1
 62
     5
  6
CONTINUOUS
 10
-1.356894
 20
0.779512
  0
VERTEX
  8
PLAN_1
 62
     5
  6
CONTINUOUS
 10
-1.356894
 20
0.787819
  0
SEQEND
  8
0
  0
POLYLINE
  8
PLAN_1
 62
     5
  6
CONTINUOUS
 66
     1
 40
0.003000
 41
0.003000
  0
VERTEX
  8
PLAN_1
 62
     5
  6
CONTINUOUS
 10
-1.356894
 20
0.796122
  0
VERTEX
  8
PLAN_1
 62
     5
  6
CONTINUOUS
 10
-1.356894
 20
0.804429
  0
SEQEND
  8
0
  0
POLYLINE
  8
PLAN_1
 62
     5
  6
CONTINUOUS
 66
     1
 40
0.003000
 41
0.003000
  0
VERTEX
  8
PLAN_1
 62
     5
  6
CONTINUOUS
 10
-1.356894
 20
0.812732
  0
VERTEX
  8
PLAN_1
 62
     5
  6
CONTINUOUS
 10
-1.356894
 20
0.821039
  0
SEQEND
  8
0
  0
POLYLINE
  8
PLAN_1
 62
     5
  6
CONTINUOUS
 66
     1
 40
0.003000
 41
0.003000
  0
VERTEX
  8
PLAN_1
 62
     5
  6
CONTINUOUS
 10
-1.356894
 20
0.829343
  0
VERTEX
  8
PLAN_1
 62
     5
  6
CONTINUOUS
 10
-1.356894
 20
0.837650
  0
SEQEND
  8
0
  0
POLYLINE
  8
PLAN_1
 62
     5
  6
CONTINUOUS
 66
     1
 40
0.003000
 41
0.003000
  0
VERTEX
  8
PLAN_1
 62
     5
  6
CONTINUOUS
 10
-1.356894
 20
0.845953
  0
VERTEX
  8
PLAN_1
 62
     5
  6
CONTINUOUS
 10
-1.356894
 20
0.854256
  0
SEQEND
  8
0
  0
POLYLINE
  8
PLAN_1
 62
     5
  6
CONTINUOUS
 66
     1
 40
0.003000
 41
0.003000
  0
VERTEX
  8
PLAN_1
 62
     5
  6
CONTINUOUS
 10
-1.356894
 20
0.863024
  0
VERTEX
  8
PLAN_1
 62
     5
  6
CONTINUOUS
 10
-1.356894
 20
0.871331
  0
SEQEND
  8
0
  0
POLYLINE
  8
PLAN_1
 62
     5
  6
CONTINUOUS
 66
     1
 40
0.003000
 41
0.003000
  0
VERTEX
  8
PLAN_1
 62
     5
  6
CONTINUOUS
 10
-1.356894
 20
0.879634
  0
VERTEX
  8
PLAN_1
 62
     5
  6
CONTINUOUS
 10
-1.356894
 20
0.887937
  0
SEQEND
  8
0
  0
POLYLINE
  8
PLAN_1
 62
     5
  6
CONTINUOUS
 66
     1
 40
0.003000
 41
0.003000
  0
VERTEX
  8
PLAN_1
 62
     5
  6
CONTINUOUS
 10
-1.356894
 20
0.896244
  0
VERTEX
  8
PLAN_1
 62
     5
  6
CONTINUOUS
 10
-1.356894
 20
0.904547
  0
SEQEND
  8
0
  0
POLYLINE
  8
PLAN_1
 62
     5
  6
CONTINUOUS
 66
     1
 40
0.003000
 41
0.003000
  0
VERTEX
  8
PLAN_1
 62
     5
  6
CONTINUOUS
 10
-1.356894
 20
0.912854
  0
VERTEX
  8
PLAN_1
 62
     5
  6
CONTINUOUS
 10
-1.356894
 20
0.921157
  0
SEQEND
  8
0
  0
POLYLINE
  8
PLAN_1
 62
     5
  6
CONTINUOUS
 66
     1
 40
0.003000
 41
0.003000
  0
VERTEX
  8
PLAN_1
 62
     5
  6
CONTINUOUS
 10
-1.356894
 20
0.929465
  0
VERTEX
  8
PLAN_1
 62
     5
  6
CONTINUOUS
 10
-1.356894
 20
0.935461
  0
SEQEND
  8
0
  0
POLYLINE
  8
PLAN_1
 62
     5
  6
CONTINUOUS
 66
     1
 40
0.003000
 41
0.003000
  0
VERTEX
  8
PLAN_1
 62
     5
  6
CONTINUOUS
 10
-1.356894
 20
0.929465
  0
VERTEX
  8
PLAN_1
 62
     5
  6
CONTINUOUS
 10
-1.356894
 20
0.935461
  0
SEQEND
  8
0
  0
POLYLINE
  8
PLAN_1
 62
     5
  6
CONTINUOUS
 66
     1
 40
0.003000
 41
0.003000
  0
VERTEX
  8
PLAN_1
 62
     5
  6
CONTINUOUS
 10
-1.356894
 20
0.935461
  0
VERTEX
  8
PLAN_1
 62
     5
  6
CONTINUOUS
 10
-1.357354
 20
0.939154
  0
VERTEX
  8
PLAN_1
 62
     5
  6
CONTINUOUS
 10
-1.356894
 20
0.943303
  0
VERTEX
  8
PLAN_1
 62
     5
  6
CONTINUOUS
 10
-1.356894
 20
0.943768
  0
SEQEND
  8
0
  0
POLYLINE
  8
PLAN_1
 62
     5
  6
CONTINUOUS
 66
     1
 40
0.003000
 41
0.003000
  0
VERTEX
  8
PLAN_1
 62
     5
  6
CONTINUOUS
 10
-1.355047
 20
0.951610
  0
VERTEX
  8
PLAN_1
 62
     5
  6
CONTINUOUS
 10
-1.354126
 20
0.953917
  0
VERTEX
  8
PLAN_1
 62
     5
  6
CONTINUOUS
 10
-1.352280
 20
0.957146
  0
VERTEX
  8
PLAN_1
 62
     5
  6
CONTINUOUS
 10
-1.350894
 20
0.958992
  0
SEQEND
  8
0
  0
POLYLINE
  8
PLAN_1
 62
     5
  6
CONTINUOUS
 66
     1
 40
0.003000
 41
0.003000
  0
VERTEX
  8
PLAN_1
 62
     5
  6
CONTINUOUS
 10
-1.345358
 20
0.964988
  0
VERTEX
  8
PLAN_1
 62
     5
  6
CONTINUOUS
 10
-1.342591
 20
0.967295
  0
VERTEX
  8
PLAN_1
 62
     5
  6
CONTINUOUS
 10
-1.339823
 20
0.969142
  0
VERTEX
  8
PLAN_1
 62
     5
  6
CONTINUOUS
 10
-1.338437
 20
0.969602
  0
SEQEND
  8
0
  0
POLYLINE
  8
PLAN_1
 62
     5
  6
CONTINUOUS
 66
     1
 40
0.003000
 41
0.003000
  0
VERTEX
  8
PLAN_1
 62
     5
  6
CONTINUOUS
 10
-1.330594
 20
0.972370
  0
VERTEX
  8
PLAN_1
 62
     5
  6
CONTINUOUS
 10
-1.329209
 20
0.972835
  0
VERTEX
  8
PLAN_1
 62
     5
  6
CONTINUOUS
 10
-1.325520
 20
0.973295
  0
VERTEX
  8
PLAN_1
 62
     5
  6
CONTINUOUS
 10
-1.322291
 20
0.973295
  0
SEQEND
  8
0
  0
POLYLINE
  8
PLAN_1
 62
     5
  6
CONTINUOUS
 66
     1
 40
0.003000
 41
0.003000
  0
VERTEX
  8
PLAN_1
 62
     5
  6
CONTINUOUS
 10
-1.321827
 20
0.973295
  0
VERTEX
  8
PLAN_1
 62
     5
  6
CONTINUOUS
 10
-1.313063
 20
0.973295
  0
SEQEND
  8
0
  0
POLYLINE
  8
PLAN_1
 62
     5
  6
CONTINUOUS
 66
     1
 40
0.003000
 41
0.003000
  0
VERTEX
  8
PLAN_1
 62
     5
  6
CONTINUOUS
 10
-1.304756
 20
0.973295
  0
VERTEX
  8
PLAN_1
 62
     5
  6
CONTINUOUS
 10
-1.296453
 20
0.973295
  0
SEQEND
  8
0
  0
POLYLINE
  8
PLAN_1
 62
     5
  6
CONTINUOUS
 66
     1
 40
0.003000
 41
0.003000
  0
VERTEX
  8
PLAN_1
 62
     5
  6
CONTINUOUS
 10
-1.288146
 20
0.973295
  0
VERTEX
  8
PLAN_1
 62
     5
  6
CONTINUOUS
 10
-1.279843
 20
0.973295
  0
SEQEND
  8
0
  0
POLYLINE
  8
PLAN_1
 62
     5
  6
CONTINUOUS
 66
     1
 40
0.003000
 41
0.003000
  0
VERTEX
  8
PLAN_1
 62
     5
  6
CONTINUOUS
 10
-1.271535
 20
0.973295
  0
VERTEX
  8
PLAN_1
 62
     5
  6
CONTINUOUS
 10
-1.263232
 20
0.973295
  0
SEQEND
  8
0
  0
POLYLINE
  8
PLAN_1
 62
     5
  6
CONTINUOUS
 66
     1
 40
0.003000
 41
0.003000
  0
VERTEX
  8
PLAN_1
 62
     5
  6
CONTINUOUS
 10
-1.254929
 20
0.973295
  0
VERTEX
  8
PLAN_1
 62
     5
  6
CONTINUOUS
 10
-1.246622
 20
0.973295
  0
SEQEND
  8
0
  0
POLYLINE
  8
PLAN_1
 62
     5
  6
CONTINUOUS
 66
     1
 40
0.003000
 41
0.003000
  0
VERTEX
  8
PLAN_1
 62
     5
  6
CONTINUOUS
 10
-1.238319
 20
0.973295
  0
VERTEX
  8
PLAN_1
 62
     5
  6
CONTINUOUS
 10
-1.230012
 20
0.973295
  0
SEQEND
  8
0
  0
POLYLINE
  8
PLAN_1
 62
     5
  6
CONTINUOUS
 66
     1
 40
0.003000
 41
0.003000
  0
VERTEX
  8
PLAN_1
 62
     5
  6
CONTINUOUS
 10
-1.221709
 20
0.973295
  0
VERTEX
  8
PLAN_1
 62
     5
  6
CONTINUOUS
 10
-1.213402
 20
0.973295
  0
SEQEND
  8
0
  0
POLYLINE
  8
PLAN_1
 62
     5
  6
CONTINUOUS
 66
     1
 40
0.003000
 41
0.003000
  0
VERTEX
  8
PLAN_1
 62
     5
  6
CONTINUOUS
 10
-1.205098
 20
0.973295
  0
VERTEX
  8
PLAN_1
 62
     5
  6
CONTINUOUS
 10
-1.196791
 20
0.973295
  0
SEQEND
  8
0
  0
POLYLINE
  8
PLAN_1
 62
     5
  6
CONTINUOUS
 66
     1
 40
0.003000
 41
0.003000
  0
VERTEX
  8
PLAN_1
 62
     5
  6
CONTINUOUS
 10
-1.188488
 20
0.973295
  0
VERTEX
  8
PLAN_1
 62
     5
  6
CONTINUOUS
 10
-1.180185
 20
0.973295
  0
SEQEND
  8
0
  0
POLYLINE
  8
PLAN_1
 62
     5
  6
CONTINUOUS
 66
     1
 40
0.003000
 41
0.003000
  0
VERTEX
  8
PLAN_1
 62
     5
  6
CONTINUOUS
 10
-1.171878
 20
0.973295
  0
VERTEX
  8
PLAN_1
 62
     5
  6
CONTINUOUS
 10
-1.163575
 20
0.973295
  0
SEQEND
  8
0
  0
POLYLINE
  8
PLAN_1
 62
     5
  6
CONTINUOUS
 66
     1
 40
0.003000
 41
0.003000
  0
VERTEX
  8
PLAN_1
 62
     5
  6
CONTINUOUS
 10
-1.154807
 20
0.973295
  0
VERTEX
  8
PLAN_1
 62
     5
  6
CONTINUOUS
 10
-1.146504
 20
0.973295
  0
SEQEND
  8
0
  0
POLYLINE
  8
PLAN_1
 62
     5
  6
CONTINUOUS
 66
     1
 40
0.003000
 41
0.003000
  0
VERTEX
  8
PLAN_1
 62
     5
  6
CONTINUOUS
 10
-1.138197
 20
0.973295
  0
VERTEX
  8
PLAN_1
 62
     5
  6
CONTINUOUS
 10
-1.129894
 20
0.973295
  0
SEQEND
  8
0
  0
POLYLINE
  8
PLAN_1
 62
     5
  6
CONTINUOUS
 66
     1
 40
0.003000
 41
0.003000
  0
VERTEX
  8
PLAN_1
 62
     5
  6
CONTINUOUS
 10
-1.121587
 20
0.973295
  0
VERTEX
  8
PLAN_1
 62
     5
  6
CONTINUOUS
 10
-1.113283
 20
0.973295
  0
SEQEND
  8
0
  0
POLYLINE
  8
PLAN_1
 62
     5
  6
CONTINUOUS
 66
     1
 40
0.003000
 41
0.003000
  0
VERTEX
  8
PLAN_1
 62
     5
  6
CONTINUOUS
 10
-1.104976
 20
0.973295
  0
VERTEX
  8
PLAN_1
 62
     5
  6
CONTINUOUS
 10
-1.096673
 20
0.973295
  0
SEQEND
  8
0
  0
POLYLINE
  8
PLAN_1
 62
     5
  6
CONTINUOUS
 66
     1
 40
0.003000
 41
0.003000
  0
VERTEX
  8
PLAN_1
 62
     5
  6
CONTINUOUS
 10
-1.088366
 20
0.973295
  0
VERTEX
  8
PLAN_1
 62
     5
  6
CONTINUOUS
 10
-1.080063
 20
0.973295
  0
SEQEND
  8
0
  0
POLYLINE
  8
PLAN_1
 62
     5
  6
CONTINUOUS
 66
     1
 40
0.003000
 41
0.003000
  0
VERTEX
  8
PLAN_1
 62
     5
  6
CONTINUOUS
 10
-1.071760
 20
0.973295
  0
VERTEX
  8
PLAN_1
 62
     5
  6
CONTINUOUS
 10
-1.063453
 20
0.973295
  0
SEQEND
  8
0
  0
POLYLINE
  8
PLAN_1
 62
     5
  6
CONTINUOUS
 66
     1
 40
0.003000
 41
0.003000
  0
VERTEX
  8
PLAN_1
 62
     5
  6
CONTINUOUS
 10
-1.055150
 20
0.973295
  0
VERTEX
  8
PLAN_1
 62
     5
  6
CONTINUOUS
 10
-1.046843
 20
0.973295
  0
SEQEND
  8
0
  0
POLYLINE
  8
PLAN_1
 62
     5
  6
CONTINUOUS
 66
     1
 40
0.003000
 41
0.003000
  0
VERTEX
  8
PLAN_1
 62
     5
  6
CONTINUOUS
 10
-1.038539
 20
0.973295
  0
VERTEX
  8
PLAN_1
 62
     5
  6
CONTINUOUS
 10
-1.030232
 20
0.973295
  0
SEQEND
  8
0
  0
POLYLINE
  8
PLAN_1
 62
     5
  6
CONTINUOUS
 66
     1
 40
0.003000
 41
0.003000
  0
VERTEX
  8
PLAN_1
 62
     5
  6
CONTINUOUS
 10
-1.021929
 20
0.973295
  0
VERTEX
  8
PLAN_1
 62
     5
  6
CONTINUOUS
 10
-1.013622
 20
0.973295
  0
SEQEND
  8
0
  0
POLYLINE
  8
PLAN_1
 62
     5
  6
CONTINUOUS
 66
     1
 40
0.003000
 41
0.003000
  0
VERTEX
  8
PLAN_1
 62
     5
  6
CONTINUOUS
 10
-1.005319
 20
0.973295
  0
VERTEX
  8
PLAN_1
 62
     5
  6
CONTINUOUS
 10
-0.996551
 20
0.973295
  0
SEQEND
  8
0
  0
POLYLINE
  8
PLAN_1
 62
     5
  6
CONTINUOUS
 66
     1
 40
0.003000
 41
0.003000
  0
VERTEX
  8
PLAN_1
 62
     5
  6
CONTINUOUS
 10
-0.988248
 20
0.973295
  0
VERTEX
  8
PLAN_1
 62
     5
  6
CONTINUOUS
 10
-0.979941
 20
0.973295
  0
SEQEND
  8
0
  0
POLYLINE
  8
PLAN_1
 62
     5
  6
CONTINUOUS
 66
     1
 40
0.003000
 41
0.003000
  0
VERTEX
  8
PLAN_1
 62
     5
  6
CONTINUOUS
 10
-0.971638
 20
0.973295
  0
VERTEX
  8
PLAN_1
 62
     5
  6
CONTINUOUS
 10
-0.963335
 20
0.973295
  0
SEQEND
  8
0
  0
POLYLINE
  8
PLAN_1
 62
     5
  6
CONTINUOUS
 66
     1
 40
0.003000
 41
0.003000
  0
VERTEX
  8
PLAN_1
 62
     5
  6
CONTINUOUS
 10
-0.955028
 20
0.973295
  0
VERTEX
  8
PLAN_1
 62
     5
  6
CONTINUOUS
 10
-0.946724
 20
0.973295
  0
SEQEND
  8
0
  0
POLYLINE
  8
PLAN_1
 62
     5
  6
CONTINUOUS
 66
     1
 40
0.003000
 41
0.003000
  0
VERTEX
  8
PLAN_1
 62
     5
  6
CONTINUOUS
 10
-0.938417
 20
0.973295
  0
VERTEX
  8
PLAN_1
 62
     5
  6
CONTINUOUS
 10
-0.930114
 20
0.973295
  0
SEQEND
  8
0
  0
POLYLINE
  8
PLAN_1
 62
     5
  6
CONTINUOUS
 66
     1
 40
0.003000
 41
0.003000
  0
VERTEX
  8
PLAN_1
 62
     5
  6
CONTINUOUS
 10
-0.921807
 20
0.973295
  0
VERTEX
  8
PLAN_1
 62
     5
  6
CONTINUOUS
 10
-0.913504
 20
0.973295
  0
SEQEND
  8
0
  0
POLYLINE
  8
PLAN_1
 62
     5
  6
CONTINUOUS
 66
     1
 40
0.003000
 41
0.003000
  0
VERTEX
  8
PLAN_1
 62
     5
  6
CONTINUOUS
 10
-0.905197
 20
0.973295
  0
VERTEX
  8
PLAN_1
 62
     5
  6
CONTINUOUS
 10
-0.896894
 20
0.973295
  0
SEQEND
  8
0
  0
POLYLINE
  8
PLAN_1
 62
     5
  6
CONTINUOUS
 66
     1
 40
0.003000
 41
0.003000
  0
VERTEX
  8
PLAN_1
 62
     5
  6
CONTINUOUS
 10
-0.888591
 20
0.973295
  0
VERTEX
  8
PLAN_1
 62
     5
  6
CONTINUOUS
 10
-0.880283
 20
0.973295
  0
SEQEND
  8
0
  0
POLYLINE
  8
PLAN_1
 62
     5
  6
CONTINUOUS
 66
     1
 40
0.003000
 41
0.003000
  0
VERTEX
  8
PLAN_1
 62
     5
  6
CONTINUOUS
 10
-0.871980
 20
0.973295
  0
VERTEX
  8
PLAN_1
 62
     5
  6
CONTINUOUS
 10
-0.863673
 20
0.973295
  0
SEQEND
  8
0
  0
POLYLINE
  8
PLAN_1
 62
     5
  6
CONTINUOUS
 66
     1
 40
0.003000
 41
0.003000
  0
VERTEX
  8
PLAN_1
 62
     5
  6
CONTINUOUS
 10
-0.855370
 20
0.973295
  0
VERTEX
  8
PLAN_1
 62
     5
  6
CONTINUOUS
 10
-0.847063
 20
0.973295
  0
SEQEND
  8
0
  0
POLYLINE
  8
PLAN_1
 62
     5
  6
CONTINUOUS
 66
     1
 40
0.003000
 41
0.003000
  0
VERTEX
  8
PLAN_1
 62
     5
  6
CONTINUOUS
 10
-0.838299
 20
0.973295
  0
VERTEX
  8
PLAN_1
 62
     5
  6
CONTINUOUS
 10
-0.829992
 20
0.973295
  0
SEQEND
  8
0
  0
POLYLINE
  8
PLAN_1
 62
     5
  6
CONTINUOUS
 66
     1
 40
0.003000
 41
0.003000
  0
VERTEX
  8
PLAN_1
 62
     5
  6
CONTINUOUS
 10
-0.821689
 20
0.973295
  0
VERTEX
  8
PLAN_1
 62
     5
  6
CONTINUOUS
 10
-0.813382
 20
0.973295
  0
SEQEND
  8
0
  0
POLYLINE
  8
PLAN_1
 62
     5
  6
CONTINUOUS
 66
     1
 40
0.003000
 41
0.003000
  0
VERTEX
  8
PLAN_1
 62
     5
  6
CONTINUOUS
 10
-0.805079
 20
0.973295
  0
VERTEX
  8
PLAN_1
 62
     5
  6
CONTINUOUS
 10
-0.796772
 20
0.973295
  0
SEQEND
  8
0
  0
POLYLINE
  8
PLAN_1
 62
     5
  6
CONTINUOUS
 66
     1
 40
0.003000
 41
0.003000
  0
VERTEX
  8
PLAN_1
 62
     5
  6
CONTINUOUS
 10
-0.788469
 20
0.973295
  0
VERTEX
  8
PLAN_1
 62
     5
  6
CONTINUOUS
 10
-0.780165
 20
0.973295
  0
SEQEND
  8
0
  0
POLYLINE
  8
PLAN_1
 62
     5
  6
CONTINUOUS
 66
     1
 40
0.003000
 41
0.003000
  0
VERTEX
  8
PLAN_1
 62
     5
  6
CONTINUOUS
 10
-0.771858
 20
0.973295
  0
VERTEX
  8
PLAN_1
 62
     5
  6
CONTINUOUS
 10
-0.763555
 20
0.973295
  0
SEQEND
  8
0
  0
POLYLINE
  8
PLAN_1
 62
     5
  6
CONTINUOUS
 66
     1
 40
0.003000
 41
0.003000
  0
VERTEX
  8
PLAN_1
 62
     5
  6
CONTINUOUS
 10
-0.755248
 20
0.973295
  0
VERTEX
  8
PLAN_1
 62
     5
  6
CONTINUOUS
 10
-0.746945
 20
0.973295
  0
SEQEND
  8
0
  0
POLYLINE
  8
PLAN_1
 62
     5
  6
CONTINUOUS
 66
     1
 40
0.003000
 41
0.003000
  0
VERTEX
  8
PLAN_1
 62
     5
  6
CONTINUOUS
 10
-0.738638
 20
0.973295
  0
VERTEX
  8
PLAN_1
 62
     5
  6
CONTINUOUS
 10
-0.730335
 20
0.973295
  0
SEQEND
  8
0
  0
POLYLINE
  8
PLAN_1
 62
     5
  6
CONTINUOUS
 66
     1
 40
0.003000
 41
0.003000
  0
VERTEX
  8
PLAN_1
 62
     5
  6
CONTINUOUS
 10
-0.722028
 20
0.973295
  0
VERTEX
  8
PLAN_1
 62
     5
  6
CONTINUOUS
 10
-0.713724
 20
0.973295
  0
SEQEND
  8
0
  0
POLYLINE
  8
PLAN_1
 62
     5
  6
CONTINUOUS
 66
     1
 40
0.003000
 41
0.003000
  0
VERTEX
  8
PLAN_1
 62
     5
  6
CONTINUOUS
 10
-0.705417
 20
0.973295
  0
VERTEX
  8
PLAN_1
 62
     5
  6
CONTINUOUS
 10
-0.697114
 20
0.973295
  0
SEQEND
  8
0
  0
POLYLINE
  8
PLAN_1
 62
     5
  6
CONTINUOUS
 66
     1
 40
0.003000
 41
0.003000
  0
VERTEX
  8
PLAN_1
 62
     5
  6
CONTINUOUS
 10
-0.688811
 20
0.973295
  0
VERTEX
  8
PLAN_1
 62
     5
  6
CONTINUOUS
 10
-0.680043
 20
0.973295
  0
SEQEND
  8
0
  0
POLYLINE
  8
PLAN_1
 62
     5
  6
CONTINUOUS
 66
     1
 40
0.003000
 41
0.003000
  0
VERTEX
  8
PLAN_1
 62
     5
  6
CONTINUOUS
 10
-0.671740
 20
0.973295
  0
VERTEX
  8
PLAN_1
 62
     5
  6
CONTINUOUS
 10
-0.663433
 20
0.973295
  0
SEQEND
  8
0
  0
POLYLINE
  8
PLAN_1
 62
     5
  6
CONTINUOUS
 66
     1
 40
0.003000
 41
0.003000
  0
VERTEX
  8
PLAN_1
 62
     5
  6
CONTINUOUS
 10
-0.655130
 20
0.973295
  0
VERTEX
  8
PLAN_1
 62
     5
  6
CONTINUOUS
 10
-0.646823
 20
0.973295
  0
SEQEND
  8
0
  0
POLYLINE
  8
PLAN_1
 62
     5
  6
CONTINUOUS
 66
     1
 40
0.003000
 41
0.003000
  0
VERTEX
  8
PLAN_1
 62
     5
  6
CONTINUOUS
 10
-0.638520
 20
0.973295
  0
VERTEX
  8
PLAN_1
 62
     5
  6
CONTINUOUS
 10
-0.630213
 20
0.973295
  0
SEQEND
  8
0
  0
POLYLINE
  8
PLAN_1
 62
     5
  6
CONTINUOUS
 66
     1
 40
0.003000
 41
0.003000
  0
VERTEX
  8
PLAN_1
 62
     5
  6
CONTINUOUS
 10
-0.621909
 20
0.973295
  0
VERTEX
  8
PLAN_1
 62
     5
  6
CONTINUOUS
 10
-0.613602
 20
0.973295
  0
SEQEND
  8
0
  0
POLYLINE
  8
PLAN_1
 62
     5
  6
CONTINUOUS
 66
     1
 40
0.003000
 41
0.003000
  0
VERTEX
  8
PLAN_1
 62
     5
  6
CONTINUOUS
 10
-0.605299
 20
0.973295
  0
VERTEX
  8
PLAN_1
 62
     5
  6
CONTINUOUS
 10
-0.596992
 20
0.973295
  0
SEQEND
  8
0
  0
POLYLINE
  8
PLAN_1
 62
     5
  6
CONTINUOUS
 66
     1
 40
0.003000
 41
0.003000
  0
VERTEX
  8
PLAN_1
 62
     5
  6
CONTINUOUS
 10
-0.588689
 20
0.973295
  0
VERTEX
  8
PLAN_1
 62
     5
  6
CONTINUOUS
 10
-0.580386
 20
0.973295
  0
SEQEND
  8
0
  0
POLYLINE
  8
PLAN_1
 62
     5
  6
CONTINUOUS
 66
     1
 40
0.003000
 41
0.003000
  0
VERTEX
  8
PLAN_1
 62
     5
  6
CONTINUOUS
 10
-0.572079
 20
0.973295
  0
VERTEX
  8
PLAN_1
 62
     5
  6
CONTINUOUS
 10
-0.563776
 20
0.973295
  0
SEQEND
  8
0
  0
POLYLINE
  8
PLAN_1
 62
     5
  6
CONTINUOUS
 66
     1
 40
0.003000
 41
0.003000
  0
VERTEX
  8
PLAN_1
 62
     5
  6
CONTINUOUS
 10
-0.555469
 20
0.973295
  0
VERTEX
  8
PLAN_1
 62
     5
  6
CONTINUOUS
 10
-0.547165
 20
0.973295
  0
SEQEND
  8
0
  0
POLYLINE
  8
PLAN_1
 62
     5
  6
CONTINUOUS
 66
     1
 40
0.003000
 41
0.003000
  0
VERTEX
  8
PLAN_1
 62
     5
  6
CONTINUOUS
 10
-0.538858
 20
0.973295
  0
VERTEX
  8
PLAN_1
 62
     5
  6
CONTINUOUS
 10
-0.530555
 20
0.973295
  0
SEQEND
  8
0
  0
POLYLINE
  8
PLAN_1
 62
     5
  6
CONTINUOUS
 66
     1
 40
0.003000
 41
0.003000
  0
VERTEX
  8
PLAN_1
 62
     5
  6
CONTINUOUS
 10
-0.521787
 20
0.973295
  0
VERTEX
  8
PLAN_1
 62
     5
  6
CONTINUOUS
 10
-0.513484
 20
0.973295
  0
SEQEND
  8
0
  0
POLYLINE
  8
PLAN_1
 62
     5
  6
CONTINUOUS
 66
     1
 40
0.003000
 41
0.003000
  0
VERTEX
  8
PLAN_1
 62
     5
  6
CONTINUOUS
 10
-0.505177
 20
0.973295
  0
VERTEX
  8
PLAN_1
 62
     5
  6
CONTINUOUS
 10
-0.496874
 20
0.973295
  0
SEQEND
  8
0
  0
POLYLINE
  8
PLAN_1
 62
     5
  6
CONTINUOUS
 66
     1
 40
0.003000
 41
0.003000
  0
VERTEX
  8
PLAN_1
 62
     5
  6
CONTINUOUS
 10
-0.488567
 20
0.973295
  0
VERTEX
  8
PLAN_1
 62
     5
  6
CONTINUOUS
 10
-0.480264
 20
0.973295
  0
SEQEND
  8
0
  0
POLYLINE
  8
PLAN_1
 62
     5
  6
CONTINUOUS
 66
     1
 40
0.003000
 41
0.003000
  0
VERTEX
  8
PLAN_1
 62
     5
  6
CONTINUOUS
 10
-0.471961
 20
0.973295
  0
VERTEX
  8
PLAN_1
 62
     5
  6
CONTINUOUS
 10
-0.463654
 20
0.973295
  0
SEQEND
  8
0
  0
POLYLINE
  8
PLAN_1
 62
     5
  6
CONTINUOUS
 66
     1
 40
0.003000
 41
0.003000
  0
VERTEX
  8
PLAN_1
 62
     5
  6
CONTINUOUS
 10
-0.455350
 20
0.973295
  0
VERTEX
  8
PLAN_1
 62
     5
  6
CONTINUOUS
 10
-0.447043
 20
0.973295
  0
SEQEND
  8
0
  0
POLYLINE
  8
PLAN_1
 62
     5
  6
CONTINUOUS
 66
     1
 40
0.003000
 41
0.003000
  0
VERTEX
  8
PLAN_1
 62
     5
  6
CONTINUOUS
 10
-0.438740
 20
0.973295
  0
VERTEX
  8
PLAN_1
 62
     5
  6
CONTINUOUS
 10
-0.430433
 20
0.973295
  0
SEQEND
  8
0
  0
POLYLINE
  8
PLAN_1
 62
     5
  6
CONTINUOUS
 66
     1
 40
0.003000
 41
0.003000
  0
VERTEX
  8
PLAN_1
 62
     5
  6
CONTINUOUS
 10
-0.422130
 20
0.973295
  0
VERTEX
  8
PLAN_1
 62
     5
  6
CONTINUOUS
 10
-0.413823
 20
0.973295
  0
SEQEND
  8
0
  0
POLYLINE
  8
PLAN_1
 62
     5
  6
CONTINUOUS
 66
     1
 40
0.003000
 41
0.003000
  0
VERTEX
  8
PLAN_1
 62
     5
  6
CONTINUOUS
 10
-0.405520
 20
0.973295
  0
VERTEX
  8
PLAN_1
 62
     5
  6
CONTINUOUS
 10
-0.397217
 20
0.973295
  0
SEQEND
  8
0
  0
POLYLINE
  8
PLAN_1
 62
     5
  6
CONTINUOUS
 66
     1
 40
0.003000
 41
0.003000
  0
VERTEX
  8
PLAN_1
 62
     5
  6
CONTINUOUS
 10
-0.388909
 20
0.973295
  0
VERTEX
  8
PLAN_1
 62
     5
  6
CONTINUOUS
 10
-0.380606
 20
0.973295
  0
SEQEND
  8
0
  0
POLYLINE
  8
PLAN_1
 62
     5
  6
CONTINUOUS
 66
     1
 40
0.003000
 41
0.003000
  0
VERTEX
  8
PLAN_1
 62
     5
  6
CONTINUOUS
 10
-0.372299
 20
0.973295
  0
VERTEX
  8
PLAN_1
 62
     5
  6
CONTINUOUS
 10
-0.363535
 20
0.973295
  0
SEQEND
  8
0
  0
POLYLINE
  8
PLAN_1
 62
     5
  6
CONTINUOUS
 66
     1
 40
0.003000
 41
0.003000
  0
VERTEX
  8
PLAN_1
 62
     5
  6
CONTINUOUS
 10
-0.355228
 20
0.973295
  0
VERTEX
  8
PLAN_1
 62
     5
  6
CONTINUOUS
 10
-0.346925
 20
0.973295
  0
SEQEND
  8
0
  0
POLYLINE
  8
PLAN_1
 62
     5
  6
CONTINUOUS
 66
     1
 40
0.003000
 41
0.003000
  0
VERTEX
  8
PLAN_1
 62
     5
  6
CONTINUOUS
 10
-0.338618
 20
0.973295
  0
VERTEX
  8
PLAN_1
 62
     5
  6
CONTINUOUS
 10
-0.330315
 20
0.973295
  0
SEQEND
  8
0
  0
POLYLINE
  8
PLAN_1
 62
     5
  6
CONTINUOUS
 66
     1
 40
0.003000
 41
0.003000
  0
VERTEX
  8
PLAN_1
 62
     5
  6
CONTINUOUS
 10
-0.322008
 20
0.973295
  0
VERTEX
  8
PLAN_1
 62
     5
  6
CONTINUOUS
 10
-0.313705
 20
0.973295
  0
SEQEND
  8
0
  0
POLYLINE
  8
PLAN_1
 62
     5
  6
CONTINUOUS
 66
     1
 40
0.003000
 41
0.003000
  0
VERTEX
  8
PLAN_1
 62
     5
  6
CONTINUOUS
 10
-0.305398
 20
0.973295
  0
VERTEX
  8
PLAN_1
 62
     5
  6
CONTINUOUS
 10
-0.297094
 20
0.973295
  0
SEQEND
  8
0
  0
POLYLINE
  8
PLAN_1
 62
     5
  6
CONTINUOUS
 66
     1
 40
0.003000
 41
0.003000
  0
VERTEX
  8
PLAN_1
 62
     5
  6
CONTINUOUS
 10
-0.288791
 20
0.973295
  0
VERTEX
  8
PLAN_1
 62
     5
  6
CONTINUOUS
 10
-0.280484
 20
0.973295
  0
SEQEND
  8
0
  0
POLYLINE
  8
PLAN_1
 62
     5
  6
CONTINUOUS
 66
     1
 40
0.003000
 41
0.003000
  0
VERTEX
  8
PLAN_1
 62
     5
  6
CONTINUOUS
 10
-0.272181
 20
0.973295
  0
VERTEX
  8
PLAN_1
 62
     5
  6
CONTINUOUS
 10
-0.263874
 20
0.973295
  0
SEQEND
  8
0
  0
POLYLINE
  8
PLAN_1
 62
     5
  6
CONTINUOUS
 66
     1
 40
0.003000
 41
0.003000
  0
VERTEX
  8
PLAN_1
 62
     5
  6
CONTINUOUS
 10
-0.255571
 20
0.973295
  0
VERTEX
  8
PLAN_1
 62
     5
  6
CONTINUOUS
 10
-0.247264
 20
0.973295
  0
SEQEND
  8
0
  0
POLYLINE
  8
PLAN_1
 62
     5
  6
CONTINUOUS
 66
     1
 40
0.003000
 41
0.003000
  0
VERTEX
  8
PLAN_1
 62
     5
  6
CONTINUOUS
 10
-0.238961
 20
0.973295
  0
VERTEX
  8
PLAN_1
 62
     5
  6
CONTINUOUS
 10
-0.230654
 20
0.973295
  0
SEQEND
  8
0
  0
POLYLINE
  8
PLAN_1
 62
     5
  6
CONTINUOUS
 66
     1
 40
0.003000
 41
0.003000
  0
VERTEX
  8
PLAN_1
 62
     5
  6
CONTINUOUS
 10
-0.222350
 20
0.973295
  0
VERTEX
  8
PLAN_1
 62
     5
  6
CONTINUOUS
 10
-0.214047
 20
0.973295
  0
SEQEND
  8
0
  0
POLYLINE
  8
PLAN_1
 62
     5
  6
CONTINUOUS
 66
     1
 40
0.003000
 41
0.003000
  0
VERTEX
  8
PLAN_1
 62
     5
  6
CONTINUOUS
 10
-0.205280
 20
0.973295
  0
VERTEX
  8
PLAN_1
 62
     5
  6
CONTINUOUS
 10
-0.196972
 20
0.973295
  0
SEQEND
  8
0
  0
POLYLINE
  8
PLAN_1
 62
     5
  6
CONTINUOUS
 66
     1
 40
0.003000
 41
0.003000
  0
VERTEX
  8
PLAN_1
 62
     5
  6
CONTINUOUS
 10
-0.188669
 20
0.973295
  0
VERTEX
  8
PLAN_1
 62
     5
  6
CONTINUOUS
 10
-0.180366
 20
0.973295
  0
SEQEND
  8
0
  0
POLYLINE
  8
PLAN_1
 62
     5
  6
CONTINUOUS
 66
     1
 40
0.003000
 41
0.003000
  0
VERTEX
  8
PLAN_1
 62
     5
  6
CONTINUOUS
 10
-0.172059
 20
0.973295
  0
VERTEX
  8
PLAN_1
 62
     5
  6
CONTINUOUS
 10
-0.163756
 20
0.973295
  0
SEQEND
  8
0
  0
POLYLINE
  8
PLAN_1
 62
     5
  6
CONTINUOUS
 66
     1
 40
0.003000
 41
0.003000
  0
VERTEX
  8
PLAN_1
 62
     5
  6
CONTINUOUS
 10
-0.155449
 20
0.973295
  0
VERTEX
  8
PLAN_1
 62
     5
  6
CONTINUOUS
 10
-0.147146
 20
0.973295
  0
SEQEND
  8
0
  0
POLYLINE
  8
PLAN_1
 62
     5
  6
CONTINUOUS
 66
     1
 40
0.003000
 41
0.003000
  0
VERTEX
  8
PLAN_1
 62
     5
  6
CONTINUOUS
 10
-0.138839
 20
0.973295
  0
VERTEX
  8
PLAN_1
 62
     5
  6
CONTINUOUS
 10
-0.130535
 20
0.973295
  0
SEQEND
  8
0
  0
POLYLINE
  8
PLAN_1
 62
     5
  6
CONTINUOUS
 66
     1
 40
0.003000
 41
0.003000
  0
VERTEX
  8
PLAN_1
 62
     5
  6
CONTINUOUS
 10
-0.122228
 20
0.973295
  0
VERTEX
  8
PLAN_1
 62
     5
  6
CONTINUOUS
 10
-0.113925
 20
0.973295
  0
SEQEND
  8
0
  0
POLYLINE
  8
PLAN_1
 62
     5
  6
CONTINUOUS
 66
     1
 40
0.003000
 41
0.003000
  0
VERTEX
  8
PLAN_1
 62
     5
  6
CONTINUOUS
 10
-0.105622
 20
0.973295
  0
VERTEX
  8
PLAN_1
 62
     5
  6
CONTINUOUS
 10
-0.097315
 20
0.973295
  0
SEQEND
  8
0
  0
POLYLINE
  8
PLAN_1
 62
     5
  6
CONTINUOUS
 66
     1
 40
0.003000
 41
0.003000
  0
VERTEX
  8
PLAN_1
 62
     5
  6
CONTINUOUS
 10
-0.089012
 20
0.973295
  0
VERTEX
  8
PLAN_1
 62
     5
  6
CONTINUOUS
 10
-0.080705
 20
0.973295
  0
SEQEND
  8
0
  0
POLYLINE
  8
PLAN_1
 62
     5
  6
CONTINUOUS
 66
     1
 40
0.003000
 41
0.003000
  0
VERTEX
  8
PLAN_1
 62
     5
  6
CONTINUOUS
 10
-0.072402
 20
0.973295
  0
VERTEX
  8
PLAN_1
 62
     5
  6
CONTINUOUS
 10
-0.064094
 20
0.973295
  0
SEQEND
  8
0
  0
POLYLINE
  8
PLAN_1
 62
     5
  6
CONTINUOUS
 66
     1
 40
0.003000
 41
0.003000
  0
VERTEX
  8
PLAN_1
 62
     5
  6
CONTINUOUS
 10
-0.055791
 20
0.973295
  0
VERTEX
  8
PLAN_1
 62
     5
  6
CONTINUOUS
 10
-0.047024
 20
0.973295
  0
SEQEND
  8
0
  0
POLYLINE
  8
PLAN_1
 62
     5
  6
CONTINUOUS
 66
     1
 40
0.003000
 41
0.003000
  0
VERTEX
  8
PLAN_1
 62
     5
  6
CONTINUOUS
 10
-0.038720
 20
0.973295
  0
VERTEX
  8
PLAN_1
 62
     5
  6
CONTINUOUS
 10
-0.030413
 20
0.973295
  0
SEQEND
  8
0
  0
POLYLINE
  8
PLAN_1
 62
     5
  6
CONTINUOUS
 66
     1
 40
0.003000
 41
0.003000
  0
VERTEX
  8
PLAN_1
 62
     5
  6
CONTINUOUS
 10
-0.022110
 20
0.973295
  0
VERTEX
  8
PLAN_1
 62
     5
  6
CONTINUOUS
 10
-0.013803
 20
0.973295
  0
SEQEND
  8
0
  0
POLYLINE
  8
PLAN_1
 62
     5
  6
CONTINUOUS
 66
     1
 40
0.003000
 41
0.003000
  0
VERTEX
  8
PLAN_1
 62
     5
  6
CONTINUOUS
 10
-0.005500
 20
0.973295
  0
VERTEX
  8
PLAN_1
 62
     5
  6
CONTINUOUS
 10
0.002803
 20
0.973295
  0
SEQEND
  8
0
  0
POLYLINE
  8
PLAN_1
 62
     5
  6
CONTINUOUS
 66
     1
 40
0.003000
 41
0.003000
  0
VERTEX
  8
PLAN_1
 62
     5
  6
CONTINUOUS
 10
0.011110
 20
0.973295
  0
VERTEX
  8
PLAN_1
 62
     5
  6
CONTINUOUS
 10
0.019413
 20
0.973295
  0
SEQEND
  8
0
  0
POLYLINE
  8
PLAN_1
 62
     5
  6
CONTINUOUS
 66
     1
 40
0.003000
 41
0.003000
  0
VERTEX
  8
PLAN_1
 62
     5
  6
CONTINUOUS
 10
0.027720
 20
0.973295
  0
VERTEX
  8
PLAN_1
 62
     5
  6
CONTINUOUS
 10
0.036024
 20
0.973295
  0
SEQEND
  8
0
  0
POLYLINE
  8
PLAN_1
 62
     5
  6
CONTINUOUS
 66
     1
 40
0.003000
 41
0.003000
  0
VERTEX
  8
PLAN_1
 62
     5
  6
CONTINUOUS
 10
0.044331
 20
0.973295
  0
VERTEX
  8
PLAN_1
 62
     5
  6
CONTINUOUS
 10
0.052634
 20
0.973295
  0
SEQEND
  8
0
  0
POLYLINE
  8
PLAN_1
 62
     5
  6
CONTINUOUS
 66
     1
 40
0.003000
 41
0.003000
  0
VERTEX
  8
PLAN_1
 62
     5
  6
CONTINUOUS
 10
0.060941
 20
0.973295
  0
VERTEX
  8
PLAN_1
 62
     5
  6
CONTINUOUS
 10
0.069244
 20
0.973295
  0
SEQEND
  8
0
  0
POLYLINE
  8
PLAN_1
 62
     5
  6
CONTINUOUS
 66
     1
 40
0.003000
 41
0.003000
  0
VERTEX
  8
PLAN_1
 62
     5
  6
CONTINUOUS
 10
0.077547
 20
0.973295
  0
VERTEX
  8
PLAN_1
 62
     5
  6
CONTINUOUS
 10
0.085854
 20
0.973295
  0
SEQEND
  8
0
  0
POLYLINE
  8
PLAN_1
 62
     5
  6
CONTINUOUS
 66
     1
 40
0.003000
 41
0.003000
  0
VERTEX
  8
PLAN_1
 62
     5
  6
CONTINUOUS
 10
0.094157
 20
0.973295
  0
VERTEX
  8
PLAN_1
 62
     5
  6
CONTINUOUS
 10
0.102465
 20
0.973295
  0
SEQEND
  8
0
  0
POLYLINE
  8
PLAN_1
 62
     5
  6
CONTINUOUS
 66
     1
 40
0.003000
 41
0.003000
  0
VERTEX
  8
PLAN_1
 62
     5
  6
CONTINUOUS
 10
0.111228
 20
0.973295
  0
VERTEX
  8
PLAN_1
 62
     5
  6
CONTINUOUS
 10
0.119535
 20
0.973295
  0
SEQEND
  8
0
  0
POLYLINE
  8
PLAN_1
 62
     5
  6
CONTINUOUS
 66
     1
 40
0.003000
 41
0.003000
  0
VERTEX
  8
PLAN_1
 62
     5
  6
CONTINUOUS
 10
0.127839
 20
0.973295
  0
VERTEX
  8
PLAN_1
 62
     5
  6
CONTINUOUS
 10
0.136146
 20
0.973295
  0
SEQEND
  8
0
  0
POLYLINE
  8
PLAN_1
 62
     5
  6
CONTINUOUS
 66
     1
 40
0.003000
 41
0.003000
  0
VERTEX
  8
PLAN_1
 62
     5
  6
CONTINUOUS
 10
0.144449
 20
0.973295
  0
VERTEX
  8
PLAN_1
 62
     5
  6
CONTINUOUS
 10
0.152756
 20
0.973295
  0
SEQEND
  8
0
  0
POLYLINE
  8
PLAN_1
 62
     5
  6
CONTINUOUS
 66
     1
 40
0.003000
 41
0.003000
  0
VERTEX
  8
PLAN_1
 62
     5
  6
CONTINUOUS
 10
0.161059
 20
0.973295
  0
VERTEX
  8
PLAN_1
 62
     5
  6
CONTINUOUS
 10
0.169366
 20
0.973295
  0
SEQEND
  8
0
  0
POLYLINE
  8
PLAN_1
 62
     5
  6
CONTINUOUS
 66
     1
 40
0.003000
 41
0.003000
  0
VERTEX
  8
PLAN_1
 62
     5
  6
CONTINUOUS
 10
0.173976
 20
0.973295
  0
VERTEX
  8
PLAN_1
 62
     5
  6
CONTINUOUS
 10
0.178130
 20
0.973295
  0
VERTEX
  8
PLAN_1
 62
     5
  6
CONTINUOUS
 10
0.181823
 20
0.972835
  0
VERTEX
  8
PLAN_1
 62
     5
  6
CONTINUOUS
 10
0.182283
 20
0.972370
  0
SEQEND
  8
0
  0
POLYLINE
  8
PLAN_1
 62
     5
  6
CONTINUOUS
 66
     1
 40
0.003000
 41
0.003000
  0
VERTEX
  8
PLAN_1
 62
     5
  6
CONTINUOUS
 10
0.190126
 20
0.970067
  0
VERTEX
  8
PLAN_1
 62
     5
  6
CONTINUOUS
 10
0.191972
 20
0.969142
  0
VERTEX
  8
PLAN_1
 62
     5
  6
CONTINUOUS
 10
0.195201
 20
0.966835
  0
VERTEX
  8
PLAN_1
 62
     5
  6
CONTINUOUS
 10
0.197508
 20
0.965453
  0
SEQEND
  8
0
  0
POLYLINE
  8
PLAN_1
 62
     5
  6
CONTINUOUS
 66
     1
 40
0.003000
 41
0.003000
  0
VERTEX
  8
PLAN_1
 62
     5
  6
CONTINUOUS
 10
0.203508
 20
0.959913
  0
VERTEX
  8
PLAN_1
 62
     5
  6
CONTINUOUS
 10
0.205815
 20
0.956685
  0
VERTEX
  8
PLAN_1
 62
     5
  6
CONTINUOUS
 10
0.208122
 20
0.953917
  0
VERTEX
  8
PLAN_1
 62
     5
  6
CONTINUOUS
 10
0.208122
 20
0.952992
  0
SEQEND
  8
0
  0
POLYLINE
  8
PLAN_1
 62
     5
  6
CONTINUOUS
 66
     1
 40
0.003000
 41
0.003000
  0
VERTEX
  8
PLAN_1
 62
     5
  6
CONTINUOUS
 10
0.211350
 20
0.945610
  0
VERTEX
  8
PLAN_1
 62
     5
  6
CONTINUOUS
 10
0.212272
 20
0.943303
  0
VERTEX
  8
PLAN_1
 62
     5
  6
CONTINUOUS
 10
0.213197
 20
0.939614
  0
VERTEX
  8
PLAN_1
 62
     5
  6
CONTINUOUS
 10
0.213197
 20
0.937307
  0
SEQEND
  8
0
  0
POLYLINE
  8
PLAN_1
 62
     5
  6
CONTINUOUS
 66
     1
 40
0.003000
 41
0.003000
  0
VERTEX
  8
PLAN_1
 62
     5
  6
CONTINUOUS
 10
0.213657
 20
0.935461
  0
VERTEX
  8
PLAN_1
 62
     5
  6
CONTINUOUS
 10
0.213657
 20
0.927157
  0
SEQEND
  8
0
  0
POLYLINE
  8
PLAN_1
 62
     5
  6
CONTINUOUS
 66
     1
 40
0.003000
 41
0.003000
  0
VERTEX
  8
PLAN_1
 62
     5
  6
CONTINUOUS
 10
0.213657
 20
0.918850
  0
VERTEX
  8
PLAN_1
 62
     5
  6
CONTINUOUS
 10
0.213657
 20
0.910547
  0
SEQEND
  8
0
  0
POLYLINE
  8
PLAN_1
 62
     5
  6
CONTINUOUS
 66
     1
 40
0.003000
 41
0.003000
  0
VERTEX
  8
PLAN_1
 62
     5
  6
CONTINUOUS
 10
0.213657
 20
0.902240
  0
VERTEX
  8
PLAN_1
 62
     5
  6
CONTINUOUS
 10
0.213657
 20
0.893937
  0
SEQEND
  8
0
  0
POLYLINE
  8
PLAN_1
 62
     5
  6
CONTINUOUS
 66
     1
 40
0.003000
 41
0.003000
  0
VERTEX
  8
PLAN_1
 62
     5
  6
CONTINUOUS
 10
0.213657
 20
0.885630
  0
VERTEX
  8
PLAN_1
 62
     5
  6
CONTINUOUS
 10
0.213657
 20
0.877327
  0
SEQEND
  8
0
  0
POLYLINE
  8
PLAN_1
 62
     5
  6
CONTINUOUS
 66
     1
 40
0.003000
 41
0.003000
  0
VERTEX
  8
PLAN_1
 62
     5
  6
CONTINUOUS
 10
0.213657
 20
0.869024
  0
VERTEX
  8
PLAN_1
 62
     5
  6
CONTINUOUS
 10
0.213657
 20
0.860717
  0
SEQEND
  8
0
  0
POLYLINE
  8
PLAN_1
 62
     5
  6
CONTINUOUS
 66
     1
 40
0.003000
 41
0.003000
  0
VERTEX
  8
PLAN_1
 62
     5
  6
CONTINUOUS
 10
0.213657
 20
0.852413
  0
VERTEX
  8
PLAN_1
 62
     5
  6
CONTINUOUS
 10
0.213657
 20
0.844106
  0
SEQEND
  8
0
  0
POLYLINE
  8
PLAN_1
 62
     5
  6
CONTINUOUS
 66
     1
 40
0.003000
 41
0.003000
  0
VERTEX
  8
PLAN_1
 62
     5
  6
CONTINUOUS
 10
0.213657
 20
0.835803
  0
VERTEX
  8
PLAN_1
 62
     5
  6
CONTINUOUS
 10
0.213657
 20
0.827496
  0
SEQEND
  8
0
  0
POLYLINE
  8
PLAN_1
 62
     5
  6
CONTINUOUS
 66
     1
 40
0.003000
 41
0.003000
  0
VERTEX
  8
PLAN_1
 62
     5
  6
CONTINUOUS
 10
0.213657
 20
0.819193
  0
VERTEX
  8
PLAN_1
 62
     5
  6
CONTINUOUS
 10
0.213657
 20
0.810886
  0
SEQEND
  8
0
  0
POLYLINE
  8
PLAN_1
 62
     5
  6
CONTINUOUS
 66
     1
 40
0.003000
 41
0.003000
  0
VERTEX
  8
PLAN_1
 62
     5
  6
CONTINUOUS
 10
0.213657
 20
0.802583
  0
VERTEX
  8
PLAN_1
 62
     5
  6
CONTINUOUS
 10
0.213657
 20
0.794280
  0
SEQEND
  8
0
  0
POLYLINE
  8
PLAN_1
 62
     5
  6
CONTINUOUS
 66
     1
 40
0.003000
 41
0.003000
  0
VERTEX
  8
PLAN_1
 62
     5
  6
CONTINUOUS
 10
0.213657
 20
0.785512
  0
VERTEX
  8
PLAN_1
 62
     5
  6
CONTINUOUS
 10
0.213657
 20
0.777205
  0
SEQEND
  8
0
  0
POLYLINE
  8
PLAN_1
 62
     5
  6
CONTINUOUS
 66
     1
 40
0.003000
 41
0.003000
  0
VERTEX
  8
PLAN_1
 62
     5
  6
CONTINUOUS
 10
0.213657
 20
0.768902
  0
VERTEX
  8
PLAN_1
 62
     5
  6
CONTINUOUS
 10
0.213657
 20
0.760598
  0
SEQEND
  8
0
  0
POLYLINE
  8
PLAN_1
 62
     5
  6
CONTINUOUS
 66
     1
 40
0.003000
 41
0.003000
  0
VERTEX
  8
PLAN_1
 62
     5
  6
CONTINUOUS
 10
0.213657
 20
0.752291
  0
VERTEX
  8
PLAN_1
 62
     5
  6
CONTINUOUS
 10
0.213657
 20
0.743988
  0
SEQEND
  8
0
  0
POLYLINE
  8
PLAN_1
 62
     5
  6
CONTINUOUS
 66
     1
 40
0.003000
 41
0.003000
  0
VERTEX
  8
PLAN_1
 62
     5
  6
CONTINUOUS
 10
0.213657
 20
0.735681
  0
VERTEX
  8
PLAN_1
 62
     5
  6
CONTINUOUS
 10
0.213657
 20
0.727378
  0
SEQEND
  8
0
  0
POLYLINE
  8
PLAN_1
 62
     5
  6
CONTINUOUS
 66
     1
 40
0.003000
 41
0.003000
  0
VERTEX
  8
PLAN_1
 62
     5
  6
CONTINUOUS
 10
0.213657
 20
0.719071
  0
VERTEX
  8
PLAN_1
 62
     5
  6
CONTINUOUS
 10
0.213657
 20
0.710768
  0
SEQEND
  8
0
  0
POLYLINE
  8
PLAN_1
 62
     5
  6
CONTINUOUS
 66
     1
 40
0.003000
 41
0.003000
  0
VERTEX
  8
PLAN_1
 62
     5
  6
CONTINUOUS
 10
0.213657
 20
0.702461
  0
VERTEX
  8
PLAN_1
 62
     5
  6
CONTINUOUS
 10
0.213657
 20
0.694157
  0
SEQEND
  8
0
  0
POLYLINE
  8
PLAN_1
 62
     5
  6
CONTINUOUS
 66
     1
 40
0.003000
 41
0.003000
  0
VERTEX
  8
PLAN_1
 62
     5
  6
CONTINUOUS
 10
0.213657
 20
0.685854
  0
VERTEX
  8
PLAN_1
 62
     5
  6
CONTINUOUS
 10
0.213657
 20
0.677547
  0
SEQEND
  8
0
  0
POLYLINE
  8
PLAN_1
 62
     5
  6
CONTINUOUS
 66
     1
 40
0.003000
 41
0.003000
  0
VERTEX
  8
PLAN_1
 62
     5
  6
CONTINUOUS
 10
0.213657
 20
0.669244
  0
VERTEX
  8
PLAN_1
 62
     5
  6
CONTINUOUS
 10
0.213657
 20
0.660937
  0
SEQEND
  8
0
  0
POLYLINE
  8
PLAN_1
 62
     5
  6
CONTINUOUS
 66
     1
 40
0.003000
 41
0.003000
  0
VERTEX
  8
PLAN_1
 62
     5
  6
CONTINUOUS
 10
0.213657
 20
0.652634
  0
VERTEX
  8
PLAN_1
 62
     5
  6
CONTINUOUS
 10
0.213657
 20
0.644327
  0
SEQEND
  8
0
  0
POLYLINE
  8
PLAN_1
 62
     5
  6
CONTINUOUS
 66
     1
 40
0.003000
 41
0.003000
  0
VERTEX
  8
PLAN_1
 62
     5
  6
CONTINUOUS
 10
0.213657
 20
0.636024
  0
VERTEX
  8
PLAN_1
 62
     5
  6
CONTINUOUS
 10
0.213657
 20
0.627256
  0
SEQEND
  8
0
  0
POLYLINE
  8
PLAN_1
 62
     5
  6
CONTINUOUS
 66
     1
 40
0.003000
 41
0.003000
  0
VERTEX
  8
PLAN_1
 62
     5
  6
CONTINUOUS
 10
0.213657
 20
0.618953
  0
VERTEX
  8
PLAN_1
 62
     5
  6
CONTINUOUS
 10
0.213657
 20
0.610646
  0
SEQEND
  8
0
  0
POLYLINE
  8
PLAN_1
 62
     5
  6
CONTINUOUS
 66
     1
 40
0.003000
 41
0.003000
  0
VERTEX
  8
PLAN_1
 62
     5
  6
CONTINUOUS
 10
0.213657
 20
0.602343
  0
VERTEX
  8
PLAN_1
 62
     5
  6
CONTINUOUS
 10
0.213657
 20
0.594035
  0
SEQEND
  8
0
  0
POLYLINE
  8
PLAN_1
 62
     5
  6
CONTINUOUS
 66
     1
 40
0.003000
 41
0.003000
  0
VERTEX
  8
PLAN_1
 62
     5
  6
CONTINUOUS
 10
0.213657
 20
0.585732
  0
VERTEX
  8
PLAN_1
 62
     5
  6
CONTINUOUS
 10
0.213657
 20
0.577429
  0
SEQEND
  8
0
  0
POLYLINE
  8
PLAN_1
 62
     5
  6
CONTINUOUS
 66
     1
 40
0.003000
 41
0.003000
  0
VERTEX
  8
PLAN_1
 62
     5
  6
CONTINUOUS
 10
0.213657
 20
0.569122
  0
VERTEX
  8
PLAN_1
 62
     5
  6
CONTINUOUS
 10
0.213657
 20
0.560819
  0
SEQEND
  8
0
  0
POLYLINE
  8
PLAN_1
 62
     5
  6
CONTINUOUS
 66
     1
 40
0.003000
 41
0.003000
  0
VERTEX
  8
PLAN_1
 62
     5
  6
CONTINUOUS
 10
0.213657
 20
0.552512
  0
VERTEX
  8
PLAN_1
 62
     5
  6
CONTINUOUS
 10
0.213657
 20
0.544209
  0
SEQEND
  8
0
  0
POLYLINE
  8
PLAN_1
 62
     5
  6
CONTINUOUS
 66
     1
 40
0.003000
 41
0.003000
  0
VERTEX
  8
PLAN_1
 62
     5
  6
CONTINUOUS
 10
0.213657
 20
0.535902
  0
VERTEX
  8
PLAN_1
 62
     5
  6
CONTINUOUS
 10
0.213657
 20
0.527598
  0
SEQEND
  8
0
  0
POLYLINE
  8
PLAN_1
 62
     5
  6
CONTINUOUS
 66
     1
 40
0.003000
 41
0.003000
  0
VERTEX
  8
PLAN_1
 62
     5
  6
CONTINUOUS
 10
0.213657
 20
0.519291
  0
VERTEX
  8
PLAN_1
 62
     5
  6
CONTINUOUS
 10
0.213657
 20
0.510988
  0
SEQEND
  8
0
  0
POLYLINE
  8
PLAN_1
 62
     5
  6
CONTINUOUS
 66
     1
 40
0.003000
 41
0.003000
  0
VERTEX
  8
PLAN_1
 62
     5
  6
CONTINUOUS
 10
0.213657
 20
0.502685
  0
VERTEX
  8
PLAN_1
 62
     5
  6
CONTINUOUS
 10
0.213657
 20
0.494378
  0
SEQEND
  8
0
  0
POLYLINE
  8
PLAN_1
 62
     5
  6
CONTINUOUS
 66
     1
 40
0.003000
 41
0.003000
  0
VERTEX
  8
PLAN_1
 62
     5
  6
CONTINUOUS
 10
0.213657
 20
0.486075
  0
VERTEX
  8
PLAN_1
 62
     5
  6
CONTINUOUS
 10
0.213657
 20
0.477768
  0
SEQEND
  8
0
  0
POLYLINE
  8
PLAN_1
 62
     5
  6
CONTINUOUS
 66
     1
 40
0.003000
 41
0.003000
  0
VERTEX
  8
PLAN_1
 62
     5
  6
CONTINUOUS
 10
0.213657
 20
0.469004
  0
VERTEX
  8
PLAN_1
 62
     5
  6
CONTINUOUS
 10
0.213657
 20
0.460697
  0
SEQEND
  8
0
  0
POLYLINE
  8
PLAN_1
 62
     5
  6
CONTINUOUS
 66
     1
 40
0.003000
 41
0.003000
  0
VERTEX
  8
PLAN_1
 62
     5
  6
CONTINUOUS
 10
0.213657
 20
0.452394
  0
VERTEX
  8
PLAN_1
 62
     5
  6
CONTINUOUS
 10
0.213657
 20
0.444087
  0
SEQEND
  8
0
  0
POLYLINE
  8
PLAN_1
 62
     5
  6
CONTINUOUS
 66
     1
 40
0.003000
 41
0.003000
  0
VERTEX
  8
PLAN_1
 62
     5
  6
CONTINUOUS
 10
0.213657
 20
0.435783
  0
VERTEX
  8
PLAN_1
 62
     5
  6
CONTINUOUS
 10
0.213657
 20
0.427476
  0
SEQEND
  8
0
  0
POLYLINE
  8
PLAN_1
 62
     5
  6
CONTINUOUS
 66
     1
 40
0.003000
 41
0.003000
  0
VERTEX
  8
PLAN_1
 62
     5
  6
CONTINUOUS
 10
0.213657
 20
0.419173
  0
VERTEX
  8
PLAN_1
 62
     5
  6
CONTINUOUS
 10
0.213657
 20
0.410866
  0
SEQEND
  8
0
  0
POLYLINE
  8
PLAN_1
 62
     5
  6
CONTINUOUS
 66
     1
 40
0.003000
 41
0.003000
  0
VERTEX
  8
PLAN_1
 62
     5
  6
CONTINUOUS
 10
0.213657
 20
0.402563
  0
VERTEX
  8
PLAN_1
 62
     5
  6
CONTINUOUS
 10
0.213657
 20
0.394260
  0
SEQEND
  8
0
  0
POLYLINE
  8
PLAN_1
 62
     5
  6
CONTINUOUS
 66
     1
 40
0.003000
 41
0.003000
  0
VERTEX
  8
PLAN_1
 62
     5
  6
CONTINUOUS
 10
0.213657
 20
0.385953
  0
VERTEX
  8
PLAN_1
 62
     5
  6
CONTINUOUS
 10
0.213657
 20
0.377650
  0
SEQEND
  8
0
  0
POLYLINE
  8
PLAN_1
 62
     5
  6
CONTINUOUS
 66
     1
 40
0.003000
 41
0.003000
  0
VERTEX
  8
PLAN_1
 62
     5
  6
CONTINUOUS
 10
0.213657
 20
0.369343
  0
VERTEX
  8
PLAN_1
 62
     5
  6
CONTINUOUS
 10
0.213657
 20
0.361039
  0
SEQEND
  8
0
  0
POLYLINE
  8
PLAN_1
 62
     5
  6
CONTINUOUS
 66
     1
 40
0.003000
 41
0.003000
  0
VERTEX
  8
PLAN_1
 62
     5
  6
CONTINUOUS
 10
0.213657
 20
0.352732
  0
VERTEX
  8
PLAN_1
 62
     5
  6
CONTINUOUS
 10
0.213657
 20
0.344429
  0
SEQEND
  8
0
  0
POLYLINE
  8
PLAN_1
 62
     5
  6
CONTINUOUS
 66
     1
 40
0.003000
 41
0.003000
  0
VERTEX
  8
PLAN_1
 62
     5
  6
CONTINUOUS
 10
0.213657
 20
0.336122
  0
VERTEX
  8
PLAN_1
 62
     5
  6
CONTINUOUS
 10
0.213657
 20
0.327819
  0
SEQEND
  8
0
  0
POLYLINE
  8
PLAN_1
 62
     5
  6
CONTINUOUS
 66
     1
 40
0.003000
 41
0.003000
  0
VERTEX
  8
PLAN_1
 62
     5
  6
CONTINUOUS
 10
0.213657
 20
0.319516
  0
VERTEX
  8
PLAN_1
 62
     5
  6
CONTINUOUS
 10
0.213657
 20
0.310748
  0
SEQEND
  8
0
  0
POLYLINE
  8
PLAN_1
 62
     5
  6
CONTINUOUS
 66
     1
 40
0.003000
 41
0.003000
  0
VERTEX
  8
PLAN_1
 62
     5
  6
CONTINUOUS
 10
0.213657
 20
0.302441
  0
VERTEX
  8
PLAN_1
 62
     5
  6
CONTINUOUS
 10
0.213657
 20
0.294138
  0
SEQEND
  8
0
  0
POLYLINE
  8
PLAN_1
 62
     5
  6
CONTINUOUS
 66
     1
 40
0.003000
 41
0.003000
  0
VERTEX
  8
PLAN_1
 62
     5
  6
CONTINUOUS
 10
0.213657
 20
0.285835
  0
VERTEX
  8
PLAN_1
 62
     5
  6
CONTINUOUS
 10
0.213657
 20
0.277528
  0
SEQEND
  8
0
  0
POLYLINE
  8
PLAN_1
 62
     5
  6
CONTINUOUS
 66
     1
 40
0.003000
 41
0.003000
  0
VERTEX
  8
PLAN_1
 62
     5
  6
CONTINUOUS
 10
0.213657
 20
0.269224
  0
VERTEX
  8
PLAN_1
 62
     5
  6
CONTINUOUS
 10
0.213657
 20
0.260917
  0
SEQEND
  8
0
  0
POLYLINE
  8
PLAN_1
 62
     5
  6
CONTINUOUS
 66
     1
 40
0.003000
 41
0.003000
  0
VERTEX
  8
PLAN_1
 62
     5
  6
CONTINUOUS
 10
0.213657
 20
0.252614
  0
VERTEX
  8
PLAN_1
 62
     5
  6
CONTINUOUS
 10
0.213657
 20
0.244307
  0
SEQEND
  8
0
  0
POLYLINE
  8
PLAN_1
 62
     5
  6
CONTINUOUS
 66
     1
 40
0.003000
 41
0.003000
  0
VERTEX
  8
PLAN_1
 62
     5
  6
CONTINUOUS
 10
0.213657
 20
0.236004
  0
VERTEX
  8
PLAN_1
 62
     5
  6
CONTINUOUS
 10
0.213657
 20
0.230004
  0
SEQEND
  8
0
  0
POLYLINE
  8
PLAN_1
 62
     5
  6
CONTINUOUS
 66
     1
 40
0.003000
 41
0.003000
  0
VERTEX
  8
PLAN_1
 62
     5
  6
CONTINUOUS
 10
0.213657
 20
0.236004
  0
VERTEX
  8
PLAN_1
 62
     5
  6
CONTINUOUS
 10
0.213657
 20
0.230004
  0
SEQEND
  8
0
  0
POLYLINE
  8
PLAN_1
 62
     5
  6
CONTINUOUS
 66
     1
 40
0.003000
 41
0.003000
  0
VERTEX
  8
PLAN_1
 62
     5
  6
CONTINUOUS
 10
-0.100083
 20
0.711689
  0
VERTEX
  8
PLAN_1
 62
     5
  6
CONTINUOUS
 10
-0.091780
 20
0.711689
  0
SEQEND
  8
0
  0
POLYLINE
  8
PLAN_1
 62
     5
  6
CONTINUOUS
 66
     1
 40
0.003000
 41
0.003000
  0
VERTEX
  8
PLAN_1
 62
     5
  6
CONTINUOUS
 10
-0.083472
 20
0.711689
  0
VERTEX
  8
PLAN_1
 62
     5
  6
CONTINUOUS
 10
-0.075169
 20
0.711689
  0
SEQEND
  8
0
  0
POLYLINE
  8
PLAN_1
 62
     5
  6
CONTINUOUS
 66
     1
 40
0.003000
 41
0.003000
  0
VERTEX
  8
PLAN_1
 62
     5
  6
CONTINUOUS
 10
-0.066862
 20
0.711689
  0
VERTEX
  8
PLAN_1
 62
     5
  6
CONTINUOUS
 10
-0.058559
 20
0.711689
  0
SEQEND
  8
0
  0
POLYLINE
  8
PLAN_1
 62
     5
  6
CONTINUOUS
 66
     1
 40
0.003000
 41
0.003000
  0
VERTEX
  8
PLAN_1
 62
     5
  6
CONTINUOUS
 10
-0.050256
 20
0.711689
  0
VERTEX
  8
PLAN_1
 62
     5
  6
CONTINUOUS
 10
-0.041949
 20
0.711689
  0
SEQEND
  8
0
  0
POLYLINE
  8
PLAN_1
 62
     5
  6
CONTINUOUS
 66
     1
 40
0.003000
 41
0.003000
  0
VERTEX
  8
PLAN_1
 62
     5
  6
CONTINUOUS
 10
-0.033646
 20
0.711689
  0
VERTEX
  8
PLAN_1
 62
     5
  6
CONTINUOUS
 10
-0.025339
 20
0.711689
  0
SEQEND
  8
0
  0
POLYLINE
  8
PLAN_1
 62
     5
  6
CONTINUOUS
 66
     1
 40
0.003000
 41
0.003000
  0
VERTEX
  8
PLAN_1
 62
     5
  6
CONTINUOUS
 10
-0.017035
 20
0.711689
  0
VERTEX
  8
PLAN_1
 62
     5
  6
CONTINUOUS
 10
-0.008728
 20
0.711689
  0
SEQEND
  8
0
  0
POLYLINE
  8
PLAN_1
 62
     5
  6
CONTINUOUS
 66
     1
 40
0.003000
 41
0.003000
  0
VERTEX
  8
PLAN_1
 62
     5
  6
CONTINUOUS
 10
-0.000425
 20
0.711689
  0
VERTEX
  8
PLAN_1
 62
     5
  6
CONTINUOUS
 10
0.007882
 20
0.711689
  0
SEQEND
  8
0
  0
POLYLINE
  8
PLAN_1
 62
     5
  6
CONTINUOUS
 66
     1
 40
0.003000
 41
0.003000
  0
VERTEX
  8
PLAN_1
 62
     5
  6
CONTINUOUS
 10
0.016185
 20
0.711689
  0
VERTEX
  8
PLAN_1
 62
     5
  6
CONTINUOUS
 10
0.024488
 20
0.711689
  0
SEQEND
  8
0
  0
POLYLINE
  8
PLAN_1
 62
     5
  6
CONTINUOUS
 66
     1
 40
0.003000
 41
0.003000
  0
VERTEX
  8
PLAN_1
 62
     5
  6
CONTINUOUS
 10
0.032795
 20
0.711689
  0
VERTEX
  8
PLAN_1
 62
     5
  6
CONTINUOUS
 10
0.041563
 20
0.711689
  0
SEQEND
  8
0
  0
POLYLINE
  8
PLAN_1
 62
     5
  6
CONTINUOUS
 66
     1
 40
0.003000
 41
0.003000
  0
VERTEX
  8
PLAN_1
 62
     5
  6
CONTINUOUS
 10
0.049866
 20
0.711689
  0
VERTEX
  8
PLAN_1
 62
     5
  6
CONTINUOUS
 10
0.058169
 20
0.711689
  0
SEQEND
  8
0
  0
POLYLINE
  8
PLAN_1
 62
     5
  6
CONTINUOUS
 66
     1
 40
0.003000
 41
0.003000
  0
VERTEX
  8
PLAN_1
 62
     5
  6
CONTINUOUS
 10
0.066476
 20
0.711689
  0
VERTEX
  8
PLAN_1
 62
     5
  6
CONTINUOUS
 10
0.074780
 20
0.711689
  0
SEQEND
  8
0
  0
POLYLINE
  8
PLAN_1
 62
     5
  6
CONTINUOUS
 66
     1
 40
0.003000
 41
0.003000
  0
VERTEX
  8
PLAN_1
 62
     5
  6
CONTINUOUS
 10
0.083087
 20
0.711689
  0
VERTEX
  8
PLAN_1
 62
     5
  6
CONTINUOUS
 10
0.091390
 20
0.711689
  0
SEQEND
  8
0
  0
POLYLINE
  8
PLAN_1
 62
     5
  6
CONTINUOUS
 66
     1
 40
0.003000
 41
0.003000
  0
VERTEX
  8
PLAN_1
 62
     5
  6
CONTINUOUS
 10
0.099697
 20
0.711689
  0
VERTEX
  8
PLAN_1
 62
     5
  6
CONTINUOUS
 10
0.108000
 20
0.711689
  0
SEQEND
  8
0
  0
POLYLINE
  8
PLAN_1
 62
     5
  6
CONTINUOUS
 66
     1
 40
0.003000
 41
0.003000
  0
VERTEX
  8
PLAN_1
 62
     5
  6
CONTINUOUS
 10
0.116307
 20
0.711689
  0
VERTEX
  8
PLAN_1
 62
     5
  6
CONTINUOUS
 10
0.124610
 20
0.711689
  0
SEQEND
  8
0
  0
POLYLINE
  8
PLAN_1
 62
     5
  6
CONTINUOUS
 66
     1
 40
0.003000
 41
0.003000
  0
VERTEX
  8
PLAN_1
 62
     5
  6
CONTINUOUS
 10
0.132913
 20
0.711689
  0
VERTEX
  8
PLAN_1
 62
     5
  6
CONTINUOUS
 10
0.141220
 20
0.711689
  0
SEQEND
  8
0
  0
POLYLINE
  8
PLAN_1
 62
     5
  6
CONTINUOUS
 66
     1
 40
0.003000
 41
0.003000
  0
VERTEX
  8
PLAN_1
 62
     5
  6
CONTINUOUS
 10
0.149524
 20
0.711689
  0
VERTEX
  8
PLAN_1
 62
     5
  6
CONTINUOUS
 10
0.157831
 20
0.711689
  0
SEQEND
  8
0
  0
POLYLINE
  8
PLAN_1
 62
     5
  6
CONTINUOUS
 66
     1
 40
0.003000
 41
0.003000
  0
VERTEX
  8
PLAN_1
 62
     5
  6
CONTINUOUS
 10
0.166134
 20
0.711689
  0
VERTEX
  8
PLAN_1
 62
     5
  6
CONTINUOUS
 10
0.174441
 20
0.711689
  0
SEQEND
  8
0
  0
POLYLINE
  8
PLAN_1
 62
     5
  6
CONTINUOUS
 66
     1
 40
0.003000
 41
0.003000
  0
VERTEX
  8
PLAN_1
 62
     5
  6
CONTINUOUS
 10
0.182744
 20
0.711689
  0
VERTEX
  8
PLAN_1
 62
     5
  6
CONTINUOUS
 10
0.191051
 20
0.711689
  0
SEQEND
  8
0
  0
POLYLINE
  8
PLAN_1
 62
     5
  6
CONTINUOUS
 66
     1
 40
0.003000
 41
0.003000
  0
VERTEX
  8
PLAN_1
 62
     5
  6
CONTINUOUS
 10
0.199815
 20
0.711689
  0
VERTEX
  8
PLAN_1
 62
     5
  6
CONTINUOUS
 10
0.208122
 20
0.711689
  0
SEQEND
  8
0
  0
POLYLINE
  8
PLAN_1
 62
     5
  6
CONTINUOUS
 66
     1
 40
0.003000
 41
0.003000
  0
VERTEX
  8
PLAN_1
 62
     5
  6
CONTINUOUS
 10
0.031874
 20
0.585272
  0
VERTEX
  8
PLAN_1
 62
     5
  6
CONTINUOUS
 10
0.031874
 20
0.593575
  0
SEQEND
  8
0
  0
POLYLINE
  8
PLAN_1
 62
     5
  6
CONTINUOUS
 66
     1
 40
0.003000
 41
0.003000
  0
VERTEX
  8
PLAN_1
 62
     5
  6
CONTINUOUS
 10
0.031874
 20
0.601882
  0
VERTEX
  8
PLAN_1
 62
     5
  6
CONTINUOUS
 10
0.031874
 20
0.610185
  0
SEQEND
  8
0
  0
POLYLINE
  8
PLAN_1
 62
     5
  6
CONTINUOUS
 66
     1
 40
0.003000
 41
0.003000
  0
VERTEX
  8
PLAN_1
 62
     5
  6
CONTINUOUS
 10
0.031874
 20
0.618492
  0
VERTEX
  8
PLAN_1
 62
     5
  6
CONTINUOUS
 10
0.031874
 20
0.626795
  0
SEQEND
  8
0
  0
POLYLINE
  8
PLAN_1
 62
     5
  6
CONTINUOUS
 66
     1
 40
0.003000
 41
0.003000
  0
VERTEX
  8
PLAN_1
 62
     5
  6
CONTINUOUS
 10
0.031874
 20
0.635102
  0
VERTEX
  8
PLAN_1
 62
     5
  6
CONTINUOUS
 10
0.031874
 20
0.643866
  0
SEQEND
  8
0
  0
POLYLINE
  8
PLAN_1
 62
     5
  6
CONTINUOUS
 66
     1
 40
0.003000
 41
0.003000
  0
VERTEX
  8
PLAN_1
 62
     5
  6
CONTINUOUS
 10
0.031874
 20
0.652173
  0
VERTEX
  8
PLAN_1
 62
     5
  6
CONTINUOUS
 10
0.031874
 20
0.660476
  0
SEQEND
  8
0
  0
POLYLINE
  8
PLAN_1
 62
     5
  6
CONTINUOUS
 66
     1
 40
0.003000
 41
0.003000
  0
VERTEX
  8
PLAN_1
 62
     5
  6
CONTINUOUS
 10
0.031874
 20
0.668780
  0
VERTEX
  8
PLAN_1
 62
     5
  6
CONTINUOUS
 10
0.031874
 20
0.677087
  0
SEQEND
  8
0
  0
POLYLINE
  8
PLAN_1
 62
     5
  6
CONTINUOUS
 66
     1
 40
0.003000
 41
0.003000
  0
VERTEX
  8
PLAN_1
 62
     5
  6
CONTINUOUS
 10
0.031874
 20
0.685390
  0
VERTEX
  8
PLAN_1
 62
     5
  6
CONTINUOUS
 10
0.031874
 20
0.693697
  0
SEQEND
  8
0
  0
POLYLINE
  8
PLAN_1
 62
     5
  6
CONTINUOUS
 66
     1
 40
0.003000
 41
0.003000
  0
VERTEX
  8
PLAN_1
 62
     5
  6
CONTINUOUS
 10
0.031874
 20
0.702000
  0
VERTEX
  8
PLAN_1
 62
     5
  6
CONTINUOUS
 10
0.031874
 20
0.710307
  0
SEQEND
  8
0
  0
POLYLINE
  8
PLAN_1
 62
     5
  6
CONTINUOUS
 66
     1
 40
0.003000
 41
0.003000
  0
VERTEX
  8
PLAN_1
 62
     5
  6
CONTINUOUS
 10
0.031874
 20
0.718610
  0
VERTEX
  8
PLAN_1
 62
     5
  6
CONTINUOUS
 10
0.031874
 20
0.726917
  0
SEQEND
  8
0
  0
POLYLINE
  8
PLAN_1
 62
     5
  6
CONTINUOUS
 66
     1
 40
0.003000
 41
0.003000
  0
VERTEX
  8
PLAN_1
 62
     5
  6
CONTINUOUS
 10
0.031874
 20
0.735220
  0
VERTEX
  8
PLAN_1
 62
     5
  6
CONTINUOUS
 10
0.031874
 20
0.743528
  0
SEQEND
  8
0
  0
POLYLINE
  8
PLAN_1
 62
     5
  6
CONTINUOUS
 66
     1
 40
0.003000
 41
0.003000
  0
VERTEX
  8
PLAN_1
 62
     5
  6
CONTINUOUS
 10
0.031874
 20
0.751831
  0
VERTEX
  8
PLAN_1
 62
     5
  6
CONTINUOUS
 10
0.031874
 20
0.760134
  0
SEQEND
  8
0
  0
POLYLINE
  8
PLAN_1
 62
     5
  6
CONTINUOUS
 66
     1
 40
0.003000
 41
0.003000
  0
VERTEX
  8
PLAN_1
 62
     5
  6
CONTINUOUS
 10
0.031874
 20
0.768441
  0
VERTEX
  8
PLAN_1
 62
     5
  6
CONTINUOUS
 10
0.031874
 20
0.776744
  0
SEQEND
  8
0
  0
POLYLINE
  8
PLAN_1
 62
     5
  6
CONTINUOUS
 66
     1
 40
0.003000
 41
0.003000
  0
VERTEX
  8
PLAN_1
 62
     5
  6
CONTINUOUS
 10
0.031874
 20
0.785051
  0
VERTEX
  8
PLAN_1
 62
     5
  6
CONTINUOUS
 10
0.031874
 20
0.793354
  0
SEQEND
  8
0
  0
POLYLINE
  8
PLAN_1
 62
     5
  6
CONTINUOUS
 66
     1
 40
0.003000
 41
0.003000
  0
VERTEX
  8
PLAN_1
 62
     5
  6
CONTINUOUS
 10
0.031874
 20
0.802122
  0
VERTEX
  8
PLAN_1
 62
     5
  6
CONTINUOUS
 10
0.031874
 20
0.810425
  0
SEQEND
  8
0
  0
POLYLINE
  8
PLAN_1
 62
     5
  6
CONTINUOUS
 66
     1
 40
0.003000
 41
0.003000
  0
VERTEX
  8
PLAN_1
 62
     5
  6
CONTINUOUS
 10
0.031874
 20
0.818732
  0
VERTEX
  8
PLAN_1
 62
     5
  6
CONTINUOUS
 10
0.031874
 20
0.827035
  0
SEQEND
  8
0
  0
POLYLINE
  8
PLAN_1
 62
     5
  6
CONTINUOUS
 66
     1
 40
0.003000
 41
0.003000
  0
VERTEX
  8
PLAN_1
 62
     5
  6
CONTINUOUS
 10
0.031874
 20
0.835343
  0
VERTEX
  8
PLAN_1
 62
     5
  6
CONTINUOUS
 10
0.031874
 20
0.843646
  0
SEQEND
  8
0
  0
POLYLINE
  8
PLAN_1
 62
     5
  6
CONTINUOUS
 66
     1
 40
0.003000
 41
0.003000
  0
VERTEX
  8
PLAN_1
 62
     5
  6
CONTINUOUS
 10
-1.315831
 20
0.711689
  0
VERTEX
  8
PLAN_1
 62
     5
  6
CONTINUOUS
 10
-1.307524
 20
0.711689
  0
SEQEND
  8
0
  0
POLYLINE
  8
PLAN_1
 62
     5
  6
CONTINUOUS
 66
     1
 40
0.003000
 41
0.003000
  0
VERTEX
  8
PLAN_1
 62
     5
  6
CONTINUOUS
 10
-1.299220
 20
0.711689
  0
VERTEX
  8
PLAN_1
 62
     5
  6
CONTINUOUS
 10
-1.290917
 20
0.711689
  0
SEQEND
  8
0
  0
POLYLINE
  8
PLAN_1
 62
     5
  6
CONTINUOUS
 66
     1
 40
0.003000
 41
0.003000
  0
VERTEX
  8
PLAN_1
 62
     5
  6
CONTINUOUS
 10
-1.282610
 20
0.711689
  0
VERTEX
  8
PLAN_1
 62
     5
  6
CONTINUOUS
 10
-1.274307
 20
0.711689
  0
SEQEND
  8
0
  0
POLYLINE
  8
PLAN_1
 62
     5
  6
CONTINUOUS
 66
     1
 40
0.003000
 41
0.003000
  0
VERTEX
  8
PLAN_1
 62
     5
  6
CONTINUOUS
 10
-1.266000
 20
0.711689
  0
VERTEX
  8
PLAN_1
 62
     5
  6
CONTINUOUS
 10
-1.257697
 20
0.711689
  0
SEQEND
  8
0
  0
POLYLINE
  8
PLAN_1
 62
     5
  6
CONTINUOUS
 66
     1
 40
0.003000
 41
0.003000
  0
VERTEX
  8
PLAN_1
 62
     5
  6
CONTINUOUS
 10
-1.249390
 20
0.711689
  0
VERTEX
  8
PLAN_1
 62
     5
  6
CONTINUOUS
 10
-1.241087
 20
0.711689
  0
SEQEND
  8
0
  0
POLYLINE
  8
PLAN_1
 62
     5
  6
CONTINUOUS
 66
     1
 40
0.003000
 41
0.003000
  0
VERTEX
  8
PLAN_1
 62
     5
  6
CONTINUOUS
 10
-1.232319
 20
0.711689
  0
VERTEX
  8
PLAN_1
 62
     5
  6
CONTINUOUS
 10
-1.224016
 20
0.711689
  0
SEQEND
  8
0
  0
POLYLINE
  8
PLAN_1
 62
     5
  6
CONTINUOUS
 66
     1
 40
0.003000
 41
0.003000
  0
VERTEX
  8
PLAN_1
 62
     5
  6
CONTINUOUS
 10
-1.215709
 20
0.711689
  0
VERTEX
  8
PLAN_1
 62
     5
  6
CONTINUOUS
 10
-1.207406
 20
0.711689
  0
SEQEND
  8
0
  0
POLYLINE
  8
PLAN_1
 62
     5
  6
CONTINUOUS
 66
     1
 40
0.003000
 41
0.003000
  0
VERTEX
  8
PLAN_1
 62
     5
  6
CONTINUOUS
 10
-1.199098
 20
0.711689
  0
VERTEX
  8
PLAN_1
 62
     5
  6
CONTINUOUS
 10
-1.190795
 20
0.711689
  0
SEQEND
  8
0
  0
POLYLINE
  8
PLAN_1
 62
     5
  6
CONTINUOUS
 66
     1
 40
0.003000
 41
0.003000
  0
VERTEX
  8
PLAN_1
 62
     5
  6
CONTINUOUS
 10
-1.182492
 20
0.711689
  0
VERTEX
  8
PLAN_1
 62
     5
  6
CONTINUOUS
 10
-1.174185
 20
0.711689
  0
SEQEND
  8
0
  0
POLYLINE
  8
PLAN_1
 62
     5
  6
CONTINUOUS
 66
     1
 40
0.003000
 41
0.003000
  0
VERTEX
  8
PLAN_1
 62
     5
  6
CONTINUOUS
 10
-1.165882
 20
0.711689
  0
VERTEX
  8
PLAN_1
 62
     5
  6
CONTINUOUS
 10
-1.157575
 20
0.711689
  0
SEQEND
  8
0
  0
POLYLINE
  8
PLAN_1
 62
     5
  6
CONTINUOUS
 66
     1
 40
0.003000
 41
0.003000
  0
VERTEX
  8
PLAN_1
 62
     5
  6
CONTINUOUS
 10
-1.149272
 20
0.711689
  0
VERTEX
  8
PLAN_1
 62
     5
  6
CONTINUOUS
 10
-1.140965
 20
0.711689
  0
SEQEND
  8
0
  0
POLYLINE
  8
PLAN_1
 62
     5
  6
CONTINUOUS
 66
     1
 40
0.003000
 41
0.003000
  0
VERTEX
  8
PLAN_1
 62
     5
  6
CONTINUOUS
 10
-1.132661
 20
0.711689
  0
VERTEX
  8
PLAN_1
 62
     5
  6
CONTINUOUS
 10
-1.124354
 20
0.711689
  0
SEQEND
  8
0
  0
POLYLINE
  8
PLAN_1
 62
     5
  6
CONTINUOUS
 66
     1
 40
0.003000
 41
0.003000
  0
VERTEX
  8
PLAN_1
 62
     5
  6
CONTINUOUS
 10
-1.116051
 20
0.711689
  0
VERTEX
  8
PLAN_1
 62
     5
  6
CONTINUOUS
 10
-1.107744
 20
0.711689
  0
SEQEND
  8
0
  0
POLYLINE
  8
PLAN_1
 62
     5
  6
CONTINUOUS
 66
     1
 40
0.003000
 41
0.003000
  0
VERTEX
  8
PLAN_1
 62
     5
  6
CONTINUOUS
 10
-1.099441
 20
0.711689
  0
VERTEX
  8
PLAN_1
 62
     5
  6
CONTINUOUS
 10
-1.091138
 20
0.711689
  0
SEQEND
  8
0
  0
POLYLINE
  8
PLAN_1
 62
     5
  6
CONTINUOUS
 66
     1
 40
0.003000
 41
0.003000
  0
VERTEX
  8
PLAN_1
 62
     5
  6
CONTINUOUS
 10
-1.082831
 20
0.711689
  0
VERTEX
  8
PLAN_1
 62
     5
  6
CONTINUOUS
 10
-1.074063
 20
0.711689
  0
SEQEND
  8
0
  0
POLYLINE
  8
PLAN_1
 62
     5
  6
CONTINUOUS
 66
     1
 40
0.003000
 41
0.003000
  0
VERTEX
  8
PLAN_1
 62
     5
  6
CONTINUOUS
 10
-1.065760
 20
0.711689
  0
VERTEX
  8
PLAN_1
 62
     5
  6
CONTINUOUS
 10
-1.057457
 20
0.711689
  0
SEQEND
  8
0
  0
POLYLINE
  8
PLAN_1
 62
     5
  6
CONTINUOUS
 66
     1
 40
0.003000
 41
0.003000
  0
VERTEX
  8
PLAN_1
 62
     5
  6
CONTINUOUS
 10
-1.049150
 20
0.711689
  0
VERTEX
  8
PLAN_1
 62
     5
  6
CONTINUOUS
 10
-1.046382
 20
0.711689
  0
SEQEND
  8
0
  0
POLYLINE
  8
PLAN_1
 62
     5
  6
CONTINUOUS
 66
     1
 40
0.003000
 41
0.003000
  0
VERTEX
  8
PLAN_1
 62
     5
  6
CONTINUOUS
 10
-1.049150
 20
0.711689
  0
VERTEX
  8
PLAN_1
 62
     5
  6
CONTINUOUS
 10
-1.046382
 20
0.711689
  0
SEQEND
  8
0
  0
POLYLINE
  8
PLAN_1
 62
     5
  6
CONTINUOUS
 66
     1
 40
0.003000
 41
0.003000
  0
VERTEX
  8
PLAN_1
 62
     5
  6
CONTINUOUS
 10
-1.183413
 20
0.570969
  0
VERTEX
  8
PLAN_1
 62
     5
  6
CONTINUOUS
 10
-1.183413
 20
0.579272
  0
SEQEND
  8
0
  0
POLYLINE
  8
PLAN_1
 62
     5
  6
CONTINUOUS
 66
     1
 40
0.003000
 41
0.003000
  0
VERTEX
  8
PLAN_1
 62
     5
  6
CONTINUOUS
 10
-1.183413
 20
0.587579
  0
VERTEX
  8
PLAN_1
 62
     5
  6
CONTINUOUS
 10
-1.183413
 20
0.595882
  0
SEQEND
  8
0
  0
POLYLINE
  8
PLAN_1
 62
     5
  6
CONTINUOUS
 66
     1
 40
0.003000
 41
0.003000
  0
VERTEX
  8
PLAN_1
 62
     5
  6
CONTINUOUS
 10
-1.183413
 20
0.604189
  0
VERTEX
  8
PLAN_1
 62
     5
  6
CONTINUOUS
 10
-1.183413
 20
0.612492
  0
SEQEND
  8
0
  0
POLYLINE
  8
PLAN_1
 62
     5
  6
CONTINUOUS
 66
     1
 40
0.003000
 41
0.003000
  0
VERTEX
  8
PLAN_1
 62
     5
  6
CONTINUOUS
 10
-1.183413
 20
0.620799
  0
VERTEX
  8
PLAN_1
 62
     5
  6
CONTINUOUS
 10
-1.183413
 20
0.629563
  0
SEQEND
  8
0
  0
POLYLINE
  8
PLAN_1
 62
     5
  6
CONTINUOUS
 66
     1
 40
0.003000
 41
0.003000
  0
VERTEX
  8
PLAN_1
 62
     5
  6
CONTINUOUS
 10
-1.183413
 20
0.637870
  0
VERTEX
  8
PLAN_1
 62
     5
  6
CONTINUOUS
 10
-1.183413
 20
0.646173
  0
SEQEND
  8
0
  0
POLYLINE
  8
PLAN_1
 62
     5
  6
CONTINUOUS
 66
     1
 40
0.003000
 41
0.003000
  0
VERTEX
  8
PLAN_1
 62
     5
  6
CONTINUOUS
 10
-1.183413
 20
0.654480
  0
VERTEX
  8
PLAN_1
 62
     5
  6
CONTINUOUS
 10
-1.183413
 20
0.662783
  0
SEQEND
  8
0
  0
POLYLINE
  8
PLAN_1
 62
     5
  6
CONTINUOUS
 66
     1
 40
0.003000
 41
0.003000
  0
VERTEX
  8
PLAN_1
 62
     5
  6
CONTINUOUS
 10
-1.183413
 20
0.671087
  0
VERTEX
  8
PLAN_1
 62
     5
  6
CONTINUOUS
 10
-1.183413
 20
0.679394
  0
SEQEND
  8
0
  0
POLYLINE
  8
PLAN_1
 62
     5
  6
CONTINUOUS
 66
     1
 40
0.003000
 41
0.003000
  0
VERTEX
  8
PLAN_1
 62
     5
  6
CONTINUOUS
 10
-1.183413
 20
0.687697
  0
VERTEX
  8
PLAN_1
 62
     5
  6
CONTINUOUS
 10
-1.183413
 20
0.696004
  0
SEQEND
  8
0
  0
POLYLINE
  8
PLAN_1
 62
     5
  6
CONTINUOUS
 66
     1
 40
0.003000
 41
0.003000
  0
VERTEX
  8
PLAN_1
 62
     5
  6
CONTINUOUS
 10
-1.183413
 20
0.704307
  0
VERTEX
  8
PLAN_1
 62
     5
  6
CONTINUOUS
 10
-1.183413
 20
0.712614
  0
SEQEND
  8
0
  0
POLYLINE
  8
PLAN_1
 62
     5
  6
CONTINUOUS
 66
     1
 40
0.003000
 41
0.003000
  0
VERTEX
  8
PLAN_1
 62
     5
  6
CONTINUOUS
 10
-1.183413
 20
0.720917
  0
VERTEX
  8
PLAN_1
 62
     5
  6
CONTINUOUS
 10
-1.183413
 20
0.729224
  0
SEQEND
  8
0
  0
POLYLINE
  8
PLAN_1
 62
     5
  6
CONTINUOUS
 66
     1
 40
0.003000
 41
0.003000
  0
VERTEX
  8
PLAN_1
 62
     5
  6
CONTINUOUS
 10
-1.183413
 20
0.737528
  0
VERTEX
  8
PLAN_1
 62
     5
  6
CONTINUOUS
 10
-1.183413
 20
0.745831
  0
SEQEND
  8
0
  0
POLYLINE
  8
PLAN_1
 62
     5
  6
CONTINUOUS
 66
     1
 40
0.003000
 41
0.003000
  0
VERTEX
  8
PLAN_1
 62
     5
  6
CONTINUOUS
 10
-1.183413
 20
0.754138
  0
VERTEX
  8
PLAN_1
 62
     5
  6
CONTINUOUS
 10
-1.183413
 20
0.762441
  0
SEQEND
  8
0
  0
POLYLINE
  8
PLAN_1
 62
     5
  6
CONTINUOUS
 66
     1
 40
0.003000
 41
0.003000
  0
VERTEX
  8
PLAN_1
 62
     5
  6
CONTINUOUS
 10
-1.183413
 20
0.770748
  0
VERTEX
  8
PLAN_1
 62
     5
  6
CONTINUOUS
 10
-1.183413
 20
0.779051
  0
SEQEND
  8
0
  0
POLYLINE
  8
PLAN_1
 62
     5
  6
CONTINUOUS
 66
     1
 40
0.003000
 41
0.003000
  0
VERTEX
  8
PLAN_1
 62
     5
  6
CONTINUOUS
 10
-1.183413
 20
0.787819
  0
VERTEX
  8
PLAN_1
 62
     5
  6
CONTINUOUS
 10
-1.183413
 20
0.796122
  0
SEQEND
  8
0
  0
POLYLINE
  8
PLAN_1
 62
     5
  6
CONTINUOUS
 66
     1
 40
0.003000
 41
0.003000
  0
VERTEX
  8
PLAN_1
 62
     5
  6
CONTINUOUS
 10
-1.183413
 20
0.804429
  0
VERTEX
  8
PLAN_1
 62
     5
  6
CONTINUOUS
 10
-1.183413
 20
0.812732
  0
SEQEND
  8
0
  0
POLYLINE
  8
PLAN_1
 62
     5
  6
CONTINUOUS
 66
     1
 40
0.003000
 41
0.003000
  0
VERTEX
  8
PLAN_1
 62
     5
  6
CONTINUOUS
 10
-1.183413
 20
0.821039
  0
VERTEX
  8
PLAN_1
 62
     5
  6
CONTINUOUS
 10
-1.183413
 20
0.829343
  0
SEQEND
  8
0
  0
POLYLINE
  8
PLAN_1
  6
CONTINUOUS
 66
     1
 40
0.008303
 41
0.008303
  0
VERTEX
  8
PLAN_1
  6
CONTINUOUS
 10
-1.224937
 20
1.163386
  0
VERTEX
  8
PLAN_1
  6
CONTINUOUS
 10
-0.900122
 20
1.163386
  0
VERTEX
  8
PLAN_1
  6
CONTINUOUS
 10
-0.900122
 20
0.973295
  0
SEQEND
  8
0
  0
POLYLINE
  8
PLAN_1
  6
CONTINUOUS
 66
     1
 40
0.008303
 41
0.008303
  0
VERTEX
  8
PLAN_1
  6
CONTINUOUS
 10
-0.256031
 20
0.973295
  0
VERTEX
  8
PLAN_1
  6
CONTINUOUS
 10
-0.256031
 20
1.162461
  0
VERTEX
  8
PLAN_1
  6
CONTINUOUS
 10
0.073858
 20
1.162461
  0
SEQEND
  8
0
  0
POLYLINE
  8
PLAN_1
  6
CONTINUOUS
 66
     1
 40
0.008303
 41
0.008303
  0
VERTEX
  8
PLAN_1
  6
CONTINUOUS
 10
-0.989169
 20
1.162925
  0
VERTEX
  8
PLAN_1
  6
CONTINUOUS
 10
-0.989169
 20
0.973295
  0
SEQEND
  8
0
  0
POLYLINE
  8
PLAN_1
  6
CONTINUOUS
 66
     1
 40
0.008303
 41
0.008303
  0
VERTEX
  8
PLAN_1
  6
CONTINUOUS
 10
-0.158217
 20
1.162925
  0
VERTEX
  8
PLAN_1
  6
CONTINUOUS
 10
-0.158217
 20
0.973295
  0
SEQEND
  8
0
  0
POLYLINE
  8
PLAN_1
  6
CONTINUOUS
 66
     1
 40
0.008303
 41
0.008303
  0
VERTEX
  8
PLAN_1
  6
CONTINUOUS
 10
-0.499642
 20
0.366575
  0
VERTEX
  8
PLAN_1
  6
CONTINUOUS
 10
-0.499642
 20
0.476386
  0
VERTEX
  8
PLAN_1
  6
CONTINUOUS
 10
-0.636213
 20
0.476386
  0
VERTEX
  8
PLAN_1
  6
CONTINUOUS
 10
-0.636213
 20
0.366575
  0
VERTEX
  8
PLAN_1
  6
CONTINUOUS
 10
-0.499642
 20
0.366575
  0
SEQEND
  8
0
  0
POLYLINE
  8
PLAN_1
  6
CONTINUOUS
 66
     1
 40
0.008303
 41
0.008303
  0
VERTEX
  8
PLAN_1
  6
CONTINUOUS
 10
-0.043335
 20
0.951150
  0
VERTEX
  8
PLAN_1
  6
CONTINUOUS
 10
-0.043335
 20
0.973295
  0
VERTEX
  8
PLAN_1
  6
CONTINUOUS
 10
-1.107744
 20
0.973295
  0
VERTEX
  8
PLAN_1
  6
CONTINUOUS
 10
-1.107744
 20
0.951150
  0
VERTEX
  8
PLAN_1
  6
CONTINUOUS
 10
-0.043335
 20
0.951150
  0
SEQEND
  8
0
  0
POLYLINE
  8
PLAN_1
  6
CONTINUOUS
 66
     1
 40
0.008303
 41
0.008303
  0
VERTEX
  8
PLAN_1
  6
CONTINUOUS
 10
-0.287406
 20
0.476386
  0
VERTEX
  8
PLAN_1
  6
CONTINUOUS
 10
-0.287406
 20
0.951150
  0
VERTEX
  8
PLAN_1
  6
CONTINUOUS
 10
-0.841528
 20
0.951150
  0
VERTEX
  8
PLAN_1
  6
CONTINUOUS
 10
-0.841528
 20
0.476386
  0
VERTEX
  8
PLAN_1
  6
CONTINUOUS
 10
-0.287406
 20
0.476386
  0
SEQEND
  8
0
  0
POLYLINE
  8
PLAN_1
  6
CONTINUOUS
 66
     1
 40
0.008303
 41
0.008303
  0
VERTEX
  8
PLAN_1
  6
CONTINUOUS
 10
-2.005598
 20
1.682902
  0
VERTEX
  8
PLAN_1
  6
CONTINUOUS
 10
-1.884256
 20
1.908520
  0
VERTEX
  8
PLAN_1
  6
CONTINUOUS
 10
-1.617114
 20
1.908520
  0
VERTEX
  8
PLAN_1
  6
CONTINUOUS
 10
-1.492079
 20
1.682902
  0
VERTEX
  8
PLAN_1
  6
CONTINUOUS
 10
-1.617114
 20
1.467898
  0
VERTEX
  8
PLAN_1
  6
CONTINUOUS
 10
-1.884256
 20
1.467898
  0
VERTEX
  8
PLAN_1
  6
CONTINUOUS
 10
-2.005598
 20
1.682902
  0
SEQEND
  8
0
  0
POLYLINE
  8
PLAN_1
  6
CONTINUOUS
 66
     1
 40
0.008303
 41
0.008303
  0
VERTEX
  8
PLAN_1
  6
CONTINUOUS
 10
-0.904276
 20
2.112913
  0
VERTEX
  8
PLAN_1
  6
CONTINUOUS
 10
-1.224937
 20
2.112913
  0
VERTEX
  8
PLAN_1
  6
CONTINUOUS
 10
-1.224937
 20
1.982803
  0
SEQEND
  8
0
  0
POLYLINE
  8
PLAN_1
  6
CONTINUOUS
 66
     1
 40
0.008303
 41
0.008303
  0
VERTEX
  8
PLAN_1
  6
CONTINUOUS
 10
-0.252803
 20
2.112913
  0
VERTEX
  8
PLAN_1
  6
CONTINUOUS
 10
0.073398
 20
2.112913
  0
VERTEX
  8
PLAN_1
  6
CONTINUOUS
 10
0.073398
 20
0.973295
  0
VERTEX
  8
PLAN_1
  6
CONTINUOUS
 10
-1.224937
 20
0.973295
  0
VERTEX
  8
PLAN_1
  6
CONTINUOUS
 10
-1.224937
 20
1.383925
  0
SEQEND
  8
0
  0
POLYLINE
  8
PLAN_1
  6
CONTINUOUS
 66
     1
 40
0.008303
 41
0.008303
  0
VERTEX
  8
PLAN_1
  6
CONTINUOUS
 10
-1.414106
 20
1.960657
  0
VERTEX
  8
PLAN_1
  6
CONTINUOUS
 10
-1.390575
 20
1.963425
  0
VERTEX
  8
PLAN_1
  6
CONTINUOUS
 10
-1.366583
 20
1.966193
  0
VERTEX
  8
PLAN_1
  6
CONTINUOUS
 10
-1.343051
 20
1.968961
  0
VERTEX
  8
PLAN_1
  6
CONTINUOUS
 10
-1.319059
 20
1.972189
  0
VERTEX
  8
PLAN_1
  6
CONTINUOUS
 10
-1.295067
 20
1.974961
  0
VERTEX
  8
PLAN_1
  6
CONTINUOUS
 10
-1.271535
 20
1.977728
  0
VERTEX
  8
PLAN_1
  6
CONTINUOUS
 10
-1.248008
 20
1.980035
  0
VERTEX
  8
PLAN_1
  6
CONTINUOUS
 10
-1.224937
 20
1.982803
  0
SEQEND
  8
0
  0
POLYLINE
  8
PLAN_1
  6
CONTINUOUS
 66
     1
 40
0.008303
 41
0.008303
  0
VERTEX
  8
PLAN_1
  6
CONTINUOUS
 10
-1.418256
 20
1.406996
  0
VERTEX
  8
PLAN_1
  6
CONTINUOUS
 10
-1.395189
 20
1.403768
  0
VERTEX
  8
PLAN_1
  6
CONTINUOUS
 10
-1.371657
 20
1.400996
  0
VERTEX
  8
PLAN_1
  6
CONTINUOUS
 10
-1.347665
 20
1.398228
  0
VERTEX
  8
PLAN_1
  6
CONTINUOUS
 10
-1.323213
 20
1.395461
  0
VERTEX
  8
PLAN_1
  6
CONTINUOUS
 10
-1.299220
 20
1.392693
  0
VERTEX
  8
PLAN_1
  6
CONTINUOUS
 10
-1.274307
 20
1.389465
  0
VERTEX
  8
PLAN_1
  6
CONTINUOUS
 10
-1.249850
 20
1.386693
  0
VERTEX
  8
PLAN_1
  6
CONTINUOUS
 10
-1.224937
 20
1.383925
  0
SEQEND
  8
0
  0
POLYLINE
  8
PLAN_1
  6
CONTINUOUS
 66
     1
 40
0.008303
 41
0.008303
  0
VERTEX
  8
PLAN_1
  6
CONTINUOUS
 10
-0.252803
 20
2.112913
  0
VERTEX
  8
PLAN_1
  6
CONTINUOUS
 10
-0.258799
 20
2.161819
  0
VERTEX
  8
PLAN_1
  6
CONTINUOUS
 10
-0.264799
 20
2.212110
  0
VERTEX
  8
PLAN_1
  6
CONTINUOUS
 10
-0.270795
 20
2.263323
  0
VERTEX
  8
PLAN_1
  6
CONTINUOUS
 10
-0.277256
 20
2.314539
  0
VERTEX
  8
PLAN_1
  6
CONTINUOUS
 10
-0.283252
 20
2.365291
  0
VERTEX
  8
PLAN_1
  6
CONTINUOUS
 10
-0.289252
 20
2.416043
  0
VERTEX
  8
PLAN_1
  6
CONTINUOUS
 10
-0.295248
 20
2.465870
  0
VERTEX
  8
PLAN_1
  6
CONTINUOUS
 10
-0.300787
 20
2.514315
  0
SEQEND
  8
0
  0
POLYLINE
  8
PLAN_1
  6
CONTINUOUS
 66
     1
 40
0.008303
 41
0.008303
  0
VERTEX
  8
PLAN_1
  6
CONTINUOUS
 10
-0.904276
 20
2.112913
  0
VERTEX
  8
PLAN_1
  6
CONTINUOUS
 10
-0.899661
 20
2.151209
  0
VERTEX
  8
PLAN_1
  6
CONTINUOUS
 10
-0.894126
 20
2.194579
  0
VERTEX
  8
PLAN_1
  6
CONTINUOUS
 10
-0.888591
 20
2.241638
  0
VERTEX
  8
PLAN_1
  6
CONTINUOUS
 10
-0.882591
 20
2.291929
  0
VERTEX
  8
PLAN_1
  6
CONTINUOUS
 10
-0.876130
 20
2.344528
  0
VERTEX
  8
PLAN_1
  6
CONTINUOUS
 10
-0.869673
 20
2.398508
  0
VERTEX
  8
PLAN_1
  6
CONTINUOUS
 10
-0.863213
 20
2.453413
  0
VERTEX
  8
PLAN_1
  6
CONTINUOUS
 10
-0.856752
 20
2.508319
  0
SEQEND
  8
0
  0
POLYLINE
  8
PLAN_1
  6
CONTINUOUS
 66
     1
 40
0.008303
 41
0.008303
  0
VERTEX
  8
PLAN_1
  6
CONTINUOUS
 10
-0.904276
 20
2.112913
  0
VERTEX
  8
PLAN_1
  6
CONTINUOUS
 10
-0.906583
 20
2.092150
  0
VERTEX
  8
PLAN_1
  6
CONTINUOUS
 10
-0.908890
 20
2.073697
  0
VERTEX
  8
PLAN_1
  6
CONTINUOUS
 10
-0.910736
 20
2.058008
  0
VERTEX
  8
PLAN_1
  6
CONTINUOUS
 10
-0.912579
 20
2.044165
  0
VERTEX
  8
PLAN_1
  6
CONTINUOUS
 10
-0.913504
 20
2.033555
  0
VERTEX
  8
PLAN_1
  6
CONTINUOUS
 10
-0.914886
 20
2.025713
  0
VERTEX
  8
PLAN_1
  6
CONTINUOUS
 10
-0.915350
 20
2.020638
  0
VERTEX
  8
PLAN_1
  6
CONTINUOUS
 10
-0.915350
 20
2.019252
  0
VERTEX
  8
PLAN_1
  6
CONTINUOUS
 10
-0.921807
 20
2.018331
  0
VERTEX
  8
PLAN_1
  6
CONTINUOUS
 10
-0.940264
 20
2.016024
  0
VERTEX
  8
PLAN_1
  6
CONTINUOUS
 10
-0.969331
 20
2.012791
  0
VERTEX
  8
PLAN_1
  6
CONTINUOUS
 10
-1.007165
 20
2.008642
  0
VERTEX
  8
PLAN_1
  6
CONTINUOUS
 10
-1.053303
 20
2.003102
  0
VERTEX
  8
PLAN_1
  6
CONTINUOUS
 10
-1.105902
 20
1.997106
  0
VERTEX
  8
PLAN_1
  6
CONTINUOUS
 10
-1.163575
 20
1.990185
  0
VERTEX
  8
PLAN_1
  6
CONTINUOUS
 10
-1.224937
 20
1.982803
  0
SEQEND
  8
0
  0
POLYLINE
  8
PLAN_1
  6
CONTINUOUS
 66
     1
 40
0.008303
 41
0.008303
  0
VERTEX
  8
PLAN_1
  6
CONTINUOUS
 10
-0.252803
 20
2.112913
  0
VERTEX
  8
PLAN_1
  6
CONTINUOUS
 10
-0.243575
 20
2.034937
  0
VERTEX
  8
PLAN_1
  6
CONTINUOUS
 10
-0.235268
 20
1.962039
  0
VERTEX
  8
PLAN_1
  6
CONTINUOUS
 10
-0.227425
 20
1.896524
  0
VERTEX
  8
PLAN_1
  6
CONTINUOUS
 10
-0.220504
 20
1.838850
  0
VERTEX
  8
PLAN_1
  6
CONTINUOUS
 10
-0.214508
 20
1.791327
  0
VERTEX
  8
PLAN_1
  6
CONTINUOUS
 10
-0.210354
 20
1.755339
  0
VERTEX
  8
PLAN_1
  6
CONTINUOUS
 10
-0.207587
 20
1.732732
  0
VERTEX
  8
PLAN_1
  6
CONTINUOUS
 10
-0.206661
 20
1.724890
  0
VERTEX
  8
PLAN_1
  6
CONTINUOUS
 10
-0.206201
 20
1.719815
  0
VERTEX
  8
PLAN_1
  6
CONTINUOUS
 10
-0.205740
 20
1.714740
  0
VERTEX
  8
PLAN_1
  6
CONTINUOUS
 10
-0.205280
 20
1.709201
  0
VERTEX
  8
PLAN_1
  6
CONTINUOUS
 10
-0.205280
 20
1.704126
  0
VERTEX
  8
PLAN_1
  6
CONTINUOUS
 10
-0.204819
 20
1.699051
  0
VERTEX
  8
PLAN_1
  6
CONTINUOUS
 10
-0.204819
 20
1.693976
  0
VERTEX
  8
PLAN_1
  6
CONTINUOUS
 10
-0.204358
 20
1.688441
  0
VERTEX
  8
PLAN_1
  6
CONTINUOUS
 10
-0.204358
 20
1.683366
  0
VERTEX
  8
PLAN_1
  6
CONTINUOUS
 10
-0.204819
 20
1.663988
  0
VERTEX
  8
PLAN_1
  6
CONTINUOUS
 10
-0.206201
 20
1.645071
  0
VERTEX
  8
PLAN_1
  6
CONTINUOUS
 10
-0.208969
 20
1.626154
  0
VERTEX
  8
PLAN_1
  6
CONTINUOUS
 10
-0.212201
 20
1.607697
  0
VERTEX
  8
PLAN_1
  6
CONTINUOUS
 10
-0.216354
 20
1.589705
  0
VERTEX
  8
PLAN_1
  6
CONTINUOUS
 10
-0.221429
 20
1.572169
  0
VERTEX
  8
PLAN_1
  6
CONTINUOUS
 10
-0.227425
 20
1.554638
  0
VERTEX
  8
PLAN_1
  6
CONTINUOUS
 10
-0.233886
 20
1.537567
  0
VERTEX
  8
PLAN_1
  6
CONTINUOUS
 10
-0.241268
 20
1.520957
  0
VERTEX
  8
PLAN_1
  6
CONTINUOUS
 10
-0.249571
 20
1.504807
  0
VERTEX
  8
PLAN_1
  6
CONTINUOUS
 10
-0.258799
 20
1.489122
  0
VERTEX
  8
PLAN_1
  6
CONTINUOUS
 10
-0.268488
 20
1.474358
  0
VERTEX
  8
PLAN_1
  6
CONTINUOUS
 10
-0.278638
 20
1.459594
  0
VERTEX
  8
PLAN_1
  6
CONTINUOUS
 10
-0.289713
 20
1.445291
  0
VERTEX
  8
PLAN_1
  6
CONTINUOUS
 10
-0.301709
 20
1.431909
  0
VERTEX
  8
PLAN_1
  6
CONTINUOUS
 10
-0.314165
 20
1.418992
  0
VERTEX
  8
PLAN_1
  6
CONTINUOUS
 10
-0.327083
 20
1.406535
  0
VERTEX
  8
PLAN_1
  6
CONTINUOUS
 10
-0.340465
 20
1.394539
  0
VERTEX
  8
PLAN_1
  6
CONTINUOUS
 10
-0.354768
 20
1.383465
  0
VERTEX
  8
PLAN_1
  6
CONTINUOUS
 10
-0.369531
 20
1.373315
  0
VERTEX
  8
PLAN_1
  6
CONTINUOUS
 10
-0.384756
 20
1.363626
  0
VERTEX
  8
PLAN_1
  6
CONTINUOUS
 10
-0.399984
 20
1.354398
  0
VERTEX
  8
PLAN_1
  6
CONTINUOUS
 10
-0.416130
 20
1.346094
  0
VERTEX
  8
PLAN_1
  6
CONTINUOUS
 10
-0.432740
 20
1.338713
  0
VERTEX
  8
PLAN_1
  6
CONTINUOUS
 10
-0.449811
 20
1.331791
  0
VERTEX
  8
PLAN_1
  6
CONTINUOUS
 10
-0.467346
 20
1.326252
  0
VERTEX
  8
PLAN_1
  6
CONTINUOUS
 10
-0.484878
 20
1.321177
  0
VERTEX
  8
PLAN_1
  6
CONTINUOUS
 10
-0.502870
 20
1.317028
  0
VERTEX
  8
PLAN_1
  6
CONTINUOUS
 10
-0.521327
 20
1.313795
  0
VERTEX
  8
PLAN_1
  6
CONTINUOUS
 10
-0.540244
 20
1.311028
  0
VERTEX
  8
PLAN_1
  6
CONTINUOUS
 10
-0.559161
 20
1.309642
  0
VERTEX
  8
PLAN_1
  6
CONTINUOUS
 10
-0.578539
 20
1.309181
  0
VERTEX
  8
PLAN_1
  6
CONTINUOUS
 10
-0.584535
 20
1.309181
  0
VERTEX
  8
PLAN_1
  6
CONTINUOUS
 10
-0.590996
 20
1.309642
  0
VERTEX
  8
PLAN_1
  6
CONTINUOUS
 10
-0.596992
 20
1.309642
  0
VERTEX
  8
PLAN_1
  6
CONTINUOUS
 10
-0.602992
 20
1.310106
  0
VERTEX
  8
PLAN_1
  6
CONTINUOUS
 10
-0.608988
 20
1.310567
  0
VERTEX
  8
PLAN_1
  6
CONTINUOUS
 10
-0.614988
 20
1.311028
  0
VERTEX
  8
PLAN_1
  6
CONTINUOUS
 10
-0.620984
 20
1.311949
  0
VERTEX
  8
PLAN_1
  6
CONTINUOUS
 10
-0.626984
 20
1.312413
  0
VERTEX
  8
PLAN_1
  6
CONTINUOUS
 10
-0.640827
 20
1.314256
  0
VERTEX
  8
PLAN_1
  6
CONTINUOUS
 10
-0.679122
 20
1.318870
  0
VERTEX
  8
PLAN_1
  6
CONTINUOUS
 10
-0.738638
 20
1.325791
  0
VERTEX
  8
PLAN_1
  6
CONTINUOUS
 10
-0.815689
 20
1.335020
  0
VERTEX
  8
PLAN_1
  6
CONTINUOUS
 10
-0.906583
 20
1.345630
  0
VERTEX
  8
PLAN_1
  6
CONTINUOUS
 10
-1.007165
 20
1.357626
  0
VERTEX
  8
PLAN_1
  6
CONTINUOUS
 10
-1.114665
 20
1.370547
  0
VERTEX
  8
PLAN_1
  6
CONTINUOUS
 10
-1.224937
 20
1.383925
  0
SEQEND
  8
0
  0
POLYLINE
  8
PLAN_1
  6
CONTINUOUS
 66
     1
 40
0.008303
 41
0.008303
  0
VERTEX
  8
PLAN_1
  6
CONTINUOUS
 10
-1.414106
 20
1.960657
  0
VERTEX
  8
PLAN_1
  6
CONTINUOUS
 10
-1.409031
 20
1.954657
  0
VERTEX
  8
PLAN_1
  6
CONTINUOUS
 10
-1.404417
 20
1.948197
  0
VERTEX
  8
PLAN_1
  6
CONTINUOUS
 10
-1.399343
 20
1.941740
  0
VERTEX
  8
PLAN_1
  6
CONTINUOUS
 10
-1.394728
 20
1.935280
  0
VERTEX
  8
PLAN_1
  6
CONTINUOUS
 10
-1.390114
 20
1.928819
  0
VERTEX
  8
PLAN_1
  6
CONTINUOUS
 10
-1.385500
 20
1.922362
  0
VERTEX
  8
PLAN_1
  6
CONTINUOUS
 10
-1.381346
 20
1.915441
  0
VERTEX
  8
PLAN_1
  6
CONTINUOUS
 10
-1.377193
 20
1.908520
  0
VERTEX
  8
PLAN_1
  6
CONTINUOUS
 10
-1.370272
 20
1.896524
  0
VERTEX
  8
PLAN_1
  6
CONTINUOUS
 10
-1.363354
 20
1.883606
  0
VERTEX
  8
PLAN_1
  6
CONTINUOUS
 10
-1.356894
 20
1.871150
  0
VERTEX
  8
PLAN_1
  6
CONTINUOUS
 10
-1.351358
 20
1.857768
  0
VERTEX
  8
PLAN_1
  6
CONTINUOUS
 10
-1.345819
 20
1.844850
  0
VERTEX
  8
PLAN_1
  6
CONTINUOUS
 10
-1.340744
 20
1.831008
  0
VERTEX
  8
PLAN_1
  6
CONTINUOUS
 10
-1.336130
 20
1.817626
  0
VERTEX
  8
PLAN_1
  6
CONTINUOUS
 10
-1.331980
 20
1.803787
  0
VERTEX
  8
PLAN_1
  6
CONTINUOUS
 10
-1.328287
 20
1.789484
  0
VERTEX
  8
PLAN_1
  6
CONTINUOUS
 10
-1.325059
 20
1.775181
  0
VERTEX
  8
PLAN_1
  6
CONTINUOUS
 10
-1.322291
 20
1.760878
  0
VERTEX
  8
PLAN_1
  6
CONTINUOUS
 10
-1.319984
 20
1.746114
  0
VERTEX
  8
PLAN_1
  6
CONTINUOUS
 10
-1.318138
 20
1.731346
  0
VERTEX
  8
PLAN_1
  6
CONTINUOUS
 10
-1.316752
 20
1.716583
  0
VERTEX
  8
PLAN_1
  6
CONTINUOUS
 10
-1.316291
 20
1.701358
  0
VERTEX
  8
PLAN_1
  6
CONTINUOUS
 10
-1.315831
 20
1.686594
  0
VERTEX
  8
PLAN_1
  6
CONTINUOUS
 10
-1.316291
 20
1.670906
  0
VERTEX
  8
PLAN_1
  6
CONTINUOUS
 10
-1.316752
 20
1.655220
  0
VERTEX
  8
PLAN_1
  6
CONTINUOUS
 10
-1.318138
 20
1.639996
  0
VERTEX
  8
PLAN_1
  6
CONTINUOUS
 10
-1.319984
 20
1.624768
  0
VERTEX
  8
PLAN_1
  6
CONTINUOUS
 10
-1.322752
 20
1.610004
  0
VERTEX
  8
PLAN_1
  6
CONTINUOUS
 10
-1.325520
 20
1.595240
  0
VERTEX
  8
PLAN_1
  6
CONTINUOUS
 10
-1.328748
 20
1.580476
  0
VERTEX
  8
PLAN_1
  6
CONTINUOUS
 10
-1.332902
 20
1.566173
  0
VERTEX
  8
PLAN_1
  6
CONTINUOUS
 10
-1.337055
 20
1.551870
  0
VERTEX
  8
PLAN_1
  6
CONTINUOUS
 10
-1.342130
 20
1.538028
  0
VERTEX
  8
PLAN_1
  6
CONTINUOUS
 10
-1.347205
 20
1.524189
  0
VERTEX
  8
PLAN_1
  6
CONTINUOUS
 10
-1.352740
 20
1.510807
  0
VERTEX
  8
PLAN_1
  6
CONTINUOUS
 10
-1.359201
 20
1.497425
  0
VERTEX
  8
PLAN_1
  6
CONTINUOUS
 10
-1.365661
 20
1.484508
  0
VERTEX
  8
PLAN_1
  6
CONTINUOUS
 10
-1.372579
 20
1.471591
  0
VERTEX
  8
PLAN_1
  6
CONTINUOUS
 10
-1.380425
 20
1.459134
  0
VERTEX
  8
PLAN_1
  6
CONTINUOUS
 10
-1.384575
 20
1.452213
  0
VERTEX
  8
PLAN_1
  6
CONTINUOUS
 10
-1.389189
 20
1.445291
  0
VERTEX
  8
PLAN_1
  6
CONTINUOUS
 10
-1.393803
 20
1.438831
  0
VERTEX
  8
PLAN_1
  6
CONTINUOUS
 10
-1.398417
 20
1.432370
  0
VERTEX
  8
PLAN_1
  6
CONTINUOUS
 10
-1.403031
 20
1.425913
  0
VERTEX
  8
PLAN_1
  6
CONTINUOUS
 10
-1.408106
 20
1.419453
  0
VERTEX
  8
PLAN_1
  6
CONTINUOUS
 10
-1.413181
 20
1.412992
  0
VERTEX
  8
PLAN_1
  6
CONTINUOUS
 10
-1.418256
 20
1.406996
  0
SEQEND
  8
0
  0
POLYLINE
  8
PLAN_1
  6
CONTINUOUS
 66
     1
 40
0.008303
 41
0.008303
  0
VERTEX
  8
PLAN_1
  6
CONTINUOUS
 10
-1.414106
 20
1.960657
  0
VERTEX
  8
PLAN_1
  6
CONTINUOUS
 10
-1.421949
 20
1.969882
  0
VERTEX
  8
PLAN_1
  6
CONTINUOUS
 10
-1.429331
 20
1.978650
  0
VERTEX
  8
PLAN_1
  6
CONTINUOUS
 10
-1.437634
 20
1.986957
  0
VERTEX
  8
PLAN_1
  6
CONTINUOUS
 10
-1.445941
 20
1.995260
  0
VERTEX
  8
PLAN_1
  6
CONTINUOUS
 10
-1.454244
 20
2.003563
  0
VERTEX
  8
PLAN_1
  6
CONTINUOUS
 10
-1.463012
 20
2.011409
  0
VERTEX
  8
PLAN_1
  6
CONTINUOUS
 10
-1.471780
 20
2.018791
  0
VERTEX
  8
PLAN_1
  6
CONTINUOUS
 10
-1.481004
 20
2.026634
  0
VERTEX
  8
PLAN_1
  6
CONTINUOUS
 10
-1.490232
 20
2.033555
  0
VERTEX
  8
PLAN_1
  6
CONTINUOUS
 10
-1.499921
 20
2.040476
  0
VERTEX
  8
PLAN_1
  6
CONTINUOUS
 10
-1.509610
 20
2.046933
  0
VERTEX
  8
PLAN_1
  6
CONTINUOUS
 10
-1.519299
 20
2.053394
  0
VERTEX
  8
PLAN_1
  6
CONTINUOUS
 10
-1.529453
 20
2.059394
  0
VERTEX
  8
PLAN_1
  6
CONTINUOUS
 10
-1.539602
 20
2.065390
  0
VERTEX
  8
PLAN_1
  6
CONTINUOUS
 10
-1.550213
 20
2.070925
  0
VERTEX
  8
PLAN_1
  6
CONTINUOUS
 10
-1.560827
 20
2.076465
  0
VERTEX
  8
PLAN_1
  6
CONTINUOUS
 10
-1.571437
 20
2.081539
  0
VERTEX
  8
PLAN_1
  6
CONTINUOUS
 10
-1.582512
 20
2.086154
  0
VERTEX
  8
PLAN_1
  6
CONTINUOUS
 10
-1.593583
 20
2.090768
  0
VERTEX
  8
PLAN_1
  6
CONTINUOUS
 10
-1.604657
 20
2.094917
  0
VERTEX
  8
PLAN_1
  6
CONTINUOUS
 10
-1.615728
 20
2.098610
  0
VERTEX
  8
PLAN_1
  6
CONTINUOUS
 10
-1.627264
 20
2.102299
  0
VERTEX
  8
PLAN_1
  6
CONTINUOUS
 10
-1.639260
 20
2.105071
  0
VERTEX
  8
PLAN_1
  6
CONTINUOUS
 10
-1.650795
 20
2.108299
  0
VERTEX
  8
PLAN_1
  6
CONTINUOUS
 10
-1.662791
 20
2.110606
  0
VERTEX
  8
PLAN_1
  6
CONTINUOUS
 10
-1.674787
 20
2.112913
  0
VERTEX
  8
PLAN_1
  6
CONTINUOUS
 10
-1.686783
 20
2.114760
  0
VERTEX
  8
PLAN_1
  6
CONTINUOUS
 10
-1.698780
 20
2.116602
  0
VERTEX
  8
PLAN_1
  6
CONTINUOUS
 10
-1.711236
 20
2.117988
  0
VERTEX
  8
PLAN_1
  6
CONTINUOUS
 10
-1.723693
 20
2.118449
  0
VERTEX
  8
PLAN_1
  6
CONTINUOUS
 10
-1.736150
 20
2.119374
  0
VERTEX
  8
PLAN_1
  6
CONTINUOUS
 10
-1.748606
 20
2.119374
  0
VERTEX
  8
PLAN_1
  6
CONTINUOUS
 10
-1.771217
 20
2.118909
  0
VERTEX
  8
PLAN_1
  6
CONTINUOUS
 10
-1.792902
 20
2.117067
  0
VERTEX
  8
PLAN_1
  6
CONTINUOUS
 10
-1.814587
 20
2.114295
  0
VERTEX
  8
PLAN_1
  6
CONTINUOUS
 10
-1.836272
 20
2.110606
  0
VERTEX
  8
PLAN_1
  6
CONTINUOUS
 10
-1.857031
 20
2.105531
  0
VERTEX
  8
PLAN_1
  6
CONTINUOUS
 10
-1.877795
 20
2.099992
  0
VERTEX
  8
PLAN_1
  6
CONTINUOUS
 10
-1.897634
 20
2.093075
  0
VERTEX
  8
PLAN_1
  6
CONTINUOUS
 10
-1.917476
 20
2.085228
  0
VERTEX
  8
PLAN_1
  6
CONTINUOUS
 10
-1.936390
 20
2.076465
  0
VERTEX
  8
PLAN_1
  6
CONTINUOUS
 10
-1.955307
 20
2.067236
  0
VERTEX
  8
PLAN_1
  6
CONTINUOUS
 10
-1.973303
 20
2.056622
  0
VERTEX
  8
PLAN_1
  6
CONTINUOUS
 10
-1.990835
 20
2.045551
  0
VERTEX
  8
PLAN_1
  6
CONTINUOUS
 10
-2.007906
 20
2.033555
  0
VERTEX
  8
PLAN_1
  6
CONTINUOUS
 10
-2.024055
 20
2.020638
  0
VERTEX
  8
PLAN_1
  6
CONTINUOUS
 10
-2.040201
 20
2.006795
  0
VERTEX
  8
PLAN_1
  6
CONTINUOUS
 10
-2.054969
 20
1.992492
  0
VERTEX
  8
PLAN_1
  6
CONTINUOUS
 10
-2.069272
 20
1.977728
  0
VERTEX
  8
PLAN_1
  6
CONTINUOUS
 10
-2.083110
 20
1.961579
  0
VERTEX
  8
PLAN_1
  6
CONTINUOUS
 10
-2.096031
 20
1.945429
  0
VERTEX
  8
PLAN_1
  6
CONTINUOUS
 10
-2.108028
 20
1.928358
  0
VERTEX
  8
PLAN_1
  6
CONTINUOUS
 10
-2.119098
 20
1.910827
  0
VERTEX
  8
PLAN_1
  6
CONTINUOUS
 10
-2.129713
 20
1.892835
  0
VERTEX
  8
PLAN_1
  6
CONTINUOUS
 10
-2.138937
 20
1.873917
  0
VERTEX
  8
PLAN_1
  6
CONTINUOUS
 10
-2.147705
 20
1.855000
  0
VERTEX
  8
PLAN_1
  6
CONTINUOUS
 10
-2.155547
 20
1.835161
  0
VERTEX
  8
PLAN_1
  6
CONTINUOUS
 10
-2.162469
 20
1.815319
  0
VERTEX
  8
PLAN_1
  6
CONTINUOUS
 10
-2.168008
 20
1.794559
  0
VERTEX
  8
PLAN_1
  6
CONTINUOUS
 10
-2.173083
 20
1.773795
  0
VERTEX
  8
PLAN_1
  6
CONTINUOUS
 10
-2.176772
 20
1.752110
  0
VERTEX
  8
PLAN_1
  6
CONTINUOUS
 10
-2.179539
 20
1.730425
  0
VERTEX
  8
PLAN_1
  6
CONTINUOUS
 10
-2.181386
 20
1.708740
  0
VERTEX
  8
PLAN_1
  6
CONTINUOUS
 10
-2.181846
 20
1.686594
  0
VERTEX
  8
PLAN_1
  6
CONTINUOUS
 10
-2.181386
 20
1.663988
  0
VERTEX
  8
PLAN_1
  6
CONTINUOUS
 10
-2.179539
 20
1.642303
  0
VERTEX
  8
PLAN_1
  6
CONTINUOUS
 10
-2.176772
 20
1.620618
  0
VERTEX
  8
PLAN_1
  6
CONTINUOUS
 10
-2.173083
 20
1.598933
  0
VERTEX
  8
PLAN_1
  6
CONTINUOUS
 10
-2.168008
 20
1.578169
  0
VERTEX
  8
PLAN_1
  6
CONTINUOUS
 10
-2.162469
 20
1.557406
  0
VERTEX
  8
PLAN_1
  6
CONTINUOUS
 10
-2.155547
 20
1.537567
  0
VERTEX
  8
PLAN_1
  6
CONTINUOUS
 10
-2.147705
 20
1.517728
  0
VERTEX
  8
PLAN_1
  6
CONTINUOUS
 10
-2.138937
 20
1.498811
  0
VERTEX
  8
PLAN_1
  6
CONTINUOUS
 10
-2.129713
 20
1.479894
  0
VERTEX
  8
PLAN_1
  6
CONTINUOUS
 10
-2.119098
 20
1.461902
  0
VERTEX
  8
PLAN_1
  6
CONTINUOUS
 10
-2.108028
 20
1.444366
  0
VERTEX
  8
PLAN_1
  6
CONTINUOUS
 10
-2.096031
 20
1.427295
  0
VERTEX
  8
PLAN_1
  6
CONTINUOUS
 10
-2.083110
 20
1.411150
  0
VERTEX
  8
PLAN_1
  6
CONTINUOUS
 10
-2.069272
 20
1.395461
  0
VERTEX
  8
PLAN_1
  6
CONTINUOUS
 10
-2.054969
 20
1.380236
  0
VERTEX
  8
PLAN_1
  6
CONTINUOUS
 10
-2.040201
 20
1.365933
  0
VERTEX
  8
PLAN_1
  6
CONTINUOUS
 10
-2.024055
 20
1.352091
  0
VERTEX
  8
PLAN_1
  6
CONTINUOUS
 10
-2.007906
 20
1.339634
  0
VERTEX
  8
PLAN_1
  6
CONTINUOUS
 10
-1.990835
 20
1.327177
  0
VERTEX
  8
PLAN_1
  6
CONTINUOUS
 10
-1.973303
 20
1.316102
  0
VERTEX
  8
PLAN_1
  6
CONTINUOUS
 10
-1.955307
 20
1.305492
  0
VERTEX
  8
PLAN_1
  6
CONTINUOUS
 10
-1.936390
 20
1.296264
  0
VERTEX
  8
PLAN_1
  6
CONTINUOUS
 10
-1.917476
 20
1.287496
  0
VERTEX
  8
PLAN_1
  6
CONTINUOUS
 10
-1.897634
 20
1.279654
  0
VERTEX
  8
PLAN_1
  6
CONTINUOUS
 10
-1.877795
 20
1.272732
  0
VERTEX
  8
PLAN_1
  6
CONTINUOUS
 10
-1.857031
 20
1.267197
  0
VERTEX
  8
PLAN_1
  6
CONTINUOUS
 10
-1.836272
 20
1.262122
  0
VERTEX
  8
PLAN_1
  6
CONTINUOUS
 10
-1.814587
 20
1.258429
  0
VERTEX
  8
PLAN_1
  6
CONTINUOUS
 10
-1.792902
 20
1.255661
  0
VERTEX
  8
PLAN_1
  6
CONTINUOUS
 10
-1.771217
 20
1.253815
  0
VERTEX
  8
PLAN_1
  6
CONTINUOUS
 10
-1.748606
 20
1.253354
  0
VERTEX
  8
PLAN_1
  6
CONTINUOUS
 10
-1.736610
 20
1.253815
  0
VERTEX
  8
PLAN_1
  6
CONTINUOUS
 10
-1.724154
 20
1.254276
  0
VERTEX
  8
PLAN_1
  6
CONTINUOUS
 10
-1.712157
 20
1.254740
  0
VERTEX
  8
PLAN_1
  6
CONTINUOUS
 10
-1.699701
 20
1.256122
  0
VERTEX
  8
PLAN_1
  6
CONTINUOUS
 10
-1.687705
 20
1.257508
  0
VERTEX
  8
PLAN_1
  6
CONTINUOUS
 10
-1.676169
 20
1.259354
  0
VERTEX
  8
PLAN_1
  6
CONTINUOUS
 10
-1.664173
 20
1.261661
  0
VERTEX
  8
PLAN_1
  6
CONTINUOUS
 10
-1.652642
 20
1.263969
  0
VERTEX
  8
PLAN_1
  6
CONTINUOUS
 10
-1.641106
 20
1.267197
  0
VERTEX
  8
PLAN_1
  6
CONTINUOUS
 10
-1.629571
 20
1.269965
  0
VERTEX
  8
PLAN_1
  6
CONTINUOUS
 10
-1.618035
 20
1.273657
  0
VERTEX
  8
PLAN_1
  6
CONTINUOUS
 10
-1.606965
 20
1.277346
  0
VERTEX
  8
PLAN_1
  6
CONTINUOUS
 10
-1.595890
 20
1.281039
  0
VERTEX
  8
PLAN_1
  6
CONTINUOUS
 10
-1.585280
 20
1.285654
  0
VERTEX
  8
PLAN_1
  6
CONTINUOUS
 10
-1.574205
 20
1.290264
  0
VERTEX
  8
PLAN_1
  6
CONTINUOUS
 10
-1.563594
 20
1.294878
  0
VERTEX
  8
PLAN_1
  6
CONTINUOUS
 10
-1.553441
 20
1.299953
  0
VERTEX
  8
PLAN_1
  6
CONTINUOUS
 10
-1.542831
 20
1.305492
  0
VERTEX
  8
PLAN_1
  6
CONTINUOUS
 10
-1.533142
 20
1.311028
  0
VERTEX
  8
PLAN_1
  6
CONTINUOUS
 10
-1.522992
 20
1.317028
  0
VERTEX
  8
PLAN_1
  6
CONTINUOUS
 10
-1.513303
 20
1.323024
  0
VERTEX
  8
PLAN_1
  6
CONTINUOUS
 10
-1.503614
 20
1.329484
  0
VERTEX
  8
PLAN_1
  6
CONTINUOUS
 10
-1.494386
 20
1.336406
  0
VERTEX
  8
PLAN_1
  6
CONTINUOUS
 10
-1.485157
 20
1.343323
  0
VERTEX
  8
PLAN_1
  6
CONTINUOUS
 10
-1.475929
 20
1.350244
  0
VERTEX
  8
PLAN_1
  6
CONTINUOUS
 10
-1.467165
 20
1.357626
  0
VERTEX
  8
PLAN_1
  6
CONTINUOUS
 10
-1.458398
 20
1.365472
  0
VERTEX
  8
PLAN_1
  6
CONTINUOUS
 10
-1.450094
 20
1.373315
  0
VERTEX
  8
PLAN_1
  6
CONTINUOUS
 10
-1.441787
 20
1.381157
  0
VERTEX
  8
PLAN_1
  6
CONTINUOUS
 10
-1.433945
 20
1.389465
  0
VERTEX
  8
PLAN_1
  6
CONTINUOUS
 10
-1.426102
 20
1.398228
  0
VERTEX
  8
PLAN_1
  6
CONTINUOUS
 10
-1.418256
 20
1.406996
  0
SEQEND
  8
0
  0
POLYLINE
  8
PLAN_1
  6
CONTINUOUS
 66
     1
 40
0.008303
 41
0.008303
  0
VERTEX
  8
PLAN_1
  6
CONTINUOUS
 10
-0.300787
 20
2.514315
  0
VERTEX
  8
PLAN_1
  6
CONTINUOUS
 10
-0.315087
 20
2.502319
  0
VERTEX
  8
PLAN_1
  6
CONTINUOUS
 10
-0.330315
 20
2.491248
  0
VERTEX
  8
PLAN_1
  6
CONTINUOUS
 10
-0.345539
 20
2.480634
  0
VERTEX
  8
PLAN_1
  6
CONTINUOUS
 10
-0.361689
 20
2.470484
  0
VERTEX
  8
PLAN_1
  6
CONTINUOUS
 10
-0.377839
 20
2.461256
  0
VERTEX
  8
PLAN_1
  6
CONTINUOUS
 10
-0.394909
 20
2.452953
  0
VERTEX
  8
PLAN_1
  6
CONTINUOUS
 10
-0.411980
 20
2.445110
  0
VERTEX
  8
PLAN_1
  6
CONTINUOUS
 10
-0.429512
 20
2.437728
  0
VERTEX
  8
PLAN_1
  6
CONTINUOUS
 10
-0.447504
 20
2.431728
  0
VERTEX
  8
PLAN_1
  6
CONTINUOUS
 10
-0.465961
 20
2.426193
  0
VERTEX
  8
PLAN_1
  6
CONTINUOUS
 10
-0.484417
 20
2.421118
  0
VERTEX
  8
PLAN_1
  6
CONTINUOUS
 10
-0.503795
 20
2.417425
  0
VERTEX
  8
PLAN_1
  6
CONTINUOUS
 10
-0.522713
 20
2.414197
  0
VERTEX
  8
PLAN_1
  6
CONTINUOUS
 10
-0.542551
 20
2.411890
  0
VERTEX
  8
PLAN_1
  6
CONTINUOUS
 10
-0.562390
 20
2.410504
  0
VERTEX
  8
PLAN_1
  6
CONTINUOUS
 10
-0.582228
 20
2.410043
  0
VERTEX
  8
PLAN_1
  6
CONTINUOUS
 10
-0.601606
 20
2.410504
  0
VERTEX
  8
PLAN_1
  6
CONTINUOUS
 10
-0.620984
 20
2.411890
  0
VERTEX
  8
PLAN_1
  6
CONTINUOUS
 10
-0.639902
 20
2.414197
  0
VERTEX
  8
PLAN_1
  6
CONTINUOUS
 10
-0.658358
 20
2.416965
  0
VERTEX
  8
PLAN_1
  6
CONTINUOUS
 10
-0.676815
 20
2.420657
  0
VERTEX
  8
PLAN_1
  6
CONTINUOUS
 10
-0.695268
 20
2.425268
  0
VERTEX
  8
PLAN_1
  6
CONTINUOUS
 10
-0.712803
 20
2.430346
  0
VERTEX
  8
PLAN_1
  6
CONTINUOUS
 10
-0.730335
 20
2.436343
  0
VERTEX
  8
PLAN_1
  6
CONTINUOUS
 10
-0.747406
 20
2.442803
  0
VERTEX
  8
PLAN_1
  6
CONTINUOUS
 10
-0.764476
 20
2.450185
  0
VERTEX
  8
PLAN_1
  6
CONTINUOUS
 10
-0.780626
 20
2.458488
  0
VERTEX
  8
PLAN_1
  6
CONTINUOUS
 10
-0.796772
 20
2.467256
  0
VERTEX
  8
PLAN_1
  6
CONTINUOUS
 10
-0.812461
 20
2.476484
  0
VERTEX
  8
PLAN_1
  6
CONTINUOUS
 10
-0.827685
 20
2.486634
  0
VERTEX
  8
PLAN_1
  6
CONTINUOUS
 10
-0.842449
 20
2.497244
  0
VERTEX
  8
PLAN_1
  6
CONTINUOUS
 10
-0.856752
 20
2.508319
  0
SEQEND
  8
0
  0
POLYLINE
  8
PLAN_1
  6
CONTINUOUS
 66
     1
 40
0.008303
 41
0.008303
  0
VERTEX
  8
PLAN_1
  6
CONTINUOUS
 10
-0.300787
 20
2.514315
  0
VERTEX
  8
PLAN_1
  6
CONTINUOUS
 10
-0.288327
 20
2.525390
  0
VERTEX
  8
PLAN_1
  6
CONTINUOUS
 10
-0.276331
 20
2.536925
  0
VERTEX
  8
PLAN_1
  6
CONTINUOUS
 10
-0.264335
 20
2.548921
  0
VERTEX
  8
PLAN_1
  6
CONTINUOUS
 10
-0.253264
 20
2.561839
  0
VERTEX
  8
PLAN_1
  6
CONTINUOUS
 10
-0.242650
 20
2.574760
  0
VERTEX
  8
PLAN_1
  6
CONTINUOUS
 10
-0.232500
 20
2.588138
  0
VERTEX
  8
PLAN_1
  6
CONTINUOUS
 10
-0.222811
 20
2.601980
  0
VERTEX
  8
PLAN_1
  6
CONTINUOUS
 10
-0.213583
 20
2.615823
  0
VERTEX
  8
PLAN_1
  6
CONTINUOUS
 10
-0.206201
 20
2.628280
  0
VERTEX
  8
PLAN_1
  6
CONTINUOUS
 10
-0.199280
 20
2.641197
  0
VERTEX
  8
PLAN_1
  6
CONTINUOUS
 10
-0.192362
 20
2.654114
  0
VERTEX
  8
PLAN_1
  6
CONTINUOUS
 10
-0.186362
 20
2.667496
  0
VERTEX
  8
PLAN_1
  6
CONTINUOUS
 10
-0.180366
 20
2.681339
  0
VERTEX
  8
PLAN_1
  6
CONTINUOUS
 10
-0.175287
 20
2.694717
  0
VERTEX
  8
PLAN_1
  6
CONTINUOUS
 10
-0.170677
 20
2.709020
  0
VERTEX
  8
PLAN_1
  6
CONTINUOUS
 10
-0.166063
 20
2.723323
  0
VERTEX
  8
PLAN_1
  6
CONTINUOUS
 10
-0.162370
 20
2.737626
  0
VERTEX
  8
PLAN_1
  6
CONTINUOUS
 10
-0.158681
 20
2.751929
  0
VERTEX
  8
PLAN_1
  6
CONTINUOUS
 10
-0.155909
 20
2.766693
  0
VERTEX
  8
PLAN_1
  6
CONTINUOUS
 10
-0.153602
 20
2.781921
  0
VERTEX
  8
PLAN_1
  6
CONTINUOUS
 10
-0.151760
 20
2.797146
  0
VERTEX
  8
PLAN_1
  6
CONTINUOUS
 10
-0.150374
 20
2.812370
  0
VERTEX
  8
PLAN_1
  6
CONTINUOUS
 10
-0.149453
 20
2.827594
  0
VERTEX
  8
PLAN_1
  6
CONTINUOUS
 10
-0.148992
 20
2.843283
  0
VERTEX
  8
PLAN_1
  6
CONTINUOUS
 10
-0.149453
 20
2.858508
  0
VERTEX
  8
PLAN_1
  6
CONTINUOUS
 10
-0.150374
 20
2.873272
  0
VERTEX
  8
PLAN_1
  6
CONTINUOUS
 10
-0.151760
 20
2.888500
  0
VERTEX
  8
PLAN_1
  6
CONTINUOUS
 10
-0.153142
 20
2.903264
  0
VERTEX
  8
PLAN_1
  6
CONTINUOUS
 10
-0.155449
 20
2.917567
  0
VERTEX
  8
PLAN_1
  6
CONTINUOUS
 10
-0.158217
 20
2.932331
  0
VERTEX
  8
PLAN_1
  6
CONTINUOUS
 10
-0.161449
 20
2.946173
  0
VERTEX
  8
PLAN_1
  6
CONTINUOUS
 10
-0.165138
 20
2.960476
  0
VERTEX
  8
PLAN_1
  6
CONTINUOUS
 10
-0.169291
 20
2.974315
  0
VERTEX
  8
PLAN_1
  6
CONTINUOUS
 10
-0.173906
 20
2.988157
  0
VERTEX
  8
PLAN_1
  6
CONTINUOUS
 10
-0.178980
 20
3.001539
  0
VERTEX
  8
PLAN_1
  6
CONTINUOUS
 10
-0.184516
 20
3.014917
  0
VERTEX
  8
PLAN_1
  6
CONTINUOUS
 10
-0.190516
 20
3.027839
  0
VERTEX
  8
PLAN_1
  6
CONTINUOUS
 10
-0.196512
 20
3.040756
  0
VERTEX
  8
PLAN_1
  6
CONTINUOUS
 10
-0.203433
 20
3.053213
  0
VERTEX
  8
PLAN_1
  6
CONTINUOUS
 10
-0.210354
 20
3.065669
  0
VERTEX
  8
PLAN_1
  6
CONTINUOUS
 10
-0.217736
 20
3.077205
  0
VERTEX
  8
PLAN_1
  6
CONTINUOUS
 10
-0.225579
 20
3.088740
  0
VERTEX
  8
PLAN_1
  6
CONTINUOUS
 10
-0.233425
 20
3.099811
  0
VERTEX
  8
PLAN_1
  6
CONTINUOUS
 10
-0.241728
 20
3.110886
  0
VERTEX
  8
PLAN_1
  6
CONTINUOUS
 10
-0.250496
 20
3.121496
  0
VERTEX
  8
PLAN_1
  6
CONTINUOUS
 10
-0.259260
 20
3.131650
  0
VERTEX
  8
PLAN_1
  6
CONTINUOUS
 10
-0.268949
 20
3.141799
  0
VERTEX
  8
PLAN_1
  6
CONTINUOUS
 10
-0.278177
 20
3.151488
  0
VERTEX
  8
PLAN_1
  6
CONTINUOUS
 10
-0.288327
 20
3.161177
  0
VERTEX
  8
PLAN_1
  6
CONTINUOUS
 10
-0.298480
 20
3.170406
  0
VERTEX
  8
PLAN_1
  6
CONTINUOUS
 10
-0.309091
 20
3.179169
  0
VERTEX
  8
PLAN_1
  6
CONTINUOUS
 10
-0.319701
 20
3.187476
  0
VERTEX
  8
PLAN_1
  6
CONTINUOUS
 10
-0.330776
 20
3.195780
  0
VERTEX
  8
PLAN_1
  6
CONTINUOUS
 10
-0.342311
 20
3.203626
  0
VERTEX
  8
PLAN_1
  6
CONTINUOUS
 10
-0.353846
 20
3.211008
  0
VERTEX
  8
PLAN_1
  6
CONTINUOUS
 10
-0.365378
 20
3.218390
  0
VERTEX
  8
PLAN_1
  6
CONTINUOUS
 10
-0.377839
 20
3.224846
  0
VERTEX
  8
PLAN_1
  6
CONTINUOUS
 10
-0.389835
 20
3.231307
  0
VERTEX
  8
PLAN_1
  6
CONTINUOUS
 10
-0.402291
 20
3.237307
  0
VERTEX
  8
PLAN_1
  6
CONTINUOUS
 10
-0.415209
 20
3.242843
  0
VERTEX
  8
PLAN_1
  6
CONTINUOUS
 10
-0.428126
 20
3.247917
  0
VERTEX
  8
PLAN_1
  6
CONTINUOUS
 10
-0.441508
 20
3.252992
  0
VERTEX
  8
PLAN_1
  6
CONTINUOUS
 10
-0.454425
 20
3.257146
  0
VERTEX
  8
PLAN_1
  6
CONTINUOUS
 10
-0.468268
 20
3.260835
  0
VERTEX
  8
PLAN_1
  6
CONTINUOUS
 10
-0.482110
 20
3.264528
  0
VERTEX
  8
PLAN_1
  6
CONTINUOUS
 10
-0.495953
 20
3.267756
  0
VERTEX
  8
PLAN_1
  6
CONTINUOUS
 10
-0.509791
 20
3.270063
  0
VERTEX
  8
PLAN_1
  6
CONTINUOUS
 10
-0.524094
 20
3.272370
  0
VERTEX
  8
PLAN_1
  6
CONTINUOUS
 10
-0.538398
 20
3.274217
  0
VERTEX
  8
PLAN_1
  6
CONTINUOUS
 10
-0.552701
 20
3.275138
  0
VERTEX
  8
PLAN_1
  6
CONTINUOUS
 10
-0.567465
 20
3.276063
  0
VERTEX
  8
PLAN_1
  6
CONTINUOUS
 10
-0.582228
 20
3.276063
  0
VERTEX
  8
PLAN_1
  6
CONTINUOUS
 10
-0.604378
 20
3.275598
  0
VERTEX
  8
PLAN_1
  6
CONTINUOUS
 10
-0.626524
 20
3.274217
  0
VERTEX
  8
PLAN_1
  6
CONTINUOUS
 10
-0.648209
 20
3.271449
  0
VERTEX
  8
PLAN_1
  6
CONTINUOUS
 10
-0.669433
 20
3.267295
  0
VERTEX
  8
PLAN_1
  6
CONTINUOUS
 10
-0.690654
 20
3.262681
  0
VERTEX
  8
PLAN_1
  6
CONTINUOUS
 10
-0.710957
 20
3.256685
  0
VERTEX
  8
PLAN_1
  6
CONTINUOUS
 10
-0.731256
 20
3.249764
  0
VERTEX
  8
PLAN_1
  6
CONTINUOUS
 10
-0.750634
 20
3.242382
  0
VERTEX
  8
PLAN_1
  6
CONTINUOUS
 10
-0.770012
 20
3.233614
  0
VERTEX
  8
PLAN_1
  6
CONTINUOUS
 10
-0.788469
 20
3.223925
  0
VERTEX
  8
PLAN_1
  6
CONTINUOUS
 10
-0.806925
 20
3.213776
  0
VERTEX
  8
PLAN_1
  6
CONTINUOUS
 10
-0.824457
 20
3.202240
  0
VERTEX
  8
PLAN_1
  6
CONTINUOUS
 10
-0.841067
 20
3.190244
  0
VERTEX
  8
PLAN_1
  6
CONTINUOUS
 10
-0.857677
 20
3.177327
  0
VERTEX
  8
PLAN_1
  6
CONTINUOUS
 10
-0.873362
 20
3.163945
  0
VERTEX
  8
PLAN_1
  6
CONTINUOUS
 10
-0.888591
 20
3.149642
  0
VERTEX
  8
PLAN_1
  6
CONTINUOUS
 10
-0.902890
 20
3.134417
  0
VERTEX
  8
PLAN_1
  6
CONTINUOUS
 10
-0.916272
 20
3.118728
  0
VERTEX
  8
PLAN_1
  6
CONTINUOUS
 10
-0.929189
 20
3.102118
  0
VERTEX
  8
PLAN_1
  6
CONTINUOUS
 10
-0.941185
 20
3.085512
  0
VERTEX
  8
PLAN_1
  6
CONTINUOUS
 10
-0.952720
 20
3.067976
  0
VERTEX
  8
PLAN_1
  6
CONTINUOUS
 10
-0.962870
 20
3.049524
  0
VERTEX
  8
PLAN_1
  6
CONTINUOUS
 10
-0.972559
 20
3.031067
  0
VERTEX
  8
PLAN_1
  6
CONTINUOUS
 10
-0.981327
 20
3.011689
  0
VERTEX
  8
PLAN_1
  6
CONTINUOUS
 10
-0.989169
 20
2.992311
  0
VERTEX
  8
PLAN_1
  6
CONTINUOUS
 10
-0.995630
 20
2.972008
  0
VERTEX
  8
PLAN_1
  6
CONTINUOUS
 10
-1.001626
 20
2.951248
  0
VERTEX
  8
PLAN_1
  6
CONTINUOUS
 10
-1.006240
 20
2.930484
  0
VERTEX
  8
PLAN_1
  6
CONTINUOUS
 10
-1.010394
 20
2.909260
  0
VERTEX
  8
PLAN_1
  6
CONTINUOUS
 10
-1.013161
 20
2.887575
  0
VERTEX
  8
PLAN_1
  6
CONTINUOUS
 10
-1.014547
 20
2.865429
  0
VERTEX
  8
PLAN_1
  6
CONTINUOUS
 10
-1.015008
 20
2.843283
  0
VERTEX
  8
PLAN_1
  6
CONTINUOUS
 10
-1.015008
 20
2.830827
  0
VERTEX
  8
PLAN_1
  6
CONTINUOUS
 10
-1.014547
 20
2.817906
  0
VERTEX
  8
PLAN_1
  6
CONTINUOUS
 10
-1.013622
 20
2.805909
  0
VERTEX
  8
PLAN_1
  6
CONTINUOUS
 10
-1.012240
 20
2.793453
  0
VERTEX
  8
PLAN_1
  6
CONTINUOUS
 10
-1.010854
 20
2.780996
  0
VERTEX
  8
PLAN_1
  6
CONTINUOUS
 10
-1.009008
 20
2.769000
  0
VERTEX
  8
PLAN_1
  6
CONTINUOUS
 10
-1.006705
 20
2.757004
  0
VERTEX
  8
PLAN_1
  6
CONTINUOUS
 10
-1.003933
 20
2.745008
  0
VERTEX
  8
PLAN_1
  6
CONTINUOUS
 10
-1.001165
 20
2.733472
  0
VERTEX
  8
PLAN_1
  6
CONTINUOUS
 10
-0.997937
 20
2.721941
  0
VERTEX
  8
PLAN_1
  6
CONTINUOUS
 10
-0.994244
 20
2.710406
  0
VERTEX
  8
PLAN_1
  6
CONTINUOUS
 10
-0.990555
 20
2.698870
  0
VERTEX
  8
PLAN_1
  6
CONTINUOUS
 10
-0.986402
 20
2.687795
  0
VERTEX
  8
PLAN_1
  6
CONTINUOUS
 10
-0.981787
 20
2.676724
  0
VERTEX
  8
PLAN_1
  6
CONTINUOUS
 10
-0.977173
 20
2.665650
  0
VERTEX
  8
PLAN_1
  6
CONTINUOUS
 10
-0.972098
 20
2.655039
  0
VERTEX
  8
PLAN_1
  6
CONTINUOUS
 10
-0.967024
 20
2.644425
  0
VERTEX
  8
PLAN_1
  6
CONTINUOUS
 10
-0.961488
 20
2.633815
  0
VERTEX
  8
PLAN_1
  6
CONTINUOUS
 10
-0.955488
 20
2.623665
  0
VERTEX
  8
PLAN_1
  6
CONTINUOUS
 10
-0.949492
 20
2.613516
  0
VERTEX
  8
PLAN_1
  6
CONTINUOUS
 10
-0.943031
 20
2.603827
  0
VERTEX
  8
PLAN_1
  6
CONTINUOUS
 10
-0.936110
 20
2.594138
  0
VERTEX
  8
PLAN_1
  6
CONTINUOUS
 10
-0.929189
 20
2.584449
  0
VERTEX
  8
PLAN_1
  6
CONTINUOUS
 10
-0.922268
 20
2.575220
  0
VERTEX
  8
PLAN_1
  6
CONTINUOUS
 10
-0.914886
 20
2.565992
  0
VERTEX
  8
PLAN_1
  6
CONTINUOUS
 10
-0.907043
 20
2.557224
  0
VERTEX
  8
PLAN_1
  6
CONTINUOUS
 10
-0.899201
 20
2.548461
  0
VERTEX
  8
PLAN_1
  6
CONTINUOUS
 10
-0.891358
 20
2.540154
  0
VERTEX
  8
PLAN_1
  6
CONTINUOUS
 10
-0.883051
 20
2.531850
  0
VERTEX
  8
PLAN_1
  6
CONTINUOUS
 10
-0.874287
 20
2.523543
  0
VERTEX
  8
PLAN_1
  6
CONTINUOUS
 10
-0.865520
 20
2.515701
  0
VERTEX
  8
PLAN_1
  6
CONTINUOUS
 10
-0.856752
 20
2.508319
  0
SEQEND
  8
0
  0
POLYLINE
  8
PLAN_1
  6
CONTINUOUS
 66
     1
 40
0.008303
 41
0.008303
  0
VERTEX
  8
PLAN_1
  6
CONTINUOUS
 10
-0.839220
 20
2.839591
  0
VERTEX
  8
PLAN_1
  6
CONTINUOUS
 10
-0.717413
 20
3.065209
  0
VERTEX
  8
PLAN_1
  6
CONTINUOUS
 10
-0.450276
 20
3.065209
  0
VERTEX
  8
PLAN_1
  6
CONTINUOUS
 10
-0.325240
 20
2.839591
  0
VERTEX
  8
PLAN_1
  6
CONTINUOUS
 10
-0.450276
 20
2.624587
  0
VERTEX
  8
PLAN_1
  6
CONTINUOUS
 10
-0.717413
 20
2.624587
  0
VERTEX
  8
PLAN_1
  6
CONTINUOUS
 10
-0.839220
 20
2.839591
  0
SEQEND
  8
0
  0
POLYLINE
  8
PLAN_1
  6
CONTINUOUS
 66
     1
 40
0.004150
 41
0.004150
  0
VERTEX
  8
PLAN_1
  6
CONTINUOUS
 10
-0.391677
 20
2.847437
  0
VERTEX
  8
PLAN_1
  6
CONTINUOUS
 10
-0.750173
 20
2.847437
  0
SEQEND
  8
0
  0
POLYLINE
  8
PLAN_1
  6
CONTINUOUS
 66
     1
 40
0.004150
 41
0.004150
  0
VERTEX
  8
PLAN_1
  6
CONTINUOUS
 10
-0.580386
 20
2.665189
  0
VERTEX
  8
PLAN_1
  6
CONTINUOUS
 10
-0.580386
 20
3.023685
  0
SEQEND
  8
0
  0
POLYLINE
  8
PLAN_1
  6
CONTINUOUS
 66
     1
 40
0.008303
 41
0.008303
  0
VERTEX
  8
PLAN_1
  6
CONTINUOUS
 10
-0.578539
 20
1.309181
  0
VERTEX
  8
PLAN_1
  6
CONTINUOUS
 10
-0.559161
 20
1.309642
  0
VERTEX
  8
PLAN_1
  6
CONTINUOUS
 10
-0.540244
 20
1.311028
  0
VERTEX
  8
PLAN_1
  6
CONTINUOUS
 10
-0.521327
 20
1.313795
  0
VERTEX
  8
PLAN_1
  6
CONTINUOUS
 10
-0.502870
 20
1.317028
  0
VERTEX
  8
PLAN_1
  6
CONTINUOUS
 10
-0.484878
 20
1.321177
  0
VERTEX
  8
PLAN_1
  6
CONTINUOUS
 10
-0.467346
 20
1.326252
  0
VERTEX
  8
PLAN_1
  6
CONTINUOUS
 10
-0.449811
 20
1.331791
  0
VERTEX
  8
PLAN_1
  6
CONTINUOUS
 10
-0.432740
 20
1.338713
  0
VERTEX
  8
PLAN_1
  6
CONTINUOUS
 10
-0.416130
 20
1.346094
  0
VERTEX
  8
PLAN_1
  6
CONTINUOUS
 10
-0.399984
 20
1.354398
  0
VERTEX
  8
PLAN_1
  6
CONTINUOUS
 10
-0.384756
 20
1.363626
  0
VERTEX
  8
PLAN_1
  6
CONTINUOUS
 10
-0.369531
 20
1.373315
  0
VERTEX
  8
PLAN_1
  6
CONTINUOUS
 10
-0.354768
 20
1.383465
  0
VERTEX
  8
PLAN_1
  6
CONTINUOUS
 10
-0.340465
 20
1.394539
  0
VERTEX
  8
PLAN_1
  6
CONTINUOUS
 10
-0.327083
 20
1.406535
  0
VERTEX
  8
PLAN_1
  6
CONTINUOUS
 10
-0.314165
 20
1.418992
  0
VERTEX
  8
PLAN_1
  6
CONTINUOUS
 10
-0.301709
 20
1.431909
  0
VERTEX
  8
PLAN_1
  6
CONTINUOUS
 10
-0.289713
 20
1.445291
  0
VERTEX
  8
PLAN_1
  6
CONTINUOUS
 10
-0.278638
 20
1.459594
  0
VERTEX
  8
PLAN_1
  6
CONTINUOUS
 10
-0.268488
 20
1.474358
  0
VERTEX
  8
PLAN_1
  6
CONTINUOUS
 10
-0.258799
 20
1.489122
  0
VERTEX
  8
PLAN_1
  6
CONTINUOUS
 10
-0.249571
 20
1.504807
  0
VERTEX
  8
PLAN_1
  6
CONTINUOUS
 10
-0.241268
 20
1.520957
  0
VERTEX
  8
PLAN_1
  6
CONTINUOUS
 10
-0.233886
 20
1.537567
  0
VERTEX
  8
PLAN_1
  6
CONTINUOUS
 10
-0.227425
 20
1.554638
  0
VERTEX
  8
PLAN_1
  6
CONTINUOUS
 10
-0.221429
 20
1.572169
  0
VERTEX
  8
PLAN_1
  6
CONTINUOUS
 10
-0.216354
 20
1.589705
  0
VERTEX
  8
PLAN_1
  6
CONTINUOUS
 10
-0.212201
 20
1.607697
  0
VERTEX
  8
PLAN_1
  6
CONTINUOUS
 10
-0.208969
 20
1.626154
  0
VERTEX
  8
PLAN_1
  6
CONTINUOUS
 10
-0.206201
 20
1.645071
  0
VERTEX
  8
PLAN_1
  6
CONTINUOUS
 10
-0.204819
 20
1.663988
  0
VERTEX
  8
PLAN_1
  6
CONTINUOUS
 10
-0.204358
 20
1.683366
  0
VERTEX
  8
PLAN_1
  6
CONTINUOUS
 10
-0.204819
 20
1.702280
  0
VERTEX
  8
PLAN_1
  6
CONTINUOUS
 10
-0.206201
 20
1.721657
  0
VERTEX
  8
PLAN_1
  6
CONTINUOUS
 10
-0.208969
 20
1.740114
  0
VERTEX
  8
PLAN_1
  6
CONTINUOUS
 10
-0.212201
 20
1.758571
  0
VERTEX
  8
PLAN_1
  6
CONTINUOUS
 10
-0.216354
 20
1.776563
  0
VERTEX
  8
PLAN_1
  6
CONTINUOUS
 10
-0.221429
 20
1.794559
  0
VERTEX
  8
PLAN_1
  6
CONTINUOUS
 10
-0.227425
 20
1.811630
  0
VERTEX
  8
PLAN_1
  6
CONTINUOUS
 10
-0.233886
 20
1.828701
  0
VERTEX
  8
PLAN_1
  6
CONTINUOUS
 10
-0.241268
 20
1.845311
  0
VERTEX
  8
PLAN_1
  6
CONTINUOUS
 10
-0.249571
 20
1.861457
  0
VERTEX
  8
PLAN_1
  6
CONTINUOUS
 10
-0.258799
 20
1.877146
  0
VERTEX
  8
PLAN_1
  6
CONTINUOUS
 10
-0.268488
 20
1.892370
  0
VERTEX
  8
PLAN_1
  6
CONTINUOUS
 10
-0.278638
 20
1.907134
  0
VERTEX
  8
PLAN_1
  6
CONTINUOUS
 10
-0.289713
 20
1.920976
  0
VERTEX
  8
PLAN_1
  6
CONTINUOUS
 10
-0.301709
 20
1.934819
  0
VERTEX
  8
PLAN_1
  6
CONTINUOUS
 10
-0.314165
 20
1.947736
  0
VERTEX
  8
PLAN_1
  6
CONTINUOUS
 10
-0.327083
 20
1.960193
  0
VERTEX
  8
PLAN_1
  6
CONTINUOUS
 10
-0.340465
 20
1.971728
  0
VERTEX
  8
PLAN_1
  6
CONTINUOUS
 10
-0.354768
 20
1.982803
  0
VERTEX
  8
PLAN_1
  6
CONTINUOUS
 10
-0.369531
 20
1.993413
  0
VERTEX
  8
PLAN_1
  6
CONTINUOUS
 10
-0.384756
 20
2.003102
  0
VERTEX
  8
PLAN_1
  6
CONTINUOUS
 10
-0.399984
 20
2.011870
  0
VERTEX
  8
PLAN_1
  6
CONTINUOUS
 10
-0.416130
 20
2.020173
  0
VERTEX
  8
PLAN_1
  6
CONTINUOUS
 10
-0.432740
 20
2.027555
  0
VERTEX
  8
PLAN_1
  6
CONTINUOUS
 10
-0.449811
 20
2.034476
  0
VERTEX
  8
PLAN_1
  6
CONTINUOUS
 10
-0.467346
 20
2.040476
  0
VERTEX
  8
PLAN_1
  6
CONTINUOUS
 10
-0.484878
 20
2.045551
  0
VERTEX
  8
PLAN_1
  6
CONTINUOUS
 10
-0.502870
 20
2.049705
  0
VERTEX
  8
PLAN_1
  6
CONTINUOUS
 10
-0.521327
 20
2.052933
  0
VERTEX
  8
PLAN_1
  6
CONTINUOUS
 10
-0.540244
 20
2.055240
  0
VERTEX
  8
PLAN_1
  6
CONTINUOUS
 10
-0.559161
 20
2.056622
  0
VERTEX
  8
PLAN_1
  6
CONTINUOUS
 10
-0.578539
 20
2.057087
  0
VERTEX
  8
PLAN_1
  6
CONTINUOUS
 10
-0.597917
 20
2.056622
  0
VERTEX
  8
PLAN_1
  6
CONTINUOUS
 10
-0.616835
 20
2.055240
  0
VERTEX
  8
PLAN_1
  6
CONTINUOUS
 10
-0.635287
 20
2.052933
  0
VERTEX
  8
PLAN_1
  6
CONTINUOUS
 10
-0.653744
 20
2.049705
  0
VERTEX
  8
PLAN_1
  6
CONTINUOUS
 10
-0.671740
 20
2.045551
  0
VERTEX
  8
PLAN_1
  6
CONTINUOUS
 10
-0.689732
 20
2.040476
  0
VERTEX
  8
PLAN_1
  6
CONTINUOUS
 10
-0.706803
 20
2.034476
  0
VERTEX
  8
PLAN_1
  6
CONTINUOUS
 10
-0.723874
 20
2.027555
  0
VERTEX
  8
PLAN_1
  6
CONTINUOUS
 10
-0.740484
 20
2.020173
  0
VERTEX
  8
PLAN_1
  6
CONTINUOUS
 10
-0.756634
 20
2.011870
  0
VERTEX
  8
PLAN_1
  6
CONTINUOUS
 10
-0.772319
 20
2.003102
  0
VERTEX
  8
PLAN_1
  6
CONTINUOUS
 10
-0.787547
 20
1.993413
  0
VERTEX
  8
PLAN_1
  6
CONTINUOUS
 10
-0.802311
 20
1.982803
  0
VERTEX
  8
PLAN_1
  6
CONTINUOUS
 10
-0.816150
 20
1.971728
  0
VERTEX
  8
PLAN_1
  6
CONTINUOUS
 10
-0.829992
 20
1.960193
  0
VERTEX
  8
PLAN_1
  6
CONTINUOUS
 10
-0.842913
 20
1.947736
  0
VERTEX
  8
PLAN_1
  6
CONTINUOUS
 10
-0.855370
 20
1.934819
  0
VERTEX
  8
PLAN_1
  6
CONTINUOUS
 10
-0.866906
 20
1.920976
  0
VERTEX
  8
PLAN_1
  6
CONTINUOUS
 10
-0.877976
 20
1.907134
  0
VERTEX
  8
PLAN_1
  6
CONTINUOUS
 10
-0.888591
 20
1.892370
  0
VERTEX
  8
PLAN_1
  6
CONTINUOUS
 10
-0.898280
 20
1.877146
  0
VERTEX
  8
PLAN_1
  6
CONTINUOUS
 10
-0.907043
 20
1.861457
  0
VERTEX
  8
PLAN_1
  6
CONTINUOUS
 10
-0.915350
 20
1.845311
  0
VERTEX
  8
PLAN_1
  6
CONTINUOUS
 10
-0.923193
 20
1.828701
  0
VERTEX
  8
PLAN_1
  6
CONTINUOUS
 10
-0.929654
 20
1.811630
  0
VERTEX
  8
PLAN_1
  6
CONTINUOUS
 10
-0.935650
 20
1.794559
  0
VERTEX
  8
PLAN_1
  6
CONTINUOUS
 10
-0.940724
 20
1.776563
  0
VERTEX
  8
PLAN_1
  6
CONTINUOUS
 10
-0.944878
 20
1.758571
  0
VERTEX
  8
PLAN_1
  6
CONTINUOUS
 10
-0.948106
 20
1.740114
  0
VERTEX
  8
PLAN_1
  6
CONTINUOUS
 10
-0.950413
 20
1.721657
  0
VERTEX
  8
PLAN_1
  6
CONTINUOUS
 10
-0.951799
 20
1.702280
  0
VERTEX
  8
PLAN_1
  6
CONTINUOUS
 10
-0.952260
 20
1.683366
  0
VERTEX
  8
PLAN_1
  6
CONTINUOUS
 10
-0.951799
 20
1.663988
  0
VERTEX
  8
PLAN_1
  6
CONTINUOUS
 10
-0.950413
 20
1.645071
  0
VERTEX
  8
PLAN_1
  6
CONTINUOUS
 10
-0.948106
 20
1.626154
  0
VERTEX
  8
PLAN_1
  6
CONTINUOUS
 10
-0.944878
 20
1.607697
  0
VERTEX
  8
PLAN_1
  6
CONTINUOUS
 10
-0.940724
 20
1.589705
  0
VERTEX
  8
PLAN_1
  6
CONTINUOUS
 10
-0.935650
 20
1.572169
  0
VERTEX
  8
PLAN_1
  6
CONTINUOUS
 10
-0.929654
 20
1.554638
  0
VERTEX
  8
PLAN_1
  6
CONTINUOUS
 10
-0.923193
 20
1.537567
  0
VERTEX
  8
PLAN_1
  6
CONTINUOUS
 10
-0.915350
 20
1.520957
  0
VERTEX
  8
PLAN_1
  6
CONTINUOUS
 10
-0.907043
 20
1.504807
  0
VERTEX
  8
PLAN_1
  6
CONTINUOUS
 10
-0.898280
 20
1.489122
  0
VERTEX
  8
PLAN_1
  6
CONTINUOUS
 10
-0.888591
 20
1.474358
  0
VERTEX
  8
PLAN_1
  6
CONTINUOUS
 10
-0.877976
 20
1.459594
  0
VERTEX
  8
PLAN_1
  6
CONTINUOUS
 10
-0.866906
 20
1.445291
  0
VERTEX
  8
PLAN_1
  6
CONTINUOUS
 10
-0.855370
 20
1.431909
  0
VERTEX
  8
PLAN_1
  6
CONTINUOUS
 10
-0.842913
 20
1.418992
  0
VERTEX
  8
PLAN_1
  6
CONTINUOUS
 10
-0.829992
 20
1.406535
  0
VERTEX
  8
PLAN_1
  6
CONTINUOUS
 10
-0.816150
 20
1.394539
  0
VERTEX
  8
PLAN_1
  6
CONTINUOUS
 10
-0.802311
 20
1.383465
  0
VERTEX
  8
PLAN_1
  6
CONTINUOUS
 10
-0.787547
 20
1.373315
  0
VERTEX
  8
PLAN_1
  6
CONTINUOUS
 10
-0.772319
 20
1.363626
  0
VERTEX
  8
PLAN_1
  6
CONTINUOUS
 10
-0.756634
 20
1.354398
  0
VERTEX
  8
PLAN_1
  6
CONTINUOUS
 10
-0.740484
 20
1.346094
  0
VERTEX
  8
PLAN_1
  6
CONTINUOUS
 10
-0.723874
 20
1.338713
  0
VERTEX
  8
PLAN_1
  6
CONTINUOUS
 10
-0.706803
 20
1.331791
  0
VERTEX
  8
PLAN_1
  6
CONTINUOUS
 10
-0.689732
 20
1.326252
  0
VERTEX
  8
PLAN_1
  6
CONTINUOUS
 10
-0.671740
 20
1.321177
  0
VERTEX
  8
PLAN_1
  6
CONTINUOUS
 10
-0.653744
 20
1.317028
  0
VERTEX
  8
PLAN_1
  6
CONTINUOUS
 10
-0.635287
 20
1.313795
  0
VERTEX
  8
PLAN_1
  6
CONTINUOUS
 10
-0.616835
 20
1.311028
  0
VERTEX
  8
PLAN_1
  6
CONTINUOUS
 10
-0.597917
 20
1.309642
  0
VERTEX
  8
PLAN_1
  6
CONTINUOUS
 10
-0.578539
 20
1.309181
  0
SEQEND
  8
0
  0
POLYLINE
  8
PLAN_1
  6
CONTINUOUS
 66
     1
 40
0.008303
 41
0.008303
  0
VERTEX
  8
PLAN_1
  6
CONTINUOUS
 10
-0.578079
 20
1.555098
  0
VERTEX
  8
PLAN_1
  6
CONTINUOUS
 10
-0.571618
 20
1.555098
  0
VERTEX
  8
PLAN_1
  6
CONTINUOUS
 10
-0.565157
 20
1.555563
  0
VERTEX
  8
PLAN_1
  6
CONTINUOUS
 10
-0.558701
 20
1.556484
  0
VERTEX
  8
PLAN_1
  6
CONTINUOUS
 10
-0.552240
 20
1.557866
  0
VERTEX
  8
PLAN_1
  6
CONTINUOUS
 10
-0.546240
 20
1.559252
  0
VERTEX
  8
PLAN_1
  6
CONTINUOUS
 10
-0.540244
 20
1.561098
  0
VERTEX
  8
PLAN_1
  6
CONTINUOUS
 10
-0.534244
 20
1.562945
  0
VERTEX
  8
PLAN_1
  6
CONTINUOUS
 10
-0.528248
 20
1.565252
  0
VERTEX
  8
PLAN_1
  6
CONTINUOUS
 10
-0.522713
 20
1.567559
  0
VERTEX
  8
PLAN_1
  6
CONTINUOUS
 10
-0.517173
 20
1.570787
  0
VERTEX
  8
PLAN_1
  6
CONTINUOUS
 10
-0.512098
 20
1.573555
  0
VERTEX
  8
PLAN_1
  6
CONTINUOUS
 10
-0.506563
 20
1.576783
  0
VERTEX
  8
PLAN_1
  6
CONTINUOUS
 10
-0.501949
 20
1.580476
  0
VERTEX
  8
PLAN_1
  6
CONTINUOUS
 10
-0.496874
 20
1.584165
  0
VERTEX
  8
PLAN_1
  6
CONTINUOUS
 10
-0.492260
 20
1.588319
  0
VERTEX
  8
PLAN_1
  6
CONTINUOUS
 10
-0.487646
 20
1.592472
  0
VERTEX
  8
PLAN_1
  6
CONTINUOUS
 10
-0.483492
 20
1.597087
  0
VERTEX
  8
PLAN_1
  6
CONTINUOUS
 10
-0.479343
 20
1.601701
  0
VERTEX
  8
PLAN_1
  6
CONTINUOUS
 10
-0.475650
 20
1.606315
  0
VERTEX
  8
PLAN_1
  6
CONTINUOUS
 10
-0.471961
 20
1.611390
  0
VERTEX
  8
PLAN_1
  6
CONTINUOUS
 10
-0.468728
 20
1.616925
  0
VERTEX
  8
PLAN_1
  6
CONTINUOUS
 10
-0.465961
 20
1.622000
  0
VERTEX
  8
PLAN_1
  6
CONTINUOUS
 10
-0.462732
 20
1.627535
  0
VERTEX
  8
PLAN_1
  6
CONTINUOUS
 10
-0.460425
 20
1.633075
  0
VERTEX
  8
PLAN_1
  6
CONTINUOUS
 10
-0.458118
 20
1.639071
  0
VERTEX
  8
PLAN_1
  6
CONTINUOUS
 10
-0.456272
 20
1.645071
  0
VERTEX
  8
PLAN_1
  6
CONTINUOUS
 10
-0.454425
 20
1.651067
  0
VERTEX
  8
PLAN_1
  6
CONTINUOUS
 10
-0.453043
 20
1.657067
  0
VERTEX
  8
PLAN_1
  6
CONTINUOUS
 10
-0.451657
 20
1.663524
  0
VERTEX
  8
PLAN_1
  6
CONTINUOUS
 10
-0.451197
 20
1.669984
  0
VERTEX
  8
PLAN_1
  6
CONTINUOUS
 10
-0.450276
 20
1.676445
  0
VERTEX
  8
PLAN_1
  6
CONTINUOUS
 10
-0.450276
 20
1.682902
  0
VERTEX
  8
PLAN_1
  6
CONTINUOUS
 10
-0.450276
 20
1.689823
  0
VERTEX
  8
PLAN_1
  6
CONTINUOUS
 10
-0.451197
 20
1.696283
  0
VERTEX
  8
PLAN_1
  6
CONTINUOUS
 10
-0.451657
 20
1.702744
  0
VERTEX
  8
PLAN_1
  6
CONTINUOUS
 10
-0.453043
 20
1.708740
  0
VERTEX
  8
PLAN_1
  6
CONTINUOUS
 10
-0.454425
 20
1.715201
  0
VERTEX
  8
PLAN_1
  6
CONTINUOUS
 10
-0.456272
 20
1.721197
  0
VERTEX
  8
PLAN_1
  6
CONTINUOUS
 10
-0.458118
 20
1.727197
  0
VERTEX
  8
PLAN_1
  6
CONTINUOUS
 10
-0.460425
 20
1.732732
  0
VERTEX
  8
PLAN_1
  6
CONTINUOUS
 10
-0.462732
 20
1.738268
  0
VERTEX
  8
PLAN_1
  6
CONTINUOUS
 10
-0.465961
 20
1.743807
  0
VERTEX
  8
PLAN_1
  6
CONTINUOUS
 10
-0.468728
 20
1.749343
  0
VERTEX
  8
PLAN_1
  6
CONTINUOUS
 10
-0.471961
 20
1.754417
  0
VERTEX
  8
PLAN_1
  6
CONTINUOUS
 10
-0.475650
 20
1.759492
  0
VERTEX
  8
PLAN_1
  6
CONTINUOUS
 10
-0.479343
 20
1.764567
  0
VERTEX
  8
PLAN_1
  6
CONTINUOUS
 10
-0.483492
 20
1.769181
  0
VERTEX
  8
PLAN_1
  6
CONTINUOUS
 10
-0.487646
 20
1.773335
  0
VERTEX
  8
PLAN_1
  6
CONTINUOUS
 10
-0.492260
 20
1.777949
  0
VERTEX
  8
PLAN_1
  6
CONTINUOUS
 10
-0.496874
 20
1.781638
  0
VERTEX
  8
PLAN_1
  6
CONTINUOUS
 10
-0.501949
 20
1.785331
  0
VERTEX
  8
PLAN_1
  6
CONTINUOUS
 10
-0.506563
 20
1.789020
  0
VERTEX
  8
PLAN_1
  6
CONTINUOUS
 10
-0.512098
 20
1.792252
  0
VERTEX
  8
PLAN_1
  6
CONTINUOUS
 10
-0.517173
 20
1.795480
  0
VERTEX
  8
PLAN_1
  6
CONTINUOUS
 10
-0.522713
 20
1.798248
  0
VERTEX
  8
PLAN_1
  6
CONTINUOUS
 10
-0.528248
 20
1.801016
  0
VERTEX
  8
PLAN_1
  6
CONTINUOUS
 10
-0.534244
 20
1.803323
  0
VERTEX
  8
PLAN_1
  6
CONTINUOUS
 10
-0.540244
 20
1.805169
  0
VERTEX
  8
PLAN_1
  6
CONTINUOUS
 10
-0.546240
 20
1.807016
  0
VERTEX
  8
PLAN_1
  6
CONTINUOUS
 10
-0.552240
 20
1.808398
  0
VERTEX
  8
PLAN_1
  6
CONTINUOUS
 10
-0.558701
 20
1.809323
  0
VERTEX
  8
PLAN_1
  6
CONTINUOUS
 10
-0.565157
 20
1.810244
  0
VERTEX
  8
PLAN_1
  6
CONTINUOUS
 10
-0.571618
 20
1.810705
  0
VERTEX
  8
PLAN_1
  6
CONTINUOUS
 10
-0.578079
 20
1.811169
  0
VERTEX
  8
PLAN_1
  6
CONTINUOUS
 10
-0.585000
 20
1.810705
  0
VERTEX
  8
PLAN_1
  6
CONTINUOUS
 10
-0.591457
 20
1.810244
  0
VERTEX
  8
PLAN_1
  6
CONTINUOUS
 10
-0.597917
 20
1.809323
  0
VERTEX
  8
PLAN_1
  6
CONTINUOUS
 10
-0.603913
 20
1.808398
  0
VERTEX
  8
PLAN_1
  6
CONTINUOUS
 10
-0.610374
 20
1.807016
  0
VERTEX
  8
PLAN_1
  6
CONTINUOUS
 10
-0.616374
 20
1.805169
  0
VERTEX
  8
PLAN_1
  6
CONTINUOUS
 10
-0.622370
 20
1.803323
  0
VERTEX
  8
PLAN_1
  6
CONTINUOUS
 10
-0.627906
 20
1.801016
  0
VERTEX
  8
PLAN_1
  6
CONTINUOUS
 10
-0.633906
 20
1.798248
  0
VERTEX
  8
PLAN_1
  6
CONTINUOUS
 10
-0.639441
 20
1.795480
  0
VERTEX
  8
PLAN_1
  6
CONTINUOUS
 10
-0.644516
 20
1.792252
  0
VERTEX
  8
PLAN_1
  6
CONTINUOUS
 10
-0.649591
 20
1.789020
  0
VERTEX
  8
PLAN_1
  6
CONTINUOUS
 10
-0.654665
 20
1.785331
  0
VERTEX
  8
PLAN_1
  6
CONTINUOUS
 10
-0.659744
 20
1.781638
  0
VERTEX
  8
PLAN_1
  6
CONTINUOUS
 10
-0.664354
 20
1.777949
  0
VERTEX
  8
PLAN_1
  6
CONTINUOUS
 10
-0.668508
 20
1.773335
  0
VERTEX
  8
PLAN_1
  6
CONTINUOUS
 10
-0.673122
 20
1.769181
  0
VERTEX
  8
PLAN_1
  6
CONTINUOUS
 10
-0.676815
 20
1.764567
  0
VERTEX
  8
PLAN_1
  6
CONTINUOUS
 10
-0.680965
 20
1.759492
  0
VERTEX
  8
PLAN_1
  6
CONTINUOUS
 10
-0.684197
 20
1.754417
  0
VERTEX
  8
PLAN_1
  6
CONTINUOUS
 10
-0.687886
 20
1.749343
  0
VERTEX
  8
PLAN_1
  6
CONTINUOUS
 10
-0.690654
 20
1.743807
  0
VERTEX
  8
PLAN_1
  6
CONTINUOUS
 10
-0.693425
 20
1.738268
  0
VERTEX
  8
PLAN_1
  6
CONTINUOUS
 10
-0.696193
 20
1.732732
  0
VERTEX
  8
PLAN_1
  6
CONTINUOUS
 10
-0.698500
 20
1.727197
  0
VERTEX
  8
PLAN_1
  6
CONTINUOUS
 10
-0.700343
 20
1.721197
  0
VERTEX
  8
PLAN_1
  6
CONTINUOUS
 10
-0.702189
 20
1.715201
  0
VERTEX
  8
PLAN_1
  6
CONTINUOUS
 10
-0.703575
 20
1.708740
  0
VERTEX
  8
PLAN_1
  6
CONTINUOUS
 10
-0.704496
 20
1.702744
  0
VERTEX
  8
PLAN_1
  6
CONTINUOUS
 10
-0.705417
 20
1.696283
  0
VERTEX
  8
PLAN_1
  6
CONTINUOUS
 10
-0.705882
 20
1.689823
  0
VERTEX
  8
PLAN_1
  6
CONTINUOUS
 10
-0.706343
 20
1.682902
  0
VERTEX
  8
PLAN_1
  6
CONTINUOUS
 10
-0.705882
 20
1.676445
  0
VERTEX
  8
PLAN_1
  6
CONTINUOUS
 10
-0.705417
 20
1.669984
  0
VERTEX
  8
PLAN_1
  6
CONTINUOUS
 10
-0.704496
 20
1.663524
  0
VERTEX
  8
PLAN_1
  6
CONTINUOUS
 10
-0.703575
 20
1.657067
  0
VERTEX
  8
PLAN_1
  6
CONTINUOUS
 10
-0.702189
 20
1.651067
  0
VERTEX
  8
PLAN_1
  6
CONTINUOUS
 10
-0.700343
 20
1.645071
  0
VERTEX
  8
PLAN_1
  6
CONTINUOUS
 10
-0.698500
 20
1.639071
  0
VERTEX
  8
PLAN_1
  6
CONTINUOUS
 10
-0.696193
 20
1.633075
  0
VERTEX
  8
PLAN_1
  6
CONTINUOUS
 10
-0.693425
 20
1.627535
  0
VERTEX
  8
PLAN_1
  6
CONTINUOUS
 10
-0.690654
 20
1.622000
  0
VERTEX
  8
PLAN_1
  6
CONTINUOUS
 10
-0.687886
 20
1.616925
  0
VERTEX
  8
PLAN_1
  6
CONTINUOUS
 10
-0.684197
 20
1.611390
  0
VERTEX
  8
PLAN_1
  6
CONTINUOUS
 10
-0.680965
 20
1.606315
  0
VERTEX
  8
PLAN_1
  6
CONTINUOUS
 10
-0.676815
 20
1.601701
  0
VERTEX
  8
PLAN_1
  6
CONTINUOUS
 10
-0.673122
 20
1.597087
  0
VERTEX
  8
PLAN_1
  6
CONTINUOUS
 10
-0.668508
 20
1.592472
  0
VERTEX
  8
PLAN_1
  6
CONTINUOUS
 10
-0.664354
 20
1.588319
  0
VERTEX
  8
PLAN_1
  6
CONTINUOUS
 10
-0.659744
 20
1.584165
  0
VERTEX
  8
PLAN_1
  6
CONTINUOUS
 10
-0.654665
 20
1.580476
  0
VERTEX
  8
PLAN_1
  6
CONTINUOUS
 10
-0.649591
 20
1.576783
  0
VERTEX
  8
PLAN_1
  6
CONTINUOUS
 10
-0.644516
 20
1.573555
  0
VERTEX
  8
PLAN_1
  6
CONTINUOUS
 10
-0.639441
 20
1.570787
  0
VERTEX
  8
PLAN_1
  6
CONTINUOUS
 10
-0.633906
 20
1.567559
  0
VERTEX
  8
PLAN_1
  6
CONTINUOUS
 10
-0.627906
 20
1.565252
  0
VERTEX
  8
PLAN_1
  6
CONTINUOUS
 10
-0.622370
 20
1.562945
  0
VERTEX
  8
PLAN_1
  6
CONTINUOUS
 10
-0.616374
 20
1.561098
  0
VERTEX
  8
PLAN_1
  6
CONTINUOUS
 10
-0.610374
 20
1.559252
  0
VERTEX
  8
PLAN_1
  6
CONTINUOUS
 10
-0.603913
 20
1.557866
  0
VERTEX
  8
PLAN_1
  6
CONTINUOUS
 10
-0.597917
 20
1.556484
  0
VERTEX
  8
PLAN_1
  6
CONTINUOUS
 10
-0.591457
 20
1.555563
  0
VERTEX
  8
PLAN_1
  6
CONTINUOUS
 10
-0.585000
 20
1.555098
  0
VERTEX
  8
PLAN_1
  6
CONTINUOUS
 10
-0.578079
 20
1.555098
  0
SEQEND
  8
0
  0
POLYLINE
  8
PLAN_1
  6
CONTINUOUS
 66
     1
 40
0.008303
 41
0.008303
  0
VERTEX
  8
PLAN_1
  6
CONTINUOUS
 10
-0.614067
 20
1.382083
  0
VERTEX
  8
PLAN_1
  6
CONTINUOUS
 10
-0.534244
 20
1.382083
  0
VERTEX
  8
PLAN_1
  6
CONTINUOUS
 10
-0.478417
 20
1.449906
  0
VERTEX
  8
PLAN_1
  6
CONTINUOUS
 10
-0.391217
 20
1.444831
  0
VERTEX
  8
PLAN_1
  6
CONTINUOUS
 10
-0.334929
 20
1.501118
  0
VERTEX
  8
PLAN_1
  6
CONTINUOUS
 10
-0.342772
 20
1.588780
  0
VERTEX
  8
PLAN_1
  6
CONTINUOUS
 10
-0.277717
 20
1.646913
  0
VERTEX
  8
PLAN_1
  6
CONTINUOUS
 10
-0.277717
 20
1.726736
  0
VERTEX
  8
PLAN_1
  6
CONTINUOUS
 10
-0.345079
 20
1.782102
  0
VERTEX
  8
PLAN_1
  6
CONTINUOUS
 10
-0.340465
 20
1.869303
  0
VERTEX
  8
PLAN_1
  6
CONTINUOUS
 10
-0.396752
 20
1.926051
  0
VERTEX
  8
PLAN_1
  6
CONTINUOUS
 10
-0.482110
 20
1.919130
  0
VERTEX
  8
PLAN_1
  6
CONTINUOUS
 10
-0.540244
 20
1.984185
  0
VERTEX
  8
PLAN_1
  6
CONTINUOUS
 10
-0.620063
 20
1.984185
  0
VERTEX
  8
PLAN_1
  6
CONTINUOUS
 10
-0.677276
 20
1.918209
  0
VERTEX
  8
PLAN_1
  6
CONTINUOUS
 10
-0.764476
 20
1.923283
  0
VERTEX
  8
PLAN_1
  6
CONTINUOUS
 10
-0.820764
 20
1.866535
  0
VERTEX
  8
PLAN_1
  6
CONTINUOUS
 10
-0.813382
 20
1.778409
  0
VERTEX
  8
PLAN_1
  6
CONTINUOUS
 10
-0.878437
 20
1.720276
  0
VERTEX
  8
PLAN_1
  6
CONTINUOUS
 10
-0.878437
 20
1.640457
  0
VERTEX
  8
PLAN_1
  6
CONTINUOUS
 10
-0.811539
 20
1.583244
  0
VERTEX
  8
PLAN_1
  6
CONTINUOUS
 10
-0.816614
 20
1.496043
  0
VERTEX
  8
PLAN_1
  6
CONTINUOUS
 10
-0.759862
 20
1.439752
  0
VERTEX
  8
PLAN_1
  6
CONTINUOUS
 10
-0.673583
 20
1.443906
  0
VERTEX
  8
PLAN_1
  6
CONTINUOUS
 10
-0.614067
 20
1.382083
  0
SEQEND
  8
0
  0
POLYLINE
  8
PLAN_1
  6
CONTINUOUS
 66
     1
 40
0.008303
 41
0.008303
  0
VERTEX
  8
PLAN_1
  6
CONTINUOUS
 10
-0.581768
 20
1.913134
  0
VERTEX
  8
PLAN_1
  6
CONTINUOUS
 10
-0.378760
 20
1.803787
  0
VERTEX
  8
PLAN_1
  6
CONTINUOUS
 10
-0.378760
 20
1.563406
  0
VERTEX
  8
PLAN_1
  6
CONTINUOUS
 10
-0.581768
 20
1.450827
  0
VERTEX
  8
PLAN_1
  6
CONTINUOUS
 10
-0.775551
 20
1.563406
  0
VERTEX
  8
PLAN_1
  6
CONTINUOUS
 10
-0.775551
 20
1.803787
  0
VERTEX
  8
PLAN_1
  6
CONTINUOUS
 10
-0.581768
 20
1.913134
  0
SEQEND
  8
0
  0
POLYLINE
  8
PLAN_1
  6
CONTINUOUS
 66
     1
 40
0.008303
 41
0.008303
  0
VERTEX
  8
PLAN_1
  6
CONTINUOUS
 10
-0.578079
 20
1.574476
  0
VERTEX
  8
PLAN_1
  6
CONTINUOUS
 10
-0.572539
 20
1.574941
  0
VERTEX
  8
PLAN_1
  6
CONTINUOUS
 10
-0.567004
 20
1.575402
  0
VERTEX
  8
PLAN_1
  6
CONTINUOUS
 10
-0.561929
 20
1.575862
  0
VERTEX
  8
PLAN_1
  6
CONTINUOUS
 10
-0.556394
 20
1.576783
  0
VERTEX
  8
PLAN_1
  6
CONTINUOUS
 10
-0.551319
 20
1.578169
  0
VERTEX
  8
PLAN_1
  6
CONTINUOUS
 10
-0.546240
 20
1.579551
  0
VERTEX
  8
PLAN_1
  6
CONTINUOUS
 10
-0.541165
 20
1.581398
  0
VERTEX
  8
PLAN_1
  6
CONTINUOUS
 10
-0.536091
 20
1.583244
  0
VERTEX
  8
PLAN_1
  6
CONTINUOUS
 10
-0.531476
 20
1.585551
  0
VERTEX
  8
PLAN_1
  6
CONTINUOUS
 10
-0.526862
 20
1.587858
  0
VERTEX
  8
PLAN_1
  6
CONTINUOUS
 10
-0.522248
 20
1.590165
  0
VERTEX
  8
PLAN_1
  6
CONTINUOUS
 10
-0.517638
 20
1.593394
  0
VERTEX
  8
PLAN_1
  6
CONTINUOUS
 10
-0.513484
 20
1.596161
  0
VERTEX
  8
PLAN_1
  6
CONTINUOUS
 10
-0.509331
 20
1.599394
  0
VERTEX
  8
PLAN_1
  6
CONTINUOUS
 10
-0.505642
 20
1.602622
  0
VERTEX
  8
PLAN_1
  6
CONTINUOUS
 10
-0.501488
 20
1.606315
  0
VERTEX
  8
PLAN_1
  6
CONTINUOUS
 10
-0.498260
 20
1.610004
  0
VERTEX
  8
PLAN_1
  6
CONTINUOUS
 10
-0.494567
 20
1.614157
  0
VERTEX
  8
PLAN_1
  6
CONTINUOUS
 10
-0.491339
 20
1.618311
  0
VERTEX
  8
PLAN_1
  6
CONTINUOUS
 10
-0.488567
 20
1.622461
  0
VERTEX
  8
PLAN_1
  6
CONTINUOUS
 10
-0.485799
 20
1.626614
  0
VERTEX
  8
PLAN_1
  6
CONTINUOUS
 10
-0.483031
 20
1.631228
  0
VERTEX
  8
PLAN_1
  6
CONTINUOUS
 10
-0.480724
 20
1.635843
  0
VERTEX
  8
PLAN_1
  6
CONTINUOUS
 10
-0.478417
 20
1.640917
  0
VERTEX
  8
PLAN_1
  6
CONTINUOUS
 10
-0.476575
 20
1.645531
  0
VERTEX
  8
PLAN_1
  6
CONTINUOUS
 10
-0.474728
 20
1.650606
  0
VERTEX
  8
PLAN_1
  6
CONTINUOUS
 10
-0.473343
 20
1.655681
  0
VERTEX
  8
PLAN_1
  6
CONTINUOUS
 10
-0.472421
 20
1.661217
  0
VERTEX
  8
PLAN_1
  6
CONTINUOUS
 10
-0.471035
 20
1.666291
  0
VERTEX
  8
PLAN_1
  6
CONTINUOUS
 10
-0.470575
 20
1.671831
  0
VERTEX
  8
PLAN_1
  6
CONTINUOUS
 10
-0.470114
 20
1.677366
  0
VERTEX
  8
PLAN_1
  6
CONTINUOUS
 10
-0.470114
 20
1.682902
  0
VERTEX
  8
PLAN_1
  6
CONTINUOUS
 10
-0.470114
 20
1.688441
  0
VERTEX
  8
PLAN_1
  6
CONTINUOUS
 10
-0.470575
 20
1.693976
  0
VERTEX
  8
PLAN_1
  6
CONTINUOUS
 10
-0.471035
 20
1.699512
  0
VERTEX
  8
PLAN_1
  6
CONTINUOUS
 10
-0.472421
 20
1.704587
  0
VERTEX
  8
PLAN_1
  6
CONTINUOUS
 10
-0.473343
 20
1.710126
  0
VERTEX
  8
PLAN_1
  6
CONTINUOUS
 10
-0.474728
 20
1.715201
  0
VERTEX
  8
PLAN_1
  6
CONTINUOUS
 10
-0.476575
 20
1.720276
  0
VERTEX
  8
PLAN_1
  6
CONTINUOUS
 10
-0.478417
 20
1.724890
  0
VERTEX
  8
PLAN_1
  6
CONTINUOUS
 10
-0.480724
 20
1.729965
  0
VERTEX
  8
PLAN_1
  6
CONTINUOUS
 10
-0.483031
 20
1.734579
  0
VERTEX
  8
PLAN_1
  6
CONTINUOUS
 10
-0.485799
 20
1.739193
  0
VERTEX
  8
PLAN_1
  6
CONTINUOUS
 10
-0.488567
 20
1.743343
  0
VERTEX
  8
PLAN_1
  6
CONTINUOUS
 10
-0.491339
 20
1.747496
  0
VERTEX
  8
PLAN_1
  6
CONTINUOUS
 10
-0.494567
 20
1.751650
  0
VERTEX
  8
PLAN_1
  6
CONTINUOUS
 10
-0.498260
 20
1.755803
  0
VERTEX
  8
PLAN_1
  6
CONTINUOUS
 10
-0.501488
 20
1.759492
  0
VERTEX
  8
PLAN_1
  6
CONTINUOUS
 10
-0.505642
 20
1.763185
  0
VERTEX
  8
PLAN_1
  6
CONTINUOUS
 10
-0.509331
 20
1.766413
  0
VERTEX
  8
PLAN_1
  6
CONTINUOUS
 10
-0.513484
 20
1.769642
  0
VERTEX
  8
PLAN_1
  6
CONTINUOUS
 10
-0.517638
 20
1.772874
  0
VERTEX
  8
PLAN_1
  6
CONTINUOUS
 10
-0.522248
 20
1.775642
  0
VERTEX
  8
PLAN_1
  6
CONTINUOUS
 10
-0.526862
 20
1.777949
  0
VERTEX
  8
PLAN_1
  6
CONTINUOUS
 10
-0.531476
 20
1.780717
  0
VERTEX
  8
PLAN_1
  6
CONTINUOUS
 10
-0.536091
 20
1.782563
  0
VERTEX
  8
PLAN_1
  6
CONTINUOUS
 10
-0.541165
 20
1.784409
  0
VERTEX
  8
PLAN_1
  6
CONTINUOUS
 10
-0.546240
 20
1.786252
  0
VERTEX
  8
PLAN_1
  6
CONTINUOUS
 10
-0.551319
 20
1.787638
  0
VERTEX
  8
PLAN_1
  6
CONTINUOUS
 10
-0.556394
 20
1.789020
  0
VERTEX
  8
PLAN_1
  6
CONTINUOUS
 10
-0.561929
 20
1.789945
  0
VERTEX
  8
PLAN_1
  6
CONTINUOUS
 10
-0.567004
 20
1.790406
  0
VERTEX
  8
PLAN_1
  6
CONTINUOUS
 10
-0.572539
 20
1.790866
  0
VERTEX
  8
PLAN_1
  6
CONTINUOUS
 10
-0.578079
 20
1.791327
  0
VERTEX
  8
PLAN_1
  6
CONTINUOUS
 10
-0.583614
 20
1.790866
  0
VERTEX
  8
PLAN_1
  6
CONTINUOUS
 10
-0.589150
 20
1.790406
  0
VERTEX
  8
PLAN_1
  6
CONTINUOUS
 10
-0.594689
 20
1.789945
  0
VERTEX
  8
PLAN_1
  6
CONTINUOUS
 10
-0.600224
 20
1.789020
  0
VERTEX
  8
PLAN_1
  6
CONTINUOUS
 10
-0.605299
 20
1.787638
  0
VERTEX
  8
PLAN_1
  6
CONTINUOUS
 10
-0.610374
 20
1.786252
  0
VERTEX
  8
PLAN_1
  6
CONTINUOUS
 10
-0.615449
 20
1.784409
  0
VERTEX
  8
PLAN_1
  6
CONTINUOUS
 10
-0.620524
 20
1.782563
  0
VERTEX
  8
PLAN_1
  6
CONTINUOUS
 10
-0.625138
 20
1.780717
  0
VERTEX
  8
PLAN_1
  6
CONTINUOUS
 10
-0.629752
 20
1.777949
  0
VERTEX
  8
PLAN_1
  6
CONTINUOUS
 10
-0.634366
 20
1.775642
  0
VERTEX
  8
PLAN_1
  6
CONTINUOUS
 10
-0.638980
 20
1.772874
  0
VERTEX
  8
PLAN_1
  6
CONTINUOUS
 10
-0.643134
 20
1.769642
  0
VERTEX
  8
PLAN_1
  6
CONTINUOUS
 10
-0.647283
 20
1.766413
  0
VERTEX
  8
PLAN_1
  6
CONTINUOUS
 10
-0.650976
 20
1.763185
  0
VERTEX
  8
PLAN_1
  6
CONTINUOUS
 10
-0.654665
 20
1.759492
  0
VERTEX
  8
PLAN_1
  6
CONTINUOUS
 10
-0.658358
 20
1.755803
  0
VERTEX
  8
PLAN_1
  6
CONTINUOUS
 10
-0.661587
 20
1.751650
  0
VERTEX
  8
PLAN_1
  6
CONTINUOUS
 10
-0.664819
 20
1.747496
  0
VERTEX
  8
PLAN_1
  6
CONTINUOUS
 10
-0.668047
 20
1.743343
  0
VERTEX
  8
PLAN_1
  6
CONTINUOUS
 10
-0.670815
 20
1.739193
  0
VERTEX
  8
PLAN_1
  6
CONTINUOUS
 10
-0.673583
 20
1.734579
  0
VERTEX
  8
PLAN_1
  6
CONTINUOUS
 10
-0.675890
 20
1.729965
  0
VERTEX
  8
PLAN_1
  6
CONTINUOUS
 10
-0.678197
 20
1.724890
  0
VERTEX
  8
PLAN_1
  6
CONTINUOUS
 10
-0.680043
 20
1.720276
  0
VERTEX
  8
PLAN_1
  6
CONTINUOUS
 10
-0.681429
 20
1.715201
  0
VERTEX
  8
PLAN_1
  6
CONTINUOUS
 10
-0.683272
 20
1.710126
  0
VERTEX
  8
PLAN_1
  6
CONTINUOUS
 10
-0.684197
 20
1.704587
  0
VERTEX
  8
PLAN_1
  6
CONTINUOUS
 10
-0.685118
 20
1.699512
  0
VERTEX
  8
PLAN_1
  6
CONTINUOUS
 10
-0.686039
 20
1.693976
  0
VERTEX
  8
PLAN_1
  6
CONTINUOUS
 10
-0.686504
 20
1.688441
  0
VERTEX
  8
PLAN_1
  6
CONTINUOUS
 10
-0.686504
 20
1.682902
  0
VERTEX
  8
PLAN_1
  6
CONTINUOUS
 10
-0.686504
 20
1.677366
  0
VERTEX
  8
PLAN_1
  6
CONTINUOUS
 10
-0.686039
 20
1.671831
  0
VERTEX
  8
PLAN_1
  6
CONTINUOUS
 10
-0.685118
 20
1.666291
  0
VERTEX
  8
PLAN_1
  6
CONTINUOUS
 10
-0.684197
 20
1.661217
  0
VERTEX
  8
PLAN_1
  6
CONTINUOUS
 10
-0.683272
 20
1.655681
  0
VERTEX
  8
PLAN_1
  6
CONTINUOUS
 10
-0.681429
 20
1.650606
  0
VERTEX
  8
PLAN_1
  6
CONTINUOUS
 10
-0.680043
 20
1.645531
  0
VERTEX
  8
PLAN_1
  6
CONTINUOUS
 10
-0.678197
 20
1.640917
  0
VERTEX
  8
PLAN_1
  6
CONTINUOUS
 10
-0.675890
 20
1.635843
  0
VERTEX
  8
PLAN_1
  6
CONTINUOUS
 10
-0.673583
 20
1.631228
  0
VERTEX
  8
PLAN_1
  6
CONTINUOUS
 10
-0.670815
 20
1.626614
  0
VERTEX
  8
PLAN_1
  6
CONTINUOUS
 10
-0.668047
 20
1.622461
  0
VERTEX
  8
PLAN_1
  6
CONTINUOUS
 10
-0.664819
 20
1.618311
  0
VERTEX
  8
PLAN_1
  6
CONTINUOUS
 10
-0.661587
 20
1.614157
  0
VERTEX
  8
PLAN_1
  6
CONTINUOUS
 10
-0.658358
 20
1.610004
  0
VERTEX
  8
PLAN_1
  6
CONTINUOUS
 10
-0.654665
 20
1.606315
  0
VERTEX
  8
PLAN_1
  6
CONTINUOUS
 10
-0.650976
 20
1.602622
  0
VERTEX
  8
PLAN_1
  6
CONTINUOUS
 10
-0.647283
 20
1.599394
  0
VERTEX
  8
PLAN_1
  6
CONTINUOUS
 10
-0.643134
 20
1.596161
  0
VERTEX
  8
PLAN_1
  6
CONTINUOUS
 10
-0.638980
 20
1.593394
  0
VERTEX
  8
PLAN_1
  6
CONTINUOUS
 10
-0.634366
 20
1.590165
  0
VERTEX
  8
PLAN_1
  6
CONTINUOUS
 10
-0.629752
 20
1.587858
  0
VERTEX
  8
PLAN_1
  6
CONTINUOUS
 10
-0.625138
 20
1.585551
  0
VERTEX
  8
PLAN_1
  6
CONTINUOUS
 10
-0.620524
 20
1.583244
  0
VERTEX
  8
PLAN_1
  6
CONTINUOUS
 10
-0.615449
 20
1.581398
  0
VERTEX
  8
PLAN_1
  6
CONTINUOUS
 10
-0.610374
 20
1.579551
  0
VERTEX
  8
PLAN_1
  6
CONTINUOUS
 10
-0.605299
 20
1.578169
  0
VERTEX
  8
PLAN_1
  6
CONTINUOUS
 10
-0.600224
 20
1.576783
  0
VERTEX
  8
PLAN_1
  6
CONTINUOUS
 10
-0.594689
 20
1.575862
  0
VERTEX
  8
PLAN_1
  6
CONTINUOUS
 10
-0.589150
 20
1.575402
  0
VERTEX
  8
PLAN_1
  6
CONTINUOUS
 10
-0.583614
 20
1.574941
  0
VERTEX
  8
PLAN_1
  6
CONTINUOUS
 10
-0.578079
 20
1.574476
  0
SEQEND
  8
0
  0
SOLID
  8
PLAN_1
 62
     2
 10
-0.891819
 20
3.148260
 11
-0.922268
 21
3.201319
 12
-0.891819
 22
3.148260
 13
-0.944878
 23
3.178709
  0
POLYLINE
  8
PLAN_1
 62
     2
  6
CONTINUOUS
 66
     1
 40
0.003000
 41
0.003000
  0
VERTEX
  8
PLAN_1
 62
     2
  6
CONTINUOUS
 10
-0.891819
 20
3.148260
  0
VERTEX
  8
PLAN_1
 62
     2
  6
CONTINUOUS
 10
-0.922268
 20
3.201319
  0
VERTEX
  8
PLAN_1
 62
     2
  6
CONTINUOUS
 10
-0.944878
 20
3.178709
  0
VERTEX
  8
PLAN_1
 62
     2
  6
CONTINUOUS
 10
-0.891819
 20
3.148260
  0
SEQEND
  8
0
  0
POLYLINE
  8
PLAN_1
 62
     2
  6
CONTINUOUS
 66
     1
 40
0.004150
 41
0.004150
  0
VERTEX
  8
PLAN_1
 62
     2
  6
CONTINUOUS
 10
-0.918118
 20
3.174555
  0
VERTEX
  8
PLAN_1
 62
     2
  6
CONTINUOUS
 10
-1.048228
 20
3.299130
  0
VERTEX
  8
PLAN_1
 62
     2
  6
CONTINUOUS
 10
-1.336130
 20
3.299130
  0
SEQEND
  8
0
  0
POLYLINE
  8
PLAN_1
 62
     2
  6
CONTINUOUS
 66
     1
 40
0.003000
 41
0.003000
  0
VERTEX
  8
PLAN_1
 62
     2
  6
CONTINUOUS
 10
-1.241087
 20
3.386795
  0
VERTEX
  8
PLAN_1
 62
     2
  6
CONTINUOUS
 10
-1.239240
 20
3.384024
  0
VERTEX
  8
PLAN_1
 62
     2
  6
CONTINUOUS
 10
-1.237394
 20
3.380795
  0
VERTEX
  8
PLAN_1
 62
     2
  6
CONTINUOUS
 10
-1.236012
 20
3.377106
  0
VERTEX
  8
PLAN_1
 62
     2
  6
CONTINUOUS
 10
-1.234626
 20
3.373874
  0
VERTEX
  8
PLAN_1
 62
     2
  6
CONTINUOUS
 10
-1.233705
 20
3.370185
  0
VERTEX
  8
PLAN_1
 62
     2
  6
CONTINUOUS
 10
-1.233244
 20
3.366953
  0
VERTEX
  8
PLAN_1
 62
     2
  6
CONTINUOUS
 10
-1.232780
 20
3.363724
  0
VERTEX
  8
PLAN_1
 62
     2
  6
CONTINUOUS
 10
-1.232780
 20
3.360496
  0
VERTEX
  8
PLAN_1
 62
     2
  6
CONTINUOUS
 10
-1.233244
 20
3.354035
  0
VERTEX
  8
PLAN_1
 62
     2
  6
CONTINUOUS
 10
-1.234626
 20
3.347114
  0
VERTEX
  8
PLAN_1
 62
     2
  6
CONTINUOUS
 10
-1.235551
 20
3.343886
  0
VERTEX
  8
PLAN_1
 62
     2
  6
CONTINUOUS
 10
-1.236933
 20
3.340654
  0
VERTEX
  8
PLAN_1
 62
     2
  6
CONTINUOUS
 10
-1.238780
 20
3.337425
  0
VERTEX
  8
PLAN_1
 62
     2
  6
CONTINUOUS
 10
-1.240626
 20
3.334657
  0
VERTEX
  8
PLAN_1
 62
     2
  6
CONTINUOUS
 10
-1.242933
 20
3.331890
  0
VERTEX
  8
PLAN_1
 62
     2
  6
CONTINUOUS
 10
-1.245240
 20
3.329122
  0
VERTEX
  8
PLAN_1
 62
     2
  6
CONTINUOUS
 10
-1.248469
 20
3.326815
  0
VERTEX
  8
PLAN_1
 62
     2
  6
CONTINUOUS
 10
-1.251697
 20
3.324969
  0
VERTEX
  8
PLAN_1
 62
     2
  6
CONTINUOUS
 10
-1.255390
 20
3.323122
  0
VERTEX
  8
PLAN_1
 62
     2
  6
CONTINUOUS
 10
-1.259539
 20
3.322201
  0
VERTEX
  8
PLAN_1
 62
     2
  6
CONTINUOUS
 10
-1.264154
 20
3.321276
  0
VERTEX
  8
PLAN_1
 62
     2
  6
CONTINUOUS
 10
-1.269232
 20
3.320815
  0
VERTEX
  8
PLAN_1
 62
     2
  6
CONTINUOUS
 10
-1.272921
 20
3.321276
  0
VERTEX
  8
PLAN_1
 62
     2
  6
CONTINUOUS
 10
-1.276614
 20
3.321740
  0
VERTEX
  8
PLAN_1
 62
     2
  6
CONTINUOUS
 10
-1.280303
 20
3.322201
  0
VERTEX
  8
PLAN_1
 62
     2
  6
CONTINUOUS
 10
-1.283531
 20
3.323583
  0
VERTEX
  8
PLAN_1
 62
     2
  6
CONTINUOUS
 10
-1.286303
 20
3.324969
  0
VERTEX
  8
PLAN_1
 62
     2
  6
CONTINUOUS
 10
-1.289071
 20
3.326350
  0
VERTEX
  8
PLAN_1
 62
     2
  6
CONTINUOUS
 10
-1.291378
 20
3.328197
  0
VERTEX
  8
PLAN_1
 62
     2
  6
CONTINUOUS
 10
-1.293685
 20
3.330043
  0
VERTEX
  8
PLAN_1
 62
     2
  6
CONTINUOUS
 10
-1.301988
 20
3.320815
  0
VERTEX
  8
PLAN_1
 62
     2
  6
CONTINUOUS
 10
-1.305217
 20
3.324047
  0
VERTEX
  8
PLAN_1
 62
     2
  6
CONTINUOUS
 10
-1.296913
 20
3.333272
  0
VERTEX
  8
PLAN_1
 62
     2
  6
CONTINUOUS
 10
-1.299220
 20
3.336504
  0
VERTEX
  8
PLAN_1
 62
     2
  6
CONTINUOUS
 10
-1.301067
 20
3.339732
  0
VERTEX
  8
PLAN_1
 62
     2
  6
CONTINUOUS
 10
-1.302449
 20
3.342961
  0
VERTEX
  8
PLAN_1
 62
     2
  6
CONTINUOUS
 10
-1.303374
 20
3.346654
  0
VERTEX
  8
PLAN_1
 62
     2
  6
CONTINUOUS
 10
-1.304295
 20
3.349882
  0
VERTEX
  8
PLAN_1
 62
     2
  6
CONTINUOUS
 10
-1.305217
 20
3.353575
  0
VERTEX
  8
PLAN_1
 62
     2
  6
CONTINUOUS
 10
-1.305681
 20
3.356803
  0
VERTEX
  8
PLAN_1
 62
     2
  6
CONTINUOUS
 10
-1.305681
 20
3.360496
  0
VERTEX
  8
PLAN_1
 62
     2
  6
CONTINUOUS
 10
-1.305217
 20
3.366492
  0
VERTEX
  8
PLAN_1
 62
     2
  6
CONTINUOUS
 10
-1.303835
 20
3.373413
  0
VERTEX
  8
PLAN_1
 62
     2
  6
CONTINUOUS
 10
-1.302909
 20
3.376642
  0
VERTEX
  8
PLAN_1
 62
     2
  6
CONTINUOUS
 10
-1.301528
 20
3.379874
  0
VERTEX
  8
PLAN_1
 62
     2
  6
CONTINUOUS
 10
-1.299681
 20
3.383102
  0
VERTEX
  8
PLAN_1
 62
     2
  6
CONTINUOUS
 10
-1.297835
 20
3.385870
  0
VERTEX
  8
PLAN_1
 62
     2
  6
CONTINUOUS
 10
-1.295528
 20
3.388638
  0
VERTEX
  8
PLAN_1
 62
     2
  6
CONTINUOUS
 10
-1.292760
 20
3.391406
  0
VERTEX
  8
PLAN_1
 62
     2
  6
CONTINUOUS
 10
-1.289992
 20
3.393713
  0
VERTEX
  8
PLAN_1
 62
     2
  6
CONTINUOUS
 10
-1.286764
 20
3.395559
  0
VERTEX
  8
PLAN_1
 62
     2
  6
CONTINUOUS
 10
-1.283071
 20
3.397406
  0
VERTEX
  8
PLAN_1
 62
     2
  6
CONTINUOUS
 10
-1.278921
 20
3.398791
  0
VERTEX
  8
PLAN_1
 62
     2
  6
CONTINUOUS
 10
-1.274307
 20
3.399252
  0
VERTEX
  8
PLAN_1
 62
     2
  6
CONTINUOUS
 10
-1.269232
 20
3.399713
  0
VERTEX
  8
PLAN_1
 62
     2
  6
CONTINUOUS
 10
-1.265079
 20
3.399252
  0
VERTEX
  8
PLAN_1
 62
     2
  6
CONTINUOUS
 10
-1.261386
 20
3.398791
  0
VERTEX
  8
PLAN_1
 62
     2
  6
CONTINUOUS
 10
-1.257697
 20
3.398327
  0
VERTEX
  8
PLAN_1
 62
     2
  6
CONTINUOUS
 10
-1.254465
 20
3.396945
  0
VERTEX
  8
PLAN_1
 62
     2
  6
CONTINUOUS
 10
-1.251697
 20
3.395559
  0
VERTEX
  8
PLAN_1
 62
     2
  6
CONTINUOUS
 10
-1.248929
 20
3.394177
  0
VERTEX
  8
PLAN_1
 62
     2
  6
CONTINUOUS
 10
-1.246622
 20
3.392331
  0
VERTEX
  8
PLAN_1
 62
     2
  6
CONTINUOUS
 10
-1.244315
 20
3.390484
  0
VERTEX
  8
PLAN_1
 62
     2
  6
CONTINUOUS
 10
-1.236012
 20
3.399713
  0
VERTEX
  8
PLAN_1
 62
     2
  6
CONTINUOUS
 10
-1.232780
 20
3.396484
  0
VERTEX
  8
PLAN_1
 62
     2
  6
CONTINUOUS
 10
-1.241087
 20
3.386795
  0
SEQEND
  8
0
  0
POLYLINE
  8
PLAN_1
 62
     2
  6
CONTINUOUS
 66
     1
 40
0.003000
 41
0.003000
  0
VERTEX
  8
PLAN_1
 62
     2
  6
CONTINUOUS
 10
-1.287224
 20
3.337425
  0
VERTEX
  8
PLAN_1
 62
     2
  6
CONTINUOUS
 10
-1.285378
 20
3.335579
  0
VERTEX
  8
PLAN_1
 62
     2
  6
CONTINUOUS
 10
-1.283531
 20
3.334197
  0
VERTEX
  8
PLAN_1
 62
     2
  6
CONTINUOUS
 10
-1.281689
 20
3.332811
  0
VERTEX
  8
PLAN_1
 62
     2
  6
CONTINUOUS
 10
-1.279382
 20
3.331890
  0
VERTEX
  8
PLAN_1
 62
     2
  6
CONTINUOUS
 10
-1.277075
 20
3.330965
  0
VERTEX
  8
PLAN_1
 62
     2
  6
CONTINUOUS
 10
-1.274307
 20
3.330504
  0
VERTEX
  8
PLAN_1
 62
     2
  6
CONTINUOUS
 10
-1.272000
 20
3.330043
  0
VERTEX
  8
PLAN_1
 62
     2
  6
CONTINUOUS
 10
-1.269232
 20
3.330043
  0
VERTEX
  8
PLAN_1
 62
     2
  6
CONTINUOUS
 10
-1.266000
 20
3.330043
  0
VERTEX
  8
PLAN_1
 62
     2
  6
CONTINUOUS
 10
-1.263232
 20
3.330504
  0
VERTEX
  8
PLAN_1
 62
     2
  6
CONTINUOUS
 10
-1.260925
 20
3.330965
  0
VERTEX
  8
PLAN_1
 62
     2
  6
CONTINUOUS
 10
-1.258157
 20
3.332350
  0
VERTEX
  8
PLAN_1
 62
     2
  6
CONTINUOUS
 10
-1.255850
 20
3.333272
  0
VERTEX
  8
PLAN_1
 62
     2
  6
CONTINUOUS
 10
-1.254004
 20
3.334657
  0
VERTEX
  8
PLAN_1
 62
     2
  6
CONTINUOUS
 10
-1.251697
 20
3.336504
  0
VERTEX
  8
PLAN_1
 62
     2
  6
CONTINUOUS
 10
-1.250315
 20
3.338346
  0
VERTEX
  8
PLAN_1
 62
     2
  6
CONTINUOUS
 10
-1.248469
 20
3.340654
  0
VERTEX
  8
PLAN_1
 62
     2
  6
CONTINUOUS
 10
-1.247083
 20
3.342961
  0
VERTEX
  8
PLAN_1
 62
     2
  6
CONTINUOUS
 10
-1.246161
 20
3.345268
  0
VERTEX
  8
PLAN_1
 62
     2
  6
CONTINUOUS
 10
-1.244776
 20
3.348035
  0
VERTEX
  8
PLAN_1
 62
     2
  6
CONTINUOUS
 10
-1.244315
 20
3.350807
  0
VERTEX
  8
PLAN_1
 62
     2
  6
CONTINUOUS
 10
-1.243854
 20
3.354035
  0
VERTEX
  8
PLAN_1
 62
     2
  6
CONTINUOUS
 10
-1.243394
 20
3.357264
  0
VERTEX
  8
PLAN_1
 62
     2
  6
CONTINUOUS
 10
-1.243394
 20
3.360496
  0
VERTEX
  8
PLAN_1
 62
     2
  6
CONTINUOUS
 10
-1.243394
 20
3.363264
  0
VERTEX
  8
PLAN_1
 62
     2
  6
CONTINUOUS
 10
-1.243394
 20
3.365571
  0
VERTEX
  8
PLAN_1
 62
     2
  6
CONTINUOUS
 10
-1.243854
 20
3.368339
  0
VERTEX
  8
PLAN_1
 62
     2
  6
CONTINUOUS
 10
-1.244315
 20
3.370646
  0
VERTEX
  8
PLAN_1
 62
     2
  6
CONTINUOUS
 10
-1.245240
 20
3.372953
  0
VERTEX
  8
PLAN_1
 62
     2
  6
CONTINUOUS
 10
-1.246161
 20
3.375260
  0
VERTEX
  8
PLAN_1
 62
     2
  6
CONTINUOUS
 10
-1.247083
 20
3.377567
  0
VERTEX
  8
PLAN_1
 62
     2
  6
CONTINUOUS
 10
-1.248469
 20
3.379413
  0
VERTEX
  8
PLAN_1
 62
     2
  6
CONTINUOUS
 10
-1.287224
 20
3.337425
  0
SEQEND
  8
0
  0
POLYLINE
  8
PLAN_1
 62
     2
  6
CONTINUOUS
 66
     1
 40
0.003000
 41
0.003000
  0
VERTEX
  8
PLAN_1
 62
     2
  6
CONTINUOUS
 10
-1.250776
 20
3.383102
  0
VERTEX
  8
PLAN_1
 62
     2
  6
CONTINUOUS
 10
-1.252622
 20
3.384949
  0
VERTEX
  8
PLAN_1
 62
     2
  6
CONTINUOUS
 10
-1.254465
 20
3.386331
  0
VERTEX
  8
PLAN_1
 62
     2
  6
CONTINUOUS
 10
-1.256772
 20
3.387717
  0
VERTEX
  8
PLAN_1
 62
     2
  6
CONTINUOUS
 10
-1.259079
 20
3.388638
  0
VERTEX
  8
PLAN_1
 62
     2
  6
CONTINUOUS
 10
-1.261386
 20
3.389563
  0
VERTEX
  8
PLAN_1
 62
     2
  6
CONTINUOUS
 10
-1.263693
 20
3.390024
  0
VERTEX
  8
PLAN_1
 62
     2
  6
CONTINUOUS
 10
-1.266461
 20
3.390484
  0
VERTEX
  8
PLAN_1
 62
     2
  6
CONTINUOUS
 10
-1.269232
 20
3.390484
  0
VERTEX
  8
PLAN_1
 62
     2
  6
CONTINUOUS
 10
-1.272000
 20
3.390484
  0
VERTEX
  8
PLAN_1
 62
     2
  6
CONTINUOUS
 10
-1.274768
 20
3.390024
  0
VERTEX
  8
PLAN_1
 62
     2
  6
CONTINUOUS
 10
-1.277535
 20
3.389563
  0
VERTEX
  8
PLAN_1
 62
     2
  6
CONTINUOUS
 10
-1.280303
 20
3.388177
  0
VERTEX
  8
PLAN_1
 62
     2
  6
CONTINUOUS
 10
-1.282610
 20
3.387256
  0
VERTEX
  8
PLAN_1
 62
     2
  6
CONTINUOUS
 10
-1.284457
 20
3.385870
  0
VERTEX
  8
PLAN_1
 62
     2
  6
CONTINUOUS
 10
-1.286303
 20
3.384024
  0
VERTEX
  8
PLAN_1
 62
     2
  6
CONTINUOUS
 10
-1.288146
 20
3.382181
  0
VERTEX
  8
PLAN_1
 62
     2
  6
CONTINUOUS
 10
-1.289992
 20
3.379874
  0
VERTEX
  8
PLAN_1
 62
     2
  6
CONTINUOUS
 10
-1.291378
 20
3.377567
  0
VERTEX
  8
PLAN_1
 62
     2
  6
CONTINUOUS
 10
-1.292299
 20
3.375260
  0
VERTEX
  8
PLAN_1
 62
     2
  6
CONTINUOUS
 10
-1.293220
 20
3.372492
  0
VERTEX
  8
PLAN_1
 62
     2
  6
CONTINUOUS
 10
-1.294146
 20
3.369720
  0
VERTEX
  8
PLAN_1
 62
     2
  6
CONTINUOUS
 10
-1.294606
 20
3.366492
  0
VERTEX
  8
PLAN_1
 62
     2
  6
CONTINUOUS
 10
-1.295067
 20
3.363724
  0
VERTEX
  8
PLAN_1
 62
     2
  6
CONTINUOUS
 10
-1.295067
 20
3.360496
  0
VERTEX
  8
PLAN_1
 62
     2
  6
CONTINUOUS
 10
-1.295067
 20
3.357264
  0
VERTEX
  8
PLAN_1
 62
     2
  6
CONTINUOUS
 10
-1.295067
 20
3.354957
  0
VERTEX
  8
PLAN_1
 62
     2
  6
CONTINUOUS
 10
-1.294606
 20
3.352189
  0
VERTEX
  8
PLAN_1
 62
     2
  6
CONTINUOUS
 10
-1.293685
 20
3.349421
  0
VERTEX
  8
PLAN_1
 62
     2
  6
CONTINUOUS
 10
-1.293220
 20
3.347114
  0
VERTEX
  8
PLAN_1
 62
     2
  6
CONTINUOUS
 10
-1.292299
 20
3.344807
  0
VERTEX
  8
PLAN_1
 62
     2
  6
CONTINUOUS
 10
-1.290917
 20
3.342961
  0
VERTEX
  8
PLAN_1
 62
     2
  6
CONTINUOUS
 10
-1.289992
 20
3.340654
  0
VERTEX
  8
PLAN_1
 62
     2
  6
CONTINUOUS
 10
-1.250776
 20
3.383102
  0
SEQEND
  8
0
  0
POLYLINE
  8
PLAN_1
 62
     2
  6
CONTINUOUS
 66
     1
 40
0.003000
 41
0.003000
  0
VERTEX
  8
PLAN_1
 62
     2
  6
CONTINUOUS
 10
-1.224016
 20
3.369720
  0
VERTEX
  8
PLAN_1
 62
     2
  6
CONTINUOUS
 10
-1.224016
 20
3.373874
  0
VERTEX
  8
PLAN_1
 62
     2
  6
CONTINUOUS
 10
-1.223091
 20
3.378028
  0
VERTEX
  8
PLAN_1
 62
     2
  6
CONTINUOUS
 10
-1.222630
 20
3.381256
  0
VERTEX
  8
PLAN_1
 62
     2
  6
CONTINUOUS
 10
-1.221248
 20
3.384024
  0
VERTEX
  8
PLAN_1
 62
     2
  6
CONTINUOUS
 10
-1.219862
 20
3.386331
  0
VERTEX
  8
PLAN_1
 62
     2
  6
CONTINUOUS
 10
-1.218016
 20
3.388638
  0
VERTEX
  8
PLAN_1
 62
     2
  6
CONTINUOUS
 10
-1.216169
 20
3.390484
  0
VERTEX
  8
PLAN_1
 62
     2
  6
CONTINUOUS
 10
-1.214327
 20
3.391870
  0
VERTEX
  8
PLAN_1
 62
     2
  6
CONTINUOUS
 10
-1.210173
 20
3.394177
  0
VERTEX
  8
PLAN_1
 62
     2
  6
CONTINUOUS
 10
-1.206020
 20
3.395098
  0
VERTEX
  8
PLAN_1
 62
     2
  6
CONTINUOUS
 10
-1.202331
 20
3.396020
  0
VERTEX
  8
PLAN_1
 62
     2
  6
CONTINUOUS
 10
-1.198638
 20
3.396020
  0
VERTEX
  8
PLAN_1
 62
     2
  6
CONTINUOUS
 10
-1.194024
 20
3.395559
  0
VERTEX
  8
PLAN_1
 62
     2
  6
CONTINUOUS
 10
-1.189874
 20
3.394638
  0
VERTEX
  8
PLAN_1
 62
     2
  6
CONTINUOUS
 10
-1.186181
 20
3.392791
  0
VERTEX
  8
PLAN_1
 62
     2
  6
CONTINUOUS
 10
-1.182492
 20
3.390484
  0
VERTEX
  8
PLAN_1
 62
     2
  6
CONTINUOUS
 10
-1.179720
 20
3.387256
  0
VERTEX
  8
PLAN_1
 62
     2
  6
CONTINUOUS
 10
-1.177878
 20
3.383563
  0
VERTEX
  8
PLAN_1
 62
     2
  6
CONTINUOUS
 10
-1.176953
 20
3.381256
  0
VERTEX
  8
PLAN_1
 62
     2
  6
CONTINUOUS
 10
-1.176492
 20
3.378949
  0
VERTEX
  8
PLAN_1
 62
     2
  6
CONTINUOUS
 10
-1.176031
 20
3.376642
  0
VERTEX
  8
PLAN_1
 62
     2
  6
CONTINUOUS
 10
-1.176031
 20
3.374335
  0
VERTEX
  8
PLAN_1
 62
     2
  6
CONTINUOUS
 10
-1.176492
 20
3.369720
  0
VERTEX
  8
PLAN_1
 62
     2
  6
CONTINUOUS
 10
-1.177413
 20
3.365571
  0
VERTEX
  8
PLAN_1
 62
     2
  6
CONTINUOUS
 10
-1.179260
 20
3.362339
  0
VERTEX
  8
PLAN_1
 62
     2
  6
CONTINUOUS
 10
-1.181567
 20
3.359110
  0
VERTEX
  8
PLAN_1
 62
     2
  6
CONTINUOUS
 10
-1.184335
 20
3.356803
  0
VERTEX
  8
PLAN_1
 62
     2
  6
CONTINUOUS
 10
-1.187567
 20
3.354035
  0
VERTEX
  8
PLAN_1
 62
     2
  6
CONTINUOUS
 10
-1.191256
 20
3.351728
  0
VERTEX
  8
PLAN_1
 62
     2
  6
CONTINUOUS
 10
-1.195409
 20
3.349882
  0
VERTEX
  8
PLAN_1
 62
     2
  6
CONTINUOUS
 10
-1.203252
 20
3.345732
  0
VERTEX
  8
PLAN_1
 62
     2
  6
CONTINUOUS
 10
-1.206480
 20
3.343425
  0
VERTEX
  8
PLAN_1
 62
     2
  6
CONTINUOUS
 10
-1.209252
 20
3.341579
  0
VERTEX
  8
PLAN_1
 62
     2
  6
CONTINUOUS
 10
-1.211094
 20
3.339272
  0
VERTEX
  8
PLAN_1
 62
     2
  6
CONTINUOUS
 10
-1.212941
 20
3.337425
  0
VERTEX
  8
PLAN_1
 62
     2
  6
CONTINUOUS
 10
-1.214327
 20
3.335579
  0
VERTEX
  8
PLAN_1
 62
     2
  6
CONTINUOUS
 10
-1.214787
 20
3.334197
  0
VERTEX
  8
PLAN_1
 62
     2
  6
CONTINUOUS
 10
-1.215248
 20
3.332811
  0
VERTEX
  8
PLAN_1
 62
     2
  6
CONTINUOUS
 10
-1.215709
 20
3.331429
  0
VERTEX
  8
PLAN_1
 62
     2
  6
CONTINUOUS
 10
-1.176031
 20
3.331429
  0
VERTEX
  8
PLAN_1
 62
     2
  6
CONTINUOUS
 10
-1.176031
 20
3.323122
  0
VERTEX
  8
PLAN_1
 62
     2
  6
CONTINUOUS
 10
-1.225862
 20
3.323122
  0
VERTEX
  8
PLAN_1
 62
     2
  6
CONTINUOUS
 10
-1.225398
 20
3.328197
  0
VERTEX
  8
PLAN_1
 62
     2
  6
CONTINUOUS
 10
-1.224476
 20
3.333272
  0
VERTEX
  8
PLAN_1
 62
     2
  6
CONTINUOUS
 10
-1.223091
 20
3.337425
  0
VERTEX
  8
PLAN_1
 62
     2
  6
CONTINUOUS
 10
-1.220783
 20
3.341118
  0
VERTEX
  8
PLAN_1
 62
     2
  6
CONTINUOUS
 10
-1.218476
 20
3.344346
  0
VERTEX
  8
PLAN_1
 62
     2
  6
CONTINUOUS
 10
-1.215709
 20
3.347114
  0
VERTEX
  8
PLAN_1
 62
     2
  6
CONTINUOUS
 10
-1.212480
 20
3.349882
  0
VERTEX
  8
PLAN_1
 62
     2
  6
CONTINUOUS
 10
-1.208787
 20
3.351728
  0
VERTEX
  8
PLAN_1
 62
     2
  6
CONTINUOUS
 10
-1.199098
 20
3.357728
  0
VERTEX
  8
PLAN_1
 62
     2
  6
CONTINUOUS
 10
-1.196331
 20
3.359110
  0
VERTEX
  8
PLAN_1
 62
     2
  6
CONTINUOUS
 10
-1.193563
 20
3.360957
  0
VERTEX
  8
PLAN_1
 62
     2
  6
CONTINUOUS
 10
-1.191256
 20
3.362339
  0
VERTEX
  8
PLAN_1
 62
     2
  6
CONTINUOUS
 10
-1.189409
 20
3.364185
  0
VERTEX
  8
PLAN_1
 62
     2
  6
CONTINUOUS
 10
-1.188028
 20
3.366031
  0
VERTEX
  8
PLAN_1
 62
     2
  6
CONTINUOUS
 10
-1.186642
 20
3.368339
  0
VERTEX
  8
PLAN_1
 62
     2
  6
CONTINUOUS
 10
-1.185720
 20
3.371567
  0
VERTEX
  8
PLAN_1
 62
     2
  6
CONTINUOUS
 10
-1.185720
 20
3.374799
  0
VERTEX
  8
PLAN_1
 62
     2
  6
CONTINUOUS
 10
-1.185720
 20
3.377106
  0
VERTEX
  8
PLAN_1
 62
     2
  6
CONTINUOUS
 10
-1.186642
 20
3.378949
  0
VERTEX
  8
PLAN_1
 62
     2
  6
CONTINUOUS
 10
-1.187567
 20
3.381256
  0
VERTEX
  8
PLAN_1
 62
     2
  6
CONTINUOUS
 10
-1.188949
 20
3.383563
  0
VERTEX
  8
PLAN_1
 62
     2
  6
CONTINUOUS
 10
-1.190795
 20
3.385409
  0
VERTEX
  8
PLAN_1
 62
     2
  6
CONTINUOUS
 10
-1.193563
 20
3.386795
  0
VERTEX
  8
PLAN_1
 62
     2
  6
CONTINUOUS
 10
-1.196331
 20
3.387717
  0
VERTEX
  8
PLAN_1
 62
     2
  6
CONTINUOUS
 10
-1.200024
 20
3.387717
  0
VERTEX
  8
PLAN_1
 62
     2
  6
CONTINUOUS
 10
-1.202791
 20
3.387717
  0
VERTEX
  8
PLAN_1
 62
     2
  6
CONTINUOUS
 10
-1.204638
 20
3.387256
  0
VERTEX
  8
PLAN_1
 62
     2
  6
CONTINUOUS
 10
-1.206480
 20
3.386795
  0
VERTEX
  8
PLAN_1
 62
     2
  6
CONTINUOUS
 10
-1.208327
 20
3.385870
  0
VERTEX
  8
PLAN_1
 62
     2
  6
CONTINUOUS
 10
-1.210634
 20
3.383563
  0
VERTEX
  8
PLAN_1
 62
     2
  6
CONTINUOUS
 10
-1.212480
 20
3.380795
  0
VERTEX
  8
PLAN_1
 62
     2
  6
CONTINUOUS
 10
-1.213866
 20
3.377567
  0
VERTEX
  8
PLAN_1
 62
     2
  6
CONTINUOUS
 10
-1.214327
 20
3.374799
  0
VERTEX
  8
PLAN_1
 62
     2
  6
CONTINUOUS
 10
-1.214787
 20
3.372028
  0
VERTEX
  8
PLAN_1
 62
     2
  6
CONTINUOUS
 10
-1.214787
 20
3.369720
  0
VERTEX
  8
PLAN_1
 62
     2
  6
CONTINUOUS
 10
-1.224016
 20
3.369720
  0
SEQEND
  8
0
  0
POLYLINE
  8
PLAN_1
 62
     2
  6
CONTINUOUS
 66
     1
 40
0.003000
 41
0.003000
  0
VERTEX
  8
PLAN_1
 62
     2
  6
CONTINUOUS
 10
-1.166343
 20
3.369720
  0
VERTEX
  8
PLAN_1
 62
     2
  6
CONTINUOUS
 10
-1.165882
 20
3.373874
  0
VERTEX
  8
PLAN_1
 62
     2
  6
CONTINUOUS
 10
-1.165417
 20
3.378028
  0
VERTEX
  8
PLAN_1
 62
     2
  6
CONTINUOUS
 10
-1.164496
 20
3.381256
  0
VERTEX
  8
PLAN_1
 62
     2
  6
CONTINUOUS
 10
-1.163110
 20
3.384024
  0
VERTEX
  8
PLAN_1
 62
     2
  6
CONTINUOUS
 10
-1.161728
 20
3.386331
  0
VERTEX
  8
PLAN_1
 62
     2
  6
CONTINUOUS
 10
-1.160343
 20
3.388638
  0
VERTEX
  8
PLAN_1
 62
     2
  6
CONTINUOUS
 10
-1.158500
 20
3.390484
  0
VERTEX
  8
PLAN_1
 62
     2
  6
CONTINUOUS
 10
-1.156654
 20
3.391870
  0
VERTEX
  8
PLAN_1
 62
     2
  6
CONTINUOUS
 10
-1.152500
 20
3.394177
  0
VERTEX
  8
PLAN_1
 62
     2
  6
CONTINUOUS
 10
-1.148346
 20
3.395098
  0
VERTEX
  8
PLAN_1
 62
     2
  6
CONTINUOUS
 10
-1.144197
 20
3.396020
  0
VERTEX
  8
PLAN_1
 62
     2
  6
CONTINUOUS
 10
-1.140965
 20
3.396020
  0
VERTEX
  8
PLAN_1
 62
     2
  6
CONTINUOUS
 10
-1.136350
 20
3.395559
  0
VERTEX
  8
PLAN_1
 62
     2
  6
CONTINUOUS
 10
-1.131736
 20
3.394638
  0
VERTEX
  8
PLAN_1
 62
     2
  6
CONTINUOUS
 10
-1.128047
 20
3.392791
  0
VERTEX
  8
PLAN_1
 62
     2
  6
CONTINUOUS
 10
-1.124819
 20
3.390484
  0
VERTEX
  8
PLAN_1
 62
     2
  6
CONTINUOUS
 10
-1.122047
 20
3.387256
  0
VERTEX
  8
PLAN_1
 62
     2
  6
CONTINUOUS
 10
-1.119740
 20
3.383563
  0
VERTEX
  8
PLAN_1
 62
     2
  6
CONTINUOUS
 10
-1.118819
 20
3.381256
  0
VERTEX
  8
PLAN_1
 62
     2
  6
CONTINUOUS
 10
-1.118358
 20
3.378949
  0
VERTEX
  8
PLAN_1
 62
     2
  6
CONTINUOUS
 10
-1.117898
 20
3.376642
  0
VERTEX
  8
PLAN_1
 62
     2
  6
CONTINUOUS
 10
-1.117898
 20
3.374335
  0
VERTEX
  8
PLAN_1
 62
     2
  6
CONTINUOUS
 10
-1.118358
 20
3.369720
  0
VERTEX
  8
PLAN_1
 62
     2
  6
CONTINUOUS
 10
-1.119740
 20
3.365571
  0
VERTEX
  8
PLAN_1
 62
     2
  6
CONTINUOUS
 10
-1.121126
 20
3.362339
  0
VERTEX
  8
PLAN_1
 62
     2
  6
CONTINUOUS
 10
-1.123894
 20
3.359110
  0
VERTEX
  8
PLAN_1
 62
     2
  6
CONTINUOUS
 10
-1.126661
 20
3.356803
  0
VERTEX
  8
PLAN_1
 62
     2
  6
CONTINUOUS
 10
-1.129894
 20
3.354035
  0
VERTEX
  8
PLAN_1
 62
     2
  6
CONTINUOUS
 10
-1.133583
 20
3.351728
  0
VERTEX
  8
PLAN_1
 62
     2
  6
CONTINUOUS
 10
-1.137736
 20
3.349882
  0
VERTEX
  8
PLAN_1
 62
     2
  6
CONTINUOUS
 10
-1.145118
 20
3.345732
  0
VERTEX
  8
PLAN_1
 62
     2
  6
CONTINUOUS
 10
-1.148346
 20
3.343425
  0
VERTEX
  8
PLAN_1
 62
     2
  6
CONTINUOUS
 10
-1.151114
 20
3.341579
  0
VERTEX
  8
PLAN_1
 62
     2
  6
CONTINUOUS
 10
-1.153421
 20
3.339272
  0
VERTEX
  8
PLAN_1
 62
     2
  6
CONTINUOUS
 10
-1.155268
 20
3.337425
  0
VERTEX
  8
PLAN_1
 62
     2
  6
CONTINUOUS
 10
-1.156193
 20
3.335579
  0
VERTEX
  8
PLAN_1
 62
     2
  6
CONTINUOUS
 10
-1.157114
 20
3.334197
  0
VERTEX
  8
PLAN_1
 62
     2
  6
CONTINUOUS
 10
-1.157575
 20
3.332811
  0
VERTEX
  8
PLAN_1
 62
     2
  6
CONTINUOUS
 10
-1.157575
 20
3.331429
  0
VERTEX
  8
PLAN_1
 62
     2
  6
CONTINUOUS
 10
-1.117898
 20
3.331429
  0
VERTEX
  8
PLAN_1
 62
     2
  6
CONTINUOUS
 10
-1.117898
 20
3.323122
  0
VERTEX
  8
PLAN_1
 62
     2
  6
CONTINUOUS
 10
-1.168189
 20
3.323122
  0
VERTEX
  8
PLAN_1
 62
     2
  6
CONTINUOUS
 10
-1.167724
 20
3.328197
  0
VERTEX
  8
PLAN_1
 62
     2
  6
CONTINUOUS
 10
-1.166343
 20
3.333272
  0
VERTEX
  8
PLAN_1
 62
     2
  6
CONTINUOUS
 10
-1.164957
 20
3.337425
  0
VERTEX
  8
PLAN_1
 62
     2
  6
CONTINUOUS
 10
-1.163110
 20
3.341118
  0
VERTEX
  8
PLAN_1
 62
     2
  6
CONTINUOUS
 10
-1.160343
 20
3.344346
  0
VERTEX
  8
PLAN_1
 62
     2
  6
CONTINUOUS
 10
-1.157575
 20
3.347114
  0
VERTEX
  8
PLAN_1
 62
     2
  6
CONTINUOUS
 10
-1.154346
 20
3.349882
  0
VERTEX
  8
PLAN_1
 62
     2
  6
CONTINUOUS
 10
-1.150654
 20
3.351728
  0
VERTEX
  8
PLAN_1
 62
     2
  6
CONTINUOUS
 10
-1.141425
 20
3.357728
  0
VERTEX
  8
PLAN_1
 62
     2
  6
CONTINUOUS
 10
-1.138197
 20
3.359110
  0
VERTEX
  8
PLAN_1
 62
     2
  6
CONTINUOUS
 10
-1.135890
 20
3.360957
  0
VERTEX
  8
PLAN_1
 62
     2
  6
CONTINUOUS
 10
-1.133583
 20
3.362339
  0
VERTEX
  8
PLAN_1
 62
     2
  6
CONTINUOUS
 10
-1.131736
 20
3.364185
  0
VERTEX
  8
PLAN_1
 62
     2
  6
CONTINUOUS
 10
-1.129894
 20
3.366031
  0
VERTEX
  8
PLAN_1
 62
     2
  6
CONTINUOUS
 10
-1.128969
 20
3.368339
  0
VERTEX
  8
PLAN_1
 62
     2
  6
CONTINUOUS
 10
-1.128047
 20
3.371567
  0
VERTEX
  8
PLAN_1
 62
     2
  6
CONTINUOUS
 10
-1.127587
 20
3.374799
  0
VERTEX
  8
PLAN_1
 62
     2
  6
CONTINUOUS
 10
-1.128047
 20
3.377106
  0
VERTEX
  8
PLAN_1
 62
     2
  6
CONTINUOUS
 10
-1.128508
 20
3.378949
  0
VERTEX
  8
PLAN_1
 62
     2
  6
CONTINUOUS
 10
-1.129429
 20
3.381256
  0
VERTEX
  8
PLAN_1
 62
     2
  6
CONTINUOUS
 10
-1.130815
 20
3.383563
  0
VERTEX
  8
PLAN_1
 62
     2
  6
CONTINUOUS
 10
-1.133122
 20
3.385409
  0
VERTEX
  8
PLAN_1
 62
     2
  6
CONTINUOUS
 10
-1.135429
 20
3.386795
  0
VERTEX
  8
PLAN_1
 62
     2
  6
CONTINUOUS
 10
-1.138657
 20
3.387717
  0
VERTEX
  8
PLAN_1
 62
     2
  6
CONTINUOUS
 10
-1.142350
 20
3.387717
  0
VERTEX
  8
PLAN_1
 62
     2
  6
CONTINUOUS
 10
-1.144657
 20
3.387717
  0
VERTEX
  8
PLAN_1
 62
     2
  6
CONTINUOUS
 10
-1.146965
 20
3.387256
  0
VERTEX
  8
PLAN_1
 62
     2
  6
CONTINUOUS
 10
-1.148811
 20
3.386795
  0
VERTEX
  8
PLAN_1
 62
     2
  6
CONTINUOUS
 10
-1.150193
 20
3.385870
  0
VERTEX
  8
PLAN_1
 62
     2
  6
CONTINUOUS
 10
-1.152961
 20
3.383563
  0
VERTEX
  8
PLAN_1
 62
     2
  6
CONTINUOUS
 10
-1.154807
 20
3.380795
  0
VERTEX
  8
PLAN_1
 62
     2
  6
CONTINUOUS
 10
-1.155728
 20
3.377567
  0
VERTEX
  8
PLAN_1
 62
     2
  6
CONTINUOUS
 10
-1.156654
 20
3.374799
  0
VERTEX
  8
PLAN_1
 62
     2
  6
CONTINUOUS
 10
-1.156654
 20
3.372028
  0
VERTEX
  8
PLAN_1
 62
     2
  6
CONTINUOUS
 10
-1.157114
 20
3.369720
  0
VERTEX
  8
PLAN_1
 62
     2
  6
CONTINUOUS
 10
-1.166343
 20
3.369720
  0
SEQEND
  8
0
  0
POLYLINE
  8
PLAN_1
 62
     2
  6
CONTINUOUS
 66
     1
 40
0.004150
 41
0.004150
  0
VERTEX
  8
PLAN_1
 62
     2
  6
CONTINUOUS
 10
-0.580386
 20
3.130264
  0
VERTEX
  8
PLAN_1
 62
     2
  6
CONTINUOUS
 10
-0.580386
 20
3.458307
  0
SEQEND
  8
0
  0
POLYLINE
  8
PLAN_1
 62
     2
  6
CONTINUOUS
 66
     1
 40
0.004150
 41
0.004150
  0
VERTEX
  8
PLAN_1
 62
     2
  6
CONTINUOUS
 10
0.030488
 20
3.615642
  0
VERTEX
  8
PLAN_1
 62
     2
  6
CONTINUOUS
 10
0.030488
 20
0.867638
  0
SEQEND
  8
0
  0
POLYLINE
  8
PLAN_1
 62
     2
  6
CONTINUOUS
 66
     1
 40
0.004150
 41
0.004150
  0
VERTEX
  8
PLAN_1
 62
     2
  6
CONTINUOUS
 10
-2.180925
 20
3.615642
  0
VERTEX
  8
PLAN_1
 62
     2
  6
CONTINUOUS
 10
-2.180925
 20
1.855000
  0
SEQEND
  8
0
  0
POLYLINE
  8
PLAN_1
 62
     2
  6
CONTINUOUS
 66
     1
 40
0.004150
 41
0.004150
  0
VERTEX
  8
PLAN_1
 62
     2
  6
CONTINUOUS
 10
-0.429972
 20
3.276984
  0
VERTEX
  8
PLAN_1
 62
     2
  6
CONTINUOUS
 10
0.006957
 20
3.276984
  0
SEQEND
  8
0
  0
POLYLINE
  8
PLAN_1
 62
     2
  6
CONTINUOUS
 66
     1
 40
0.004150
 41
0.004150
  0
VERTEX
  8
PLAN_1
 62
     2
  6
CONTINUOUS
 10
0.054480
 20
3.276984
  0
VERTEX
  8
PLAN_1
 62
     2
  6
CONTINUOUS
 10
0.382984
 20
3.276984
  0
SEQEND
  8
0
  0
POLYLINE
  8
PLAN_1
 62
     2
  6
CONTINUOUS
 66
     1
 40
0.004150
 41
0.004150
  0
VERTEX
  8
PLAN_1
 62
     2
  6
CONTINUOUS
 10
0.237189
 20
0.709846
  0
VERTEX
  8
PLAN_1
 62
     2
  6
CONTINUOUS
 10
0.391752
 20
0.709846
  0
SEQEND
  8
0
  0
POLYLINE
  8
PLAN_1
 62
     2
  6
CONTINUOUS
 66
     1
 40
0.004150
 41
0.004150
  0
VERTEX
  8
PLAN_1
 62
     2
  6
CONTINUOUS
 10
0.367760
 20
0.739374
  0
VERTEX
  8
PLAN_1
 62
     2
  6
CONTINUOUS
 10
0.367760
 20
3.247457
  0
SEQEND
  8
0
  0
SOLID
  8
PLAN_1
 62
     2
 10
0.367760
 20
3.276984
 11
0.352071
 21
3.217925
 12
0.367760
 22
3.276984
 13
0.383445
 23
3.217925
  0
POLYLINE
  8
PLAN_1
 62
     2
  6
CONTINUOUS
 66
     1
 40
0.003000
 41
0.003000
  0
VERTEX
  8
PLAN_1
 62
     2
  6
CONTINUOUS
 10
0.367760
 20
3.276984
  0
VERTEX
  8
PLAN_1
 62
     2
  6
CONTINUOUS
 10
0.352071
 20
3.217925
  0
VERTEX
  8
PLAN_1
 62
     2
  6
CONTINUOUS
 10
0.383445
 20
3.217925
  0
VERTEX
  8
PLAN_1
 62
     2
  6
CONTINUOUS
 10
0.367760
 20
3.276984
  0
SEQEND
  8
0
  0
SOLID
  8
PLAN_1
 62
     2
 10
0.367760
 20
0.709846
 11
0.352071
 21
0.768902
 12
0.367760
 22
0.709846
 13
0.383445
 23
0.768902
  0
POLYLINE
  8
PLAN_1
 62
     2
  6
CONTINUOUS
 66
     1
 40
0.003000
 41
0.003000
  0
VERTEX
  8
PLAN_1
 62
     2
  6
CONTINUOUS
 10
0.367760
 20
0.709846
  0
VERTEX
  8
PLAN_1
 62
     2
  6
CONTINUOUS
 10
0.352071
 20
0.768902
  0
VERTEX
  8
PLAN_1
 62
     2
  6
CONTINUOUS
 10
0.383445
 20
0.768902
  0
VERTEX
  8
PLAN_1
 62
     2
  6
CONTINUOUS
 10
0.367760
 20
0.709846
  0
SEQEND
  8
0
  0
POLYLINE
  8
PLAN_1
 62
     2
  6
CONTINUOUS
 66
     1
 40
0.003000
 41
0.003000
  0
VERTEX
  8
PLAN_1
 62
     2
  6
CONTINUOUS
 10
0.290709
 20
1.978650
  0
VERTEX
  8
PLAN_1
 62
     2
  6
CONTINUOUS
 10
0.288402
 20
1.978189
  0
VERTEX
  8
PLAN_1
 62
     2
  6
CONTINUOUS
 10
0.286094
 20
1.977728
  0
VERTEX
  8
PLAN_1
 62
     2
  6
CONTINUOUS
 10
0.284248
 20
1.976343
  0
VERTEX
  8
PLAN_1
 62
     2
  6
CONTINUOUS
 10
0.282402
 20
1.974961
  0
VERTEX
  8
PLAN_1
 62
     2
  6
CONTINUOUS
 10
0.281020
 20
1.973575
  0
VERTEX
  8
PLAN_1
 62
     2
  6
CONTINUOUS
 10
0.280098
 20
1.971268
  0
VERTEX
  8
PLAN_1
 62
     2
  6
CONTINUOUS
 10
0.279634
 20
1.968961
  0
VERTEX
  8
PLAN_1
 62
     2
  6
CONTINUOUS
 10
0.279173
 20
1.966193
  0
VERTEX
  8
PLAN_1
 62
     2
  6
CONTINUOUS
 10
0.279634
 20
1.963886
  0
VERTEX
  8
PLAN_1
 62
     2
  6
CONTINUOUS
 10
0.280098
 20
1.961579
  0
VERTEX
  8
PLAN_1
 62
     2
  6
CONTINUOUS
 10
0.281020
 20
1.959272
  0
VERTEX
  8
PLAN_1
 62
     2
  6
CONTINUOUS
 10
0.282402
 20
1.957425
  0
VERTEX
  8
PLAN_1
 62
     2
  6
CONTINUOUS
 10
0.284248
 20
1.956043
  0
VERTEX
  8
PLAN_1
 62
     2
  6
CONTINUOUS
 10
0.286094
 20
1.954657
  0
VERTEX
  8
PLAN_1
 62
     2
  6
CONTINUOUS
 10
0.287941
 20
1.953276
  0
VERTEX
  8
PLAN_1
 62
     2
  6
CONTINUOUS
 10
0.289787
 20
1.952350
  0
VERTEX
  8
PLAN_1
 62
     2
  6
CONTINUOUS
 10
0.294398
 20
1.950504
  0
VERTEX
  8
PLAN_1
 62
     2
  6
CONTINUOUS
 10
0.299012
 20
1.949583
  0
VERTEX
  8
PLAN_1
 62
     2
  6
CONTINUOUS
 10
0.303165
 20
1.949122
  0
VERTEX
  8
PLAN_1
 62
     2
  6
CONTINUOUS
 10
0.306394
 20
1.949122
  0
VERTEX
  8
PLAN_1
 62
     2
  6
CONTINUOUS
 10
0.305012
 20
1.950043
  0
VERTEX
  8
PLAN_1
 62
     2
  6
CONTINUOUS
 10
0.303626
 20
1.951429
  0
VERTEX
  8
PLAN_1
 62
     2
  6
CONTINUOUS
 10
0.302244
 20
1.952811
  0
VERTEX
  8
PLAN_1
 62
     2
  6
CONTINUOUS
 10
0.300858
 20
1.955118
  0
VERTEX
  8
PLAN_1
 62
     2
  6
CONTINUOUS
 10
0.299476
 20
1.957425
  0
VERTEX
  8
PLAN_1
 62
     2
  6
CONTINUOUS
 10
0.298551
 20
1.959732
  0
VERTEX
  8
PLAN_1
 62
     2
  6
CONTINUOUS
 10
0.298091
 20
1.962965
  0
VERTEX
  8
PLAN_1
 62
     2
  6
CONTINUOUS
 10
0.297630
 20
1.966654
  0
VERTEX
  8
PLAN_1
 62
     2
  6
CONTINUOUS
 10
0.298091
 20
1.969882
  0
VERTEX
  8
PLAN_1
 62
     2
  6
CONTINUOUS
 10
0.299012
 20
1.974035
  0
VERTEX
  8
PLAN_1
 62
     2
  6
CONTINUOUS
 10
0.300398
 20
1.977728
  0
VERTEX
  8
PLAN_1
 62
     2
  6
CONTINUOUS
 10
0.302705
 20
1.981417
  0
VERTEX
  8
PLAN_1
 62
     2
  6
CONTINUOUS
 10
0.304087
 20
1.982803
  0
VERTEX
  8
PLAN_1
 62
     2
  6
CONTINUOUS
 10
0.305933
 20
1.984650
  0
VERTEX
  8
PLAN_1
 62
     2
  6
CONTINUOUS
 10
0.307780
 20
1.986031
  0
VERTEX
  8
PLAN_1
 62
     2
  6
CONTINUOUS
 10
0.310087
 20
1.986957
  0
VERTEX
  8
PLAN_1
 62
     2
  6
CONTINUOUS
 10
0.312394
 20
1.987878
  0
VERTEX
  8
PLAN_1
 62
     2
  6
CONTINUOUS
 10
0.314701
 20
1.988799
  0
VERTEX
  8
PLAN_1
 62
     2
  6
CONTINUOUS
 10
0.317929
 20
1.989264
  0
VERTEX
  8
PLAN_1
 62
     2
  6
CONTINUOUS
 10
0.320697
 20
1.989264
  0
VERTEX
  8
PLAN_1
 62
     2
  6
CONTINUOUS
 10
0.323469
 20
1.989264
  0
VERTEX
  8
PLAN_1
 62
     2
  6
CONTINUOUS
 10
0.326236
 20
1.988799
  0
VERTEX
  8
PLAN_1
 62
     2
  6
CONTINUOUS
 10
0.328543
 20
1.988339
  0
VERTEX
  8
PLAN_1
 62
     2
  6
CONTINUOUS
 10
0.330850
 20
1.987878
  0
VERTEX
  8
PLAN_1
 62
     2
  6
CONTINUOUS
 10
0.333157
 20
1.986957
  0
VERTEX
  8
PLAN_1
 62
     2
  6
CONTINUOUS
 10
0.335000
 20
1.985571
  0
VERTEX
  8
PLAN_1
 62
     2
  6
CONTINUOUS
 10
0.337307
 20
1.984185
  0
VERTEX
  8
PLAN_1
 62
     2
  6
CONTINUOUS
 10
0.339154
 20
1.982343
  0
VERTEX
  8
PLAN_1
 62
     2
  6
CONTINUOUS
 10
0.340539
 20
1.980957
  0
VERTEX
  8
PLAN_1
 62
     2
  6
CONTINUOUS
 10
0.341921
 20
1.979110
  0
VERTEX
  8
PLAN_1
 62
     2
  6
CONTINUOUS
 10
0.343307
 20
1.977728
  0
VERTEX
  8
PLAN_1
 62
     2
  6
CONTINUOUS
 10
0.344228
 20
1.975421
  0
VERTEX
  8
PLAN_1
 62
     2
  6
CONTINUOUS
 10
0.345154
 20
1.973114
  0
VERTEX
  8
PLAN_1
 62
     2
  6
CONTINUOUS
 10
0.345614
 20
1.970346
  0
VERTEX
  8
PLAN_1
 62
     2
  6
CONTINUOUS
 10
0.346075
 20
1.967579
  0
VERTEX
  8
PLAN_1
 62
     2
  6
CONTINUOUS
 10
0.346075
 20
1.963886
  0
VERTEX
  8
PLAN_1
 62
     2
  6
CONTINUOUS
 10
0.346075
 20
1.961579
  0
VERTEX
  8
PLAN_1
 62
     2
  6
CONTINUOUS
 10
0.345614
 20
1.959272
  0
VERTEX
  8
PLAN_1
 62
     2
  6
CONTINUOUS
 10
0.345154
 20
1.956965
  0
VERTEX
  8
PLAN_1
 62
     2
  6
CONTINUOUS
 10
0.344228
 20
1.954197
  0
VERTEX
  8
PLAN_1
 62
     2
  6
CONTINUOUS
 10
0.342382
 20
1.951890
  0
VERTEX
  8
PLAN_1
 62
     2
  6
CONTINUOUS
 10
0.340539
 20
1.949583
  0
VERTEX
  8
PLAN_1
 62
     2
  6
CONTINUOUS
 10
0.338232
 20
1.947276
  0
VERTEX
  8
PLAN_1
 62
     2
  6
CONTINUOUS
 10
0.335465
 20
1.944969
  0
VERTEX
  8
PLAN_1
 62
     2
  6
CONTINUOUS
 10
0.333157
 20
1.943587
  0
VERTEX
  8
PLAN_1
 62
     2
  6
CONTINUOUS
 10
0.329925
 20
1.942201
  0
VERTEX
  8
PLAN_1
 62
     2
  6
CONTINUOUS
 10
0.327157
 20
1.941280
  0
VERTEX
  8
PLAN_1
 62
     2
  6
CONTINUOUS
 10
0.323929
 20
1.940815
  0
VERTEX
  8
PLAN_1
 62
     2
  6
CONTINUOUS
 10
0.320697
 20
1.939894
  0
VERTEX
  8
PLAN_1
 62
     2
  6
CONTINUOUS
 10
0.317469
 20
1.939894
  0
VERTEX
  8
PLAN_1
 62
     2
  6
CONTINUOUS
 10
0.313780
 20
1.939433
  0
VERTEX
  8
PLAN_1
 62
     2
  6
CONTINUOUS
 10
0.310087
 20
1.939433
  0
VERTEX
  8
PLAN_1
 62
     2
  6
CONTINUOUS
 10
0.304087
 20
1.939894
  0
VERTEX
  8
PLAN_1
 62
     2
  6
CONTINUOUS
 10
0.297169
 20
1.940354
  0
VERTEX
  8
PLAN_1
 62
     2
  6
CONTINUOUS
 10
0.293937
 20
1.941280
  0
VERTEX
  8
PLAN_1
 62
     2
  6
CONTINUOUS
 10
0.290709
 20
1.942201
  0
VERTEX
  8
PLAN_1
 62
     2
  6
CONTINUOUS
 10
0.287480
 20
1.943587
  0
VERTEX
  8
PLAN_1
 62
     2
  6
CONTINUOUS
 10
0.284709
 20
1.944969
  0
VERTEX
  8
PLAN_1
 62
     2
  6
CONTINUOUS
 10
0.281941
 20
1.946354
  0
VERTEX
  8
PLAN_1
 62
     2
  6
CONTINUOUS
 10
0.279173
 20
1.948197
  0
VERTEX
  8
PLAN_1
 62
     2
  6
CONTINUOUS
 10
0.276866
 20
1.950504
  0
VERTEX
  8
PLAN_1
 62
     2
  6
CONTINUOUS
 10
0.275020
 20
1.952811
  0
VERTEX
  8
PLAN_1
 62
     2
  6
CONTINUOUS
 10
0.273177
 20
1.956043
  0
VERTEX
  8
PLAN_1
 62
     2
  6
CONTINUOUS
 10
0.272252
 20
1.959272
  0
VERTEX
  8
PLAN_1
 62
     2
  6
CONTINUOUS
 10
0.271331
 20
1.962500
  0
VERTEX
  8
PLAN_1
 62
     2
  6
CONTINUOUS
 10
0.271331
 20
1.966654
  0
VERTEX
  8
PLAN_1
 62
     2
  6
CONTINUOUS
 10
0.271331
 20
1.969882
  0
VERTEX
  8
PLAN_1
 62
     2
  6
CONTINUOUS
 10
0.272252
 20
1.973114
  0
VERTEX
  8
PLAN_1
 62
     2
  6
CONTINUOUS
 10
0.273177
 20
1.976803
  0
VERTEX
  8
PLAN_1
 62
     2
  6
CONTINUOUS
 10
0.275484
 20
1.980035
  0
VERTEX
  8
PLAN_1
 62
     2
  6
CONTINUOUS
 10
0.277791
 20
1.982803
  0
VERTEX
  8
PLAN_1
 62
     2
  6
CONTINUOUS
 10
0.281480
 20
1.985110
  0
VERTEX
  8
PLAN_1
 62
     2
  6
CONTINUOUS
 10
0.283327
 20
1.986031
  0
VERTEX
  8
PLAN_1
 62
     2
  6
CONTINUOUS
 10
0.285634
 20
1.986957
  0
VERTEX
  8
PLAN_1
 62
     2
  6
CONTINUOUS
 10
0.287941
 20
1.987417
  0
VERTEX
  8
PLAN_1
 62
     2
  6
CONTINUOUS
 10
0.290709
 20
1.987878
  0
VERTEX
  8
PLAN_1
 62
     2
  6
CONTINUOUS
 10
0.290709
 20
1.978650
  0
SEQEND
  8
0
  0
POLYLINE
  8
PLAN_1
 62
     2
  6
CONTINUOUS
 66
     1
 40
0.003000
 41
0.003000
  0
VERTEX
  8
PLAN_1
 62
     2
  6
CONTINUOUS
 10
0.338232
 20
1.965732
  0
VERTEX
  8
PLAN_1
 62
     2
  6
CONTINUOUS
 10
0.337768
 20
1.968500
  0
VERTEX
  8
PLAN_1
 62
     2
  6
CONTINUOUS
 10
0.336846
 20
1.971268
  0
VERTEX
  8
PLAN_1
 62
     2
  6
CONTINUOUS
 10
0.335465
 20
1.974035
  0
VERTEX
  8
PLAN_1
 62
     2
  6
CONTINUOUS
 10
0.333157
 20
1.975882
  0
VERTEX
  8
PLAN_1
 62
     2
  6
CONTINUOUS
 10
0.330850
 20
1.977728
  0
VERTEX
  8
PLAN_1
 62
     2
  6
CONTINUOUS
 10
0.328079
 20
1.979110
  0
VERTEX
  8
PLAN_1
 62
     2
  6
CONTINUOUS
 10
0.324850
 20
1.979575
  0
VERTEX
  8
PLAN_1
 62
     2
  6
CONTINUOUS
 10
0.321161
 20
1.980035
  0
VERTEX
  8
PLAN_1
 62
     2
  6
CONTINUOUS
 10
0.318854
 20
1.979575
  0
VERTEX
  8
PLAN_1
 62
     2
  6
CONTINUOUS
 10
0.316083
 20
1.979110
  0
VERTEX
  8
PLAN_1
 62
     2
  6
CONTINUOUS
 10
0.313780
 20
1.978189
  0
VERTEX
  8
PLAN_1
 62
     2
  6
CONTINUOUS
 10
0.311008
 20
1.976803
  0
VERTEX
  8
PLAN_1
 62
     2
  6
CONTINUOUS
 10
0.309165
 20
1.974961
  0
VERTEX
  8
PLAN_1
 62
     2
  6
CONTINUOUS
 10
0.307319
 20
1.972189
  0
VERTEX
  8
PLAN_1
 62
     2
  6
CONTINUOUS
 10
0.306394
 20
1.968961
  0
VERTEX
  8
PLAN_1
 62
     2
  6
CONTINUOUS
 10
0.305933
 20
1.965272
  0
VERTEX
  8
PLAN_1
 62
     2
  6
CONTINUOUS
 10
0.306394
 20
1.961579
  0
VERTEX
  8
PLAN_1
 62
     2
  6
CONTINUOUS
 10
0.307319
 20
1.958350
  0
VERTEX
  8
PLAN_1
 62
     2
  6
CONTINUOUS
 10
0.308701
 20
1.956043
  0
VERTEX
  8
PLAN_1
 62
     2
  6
CONTINUOUS
 10
0.310547
 20
1.953736
  0
VERTEX
  8
PLAN_1
 62
     2
  6
CONTINUOUS
 10
0.312854
 20
1.952350
  0
VERTEX
  8
PLAN_1
 62
     2
  6
CONTINUOUS
 10
0.315622
 20
1.950969
  0
VERTEX
  8
PLAN_1
 62
     2
  6
CONTINUOUS
 10
0.318854
 20
1.950504
  0
VERTEX
  8
PLAN_1
 62
     2
  6
CONTINUOUS
 10
0.321622
 20
1.950043
  0
VERTEX
  8
PLAN_1
 62
     2
  6
CONTINUOUS
 10
0.324850
 20
1.950504
  0
VERTEX
  8
PLAN_1
 62
     2
  6
CONTINUOUS
 10
0.327618
 20
1.950969
  0
VERTEX
  8
PLAN_1
 62
     2
  6
CONTINUOUS
 10
0.330386
 20
1.952350
  0
VERTEX
  8
PLAN_1
 62
     2
  6
CONTINUOUS
 10
0.332693
 20
1.953736
  0
VERTEX
  8
PLAN_1
 62
     2
  6
CONTINUOUS
 10
0.335000
 20
1.956043
  0
VERTEX
  8
PLAN_1
 62
     2
  6
CONTINUOUS
 10
0.336386
 20
1.958811
  0
VERTEX
  8
PLAN_1
 62
     2
  6
CONTINUOUS
 10
0.337768
 20
1.961579
  0
VERTEX
  8
PLAN_1
 62
     2
  6
CONTINUOUS
 10
0.338232
 20
1.965732
  0
SEQEND
  8
0
  0
POLYLINE
  8
PLAN_1
 62
     2
  6
CONTINUOUS
 66
     1
 40
0.003000
 41
0.003000
  0
VERTEX
  8
PLAN_1
 62
     2
  6
CONTINUOUS
 10
0.302705
 20
2.016484
  0
VERTEX
  8
PLAN_1
 62
     2
  6
CONTINUOUS
 10
0.302705
 20
2.017406
  0
VERTEX
  8
PLAN_1
 62
     2
  6
CONTINUOUS
 10
0.302705
 20
2.017866
  0
VERTEX
  8
PLAN_1
 62
     2
  6
CONTINUOUS
 10
0.302705
 20
2.018331
  0
VERTEX
  8
PLAN_1
 62
     2
  6
CONTINUOUS
 10
0.302705
 20
2.019252
  0
VERTEX
  8
PLAN_1
 62
     2
  6
CONTINUOUS
 10
0.302705
 20
2.019713
  0
VERTEX
  8
PLAN_1
 62
     2
  6
CONTINUOUS
 10
0.302705
 20
2.020173
  0
VERTEX
  8
PLAN_1
 62
     2
  6
CONTINUOUS
 10
0.302705
 20
2.021098
  0
VERTEX
  8
PLAN_1
 62
     2
  6
CONTINUOUS
 10
0.302705
 20
2.021559
  0
VERTEX
  8
PLAN_1
 62
     2
  6
CONTINUOUS
 10
0.302705
 20
2.023866
  0
VERTEX
  8
PLAN_1
 62
     2
  6
CONTINUOUS
 10
0.302244
 20
2.026634
  0
VERTEX
  8
PLAN_1
 62
     2
  6
CONTINUOUS
 10
0.301319
 20
2.028941
  0
VERTEX
  8
PLAN_1
 62
     2
  6
CONTINUOUS
 10
0.300398
 20
2.031248
  0
VERTEX
  8
PLAN_1
 62
     2
  6
CONTINUOUS
 10
0.298551
 20
2.032634
  0
VERTEX
  8
PLAN_1
 62
     2
  6
CONTINUOUS
 10
0.296705
 20
2.034016
  0
VERTEX
  8
PLAN_1
 62
     2
  6
CONTINUOUS
 10
0.293937
 20
2.034937
  0
VERTEX
  8
PLAN_1
 62
     2
  6
CONTINUOUS
 10
0.290709
 20
2.035402
  0
VERTEX
  8
PLAN_1
 62
     2
  6
CONTINUOUS
 10
0.289323
 20
2.035402
  0
VERTEX
  8
PLAN_1
 62
     2
  6
CONTINUOUS
 10
0.287480
 20
2.034937
  0
VERTEX
  8
PLAN_1
 62
     2
  6
CONTINUOUS
 10
0.285173
 20
2.034016
  0
VERTEX
  8
PLAN_1
 62
     2
  6
CONTINUOUS
 10
0.283327
 20
2.032634
  0
VERTEX
  8
PLAN_1
 62
     2
  6
CONTINUOUS
 10
0.281941
 20
2.030787
  0
VERTEX
  8
PLAN_1
 62
     2
  6
CONTINUOUS
 10
0.280559
 20
2.028480
  0
VERTEX
  8
PLAN_1
 62
     2
  6
CONTINUOUS
 10
0.279634
 20
2.025713
  0
VERTEX
  8
PLAN_1
 62
     2
  6
CONTINUOUS
 10
0.279173
 20
2.022020
  0
VERTEX
  8
PLAN_1
 62
     2
  6
CONTINUOUS
 10
0.279634
 20
2.019713
  0
VERTEX
  8
PLAN_1
 62
     2
  6
CONTINUOUS
 10
0.279634
 20
2.017406
  0
VERTEX
  8
PLAN_1
 62
     2
  6
CONTINUOUS
 10
0.280559
 20
2.015559
  0
VERTEX
  8
PLAN_1
 62
     2
  6
CONTINUOUS
 10
0.281020
 20
2.014177
  0
VERTEX
  8
PLAN_1
 62
     2
  6
CONTINUOUS
 10
0.282866
 20
2.011870
  0
VERTEX
  8
PLAN_1
 62
     2
  6
CONTINUOUS
 10
0.285173
 20
2.010024
  0
VERTEX
  8
PLAN_1
 62
     2
  6
CONTINUOUS
 10
0.287941
 20
2.009102
  0
VERTEX
  8
PLAN_1
 62
     2
  6
CONTINUOUS
 10
0.290248
 20
2.008177
  0
VERTEX
  8
PLAN_1
 62
     2
  6
CONTINUOUS
 10
0.293016
 20
2.007717
  0
VERTEX
  8
PLAN_1
 62
     2
  6
CONTINUOUS
 10
0.294862
 20
2.007717
  0
VERTEX
  8
PLAN_1
 62
     2
  6
CONTINUOUS
 10
0.294862
 20
1.998488
  0
VERTEX
  8
PLAN_1
 62
     2
  6
CONTINUOUS
 10
0.291169
 20
1.998953
  0
VERTEX
  8
PLAN_1
 62
     2
  6
CONTINUOUS
 10
0.287016
 20
1.999874
  0
VERTEX
  8
PLAN_1
 62
     2
  6
CONTINUOUS
 10
0.282866
 20
2.001260
  0
VERTEX
  8
PLAN_1
 62
     2
  6
CONTINUOUS
 10
0.279173
 20
2.003102
  0
VERTEX
  8
PLAN_1
 62
     2
  6
CONTINUOUS
 10
0.277327
 20
2.004488
  0
VERTEX
  8
PLAN_1
 62
     2
  6
CONTINUOUS
 10
0.275945
 20
2.006335
  0
VERTEX
  8
PLAN_1
 62
     2
  6
CONTINUOUS
 10
0.274559
 20
2.008177
  0
VERTEX
  8
PLAN_1
 62
     2
  6
CONTINUOUS
 10
0.273177
 20
2.010484
  0
VERTEX
  8
PLAN_1
 62
     2
  6
CONTINUOUS
 10
0.272252
 20
2.012791
  0
VERTEX
  8
PLAN_1
 62
     2
  6
CONTINUOUS
 10
0.271791
 20
2.015559
  0
VERTEX
  8
PLAN_1
 62
     2
  6
CONTINUOUS
 10
0.271331
 20
2.018791
  0
VERTEX
  8
PLAN_1
 62
     2
  6
CONTINUOUS
 10
0.271331
 20
2.022480
  0
VERTEX
  8
PLAN_1
 62
     2
  6
CONTINUOUS
 10
0.271331
 20
2.027094
  0
VERTEX
  8
PLAN_1
 62
     2
  6
CONTINUOUS
 10
0.272713
 20
2.031709
  0
VERTEX
  8
PLAN_1
 62
     2
  6
CONTINUOUS
 10
0.274098
 20
2.035862
  0
VERTEX
  8
PLAN_1
 62
     2
  6
CONTINUOUS
 10
0.276406
 20
2.039091
  0
VERTEX
  8
PLAN_1
 62
     2
  6
CONTINUOUS
 10
0.279634
 20
2.041398
  0
VERTEX
  8
PLAN_1
 62
     2
  6
CONTINUOUS
 10
0.282866
 20
2.043244
  0
VERTEX
  8
PLAN_1
 62
     2
  6
CONTINUOUS
 10
0.286555
 20
2.044630
  0
VERTEX
  8
PLAN_1
 62
     2
  6
CONTINUOUS
 10
0.290248
 20
2.045091
  0
VERTEX
  8
PLAN_1
 62
     2
  6
CONTINUOUS
 10
0.293476
 20
2.044630
  0
VERTEX
  8
PLAN_1
 62
     2
  6
CONTINUOUS
 10
0.296705
 20
2.044165
  0
VERTEX
  8
PLAN_1
 62
     2
  6
CONTINUOUS
 10
0.299012
 20
2.042783
  0
VERTEX
  8
PLAN_1
 62
     2
  6
CONTINUOUS
 10
0.300858
 20
2.041858
  0
VERTEX
  8
PLAN_1
 62
     2
  6
CONTINUOUS
 10
0.302705
 20
2.040016
  0
VERTEX
  8
PLAN_1
 62
     2
  6
CONTINUOUS
 10
0.304087
 20
2.038630
  0
VERTEX
  8
PLAN_1
 62
     2
  6
CONTINUOUS
 10
0.305012
 20
2.037244
  0
VERTEX
  8
PLAN_1
 62
     2
  6
CONTINUOUS
 10
0.305472
 20
2.035402
  0
VERTEX
  8
PLAN_1
 62
     2
  6
CONTINUOUS
 10
0.306858
 20
2.038169
  0
VERTEX
  8
PLAN_1
 62
     2
  6
CONTINUOUS
 10
0.307780
 20
2.040476
  0
VERTEX
  8
PLAN_1
 62
     2
  6
CONTINUOUS
 10
0.309626
 20
2.042323
  0
VERTEX
  8
PLAN_1
 62
     2
  6
CONTINUOUS
 10
0.311472
 20
2.044165
  0
VERTEX
  8
PLAN_1
 62
     2
  6
CONTINUOUS
 10
0.313780
 20
2.045551
  0
VERTEX
  8
PLAN_1
 62
     2
  6
CONTINUOUS
 10
0.316083
 20
2.046933
  0
VERTEX
  8
PLAN_1
 62
     2
  6
CONTINUOUS
 10
0.319315
 20
2.047398
  0
VERTEX
  8
PLAN_1
 62
     2
  6
CONTINUOUS
 10
0.322543
 20
2.047858
  0
VERTEX
  8
PLAN_1
 62
     2
  6
CONTINUOUS
 10
0.327157
 20
2.047398
  0
VERTEX
  8
PLAN_1
 62
     2
  6
CONTINUOUS
 10
0.331311
 20
2.046012
  0
VERTEX
  8
PLAN_1
 62
     2
  6
CONTINUOUS
 10
0.333618
 20
2.045091
  0
VERTEX
  8
PLAN_1
 62
     2
  6
CONTINUOUS
 10
0.335465
 20
2.044165
  0
VERTEX
  8
PLAN_1
 62
     2
  6
CONTINUOUS
 10
0.337307
 20
2.042783
  0
VERTEX
  8
PLAN_1
 62
     2
  6
CONTINUOUS
 10
0.339154
 20
2.041398
  0
VERTEX
  8
PLAN_1
 62
     2
  6
CONTINUOUS
 10
0.340539
 20
2.040016
  0
VERTEX
  8
PLAN_1
 62
     2
  6
CONTINUOUS
 10
0.341921
 20
2.037709
  0
VERTEX
  8
PLAN_1
 62
     2
  6
CONTINUOUS
 10
0.343307
 20
2.035862
  0
VERTEX
  8
PLAN_1
 62
     2
  6
CONTINUOUS
 10
0.344228
 20
2.033094
  0
VERTEX
  8
PLAN_1
 62
     2
  6
CONTINUOUS
 10
0.345154
 20
2.030787
  0
VERTEX
  8
PLAN_1
 62
     2
  6
CONTINUOUS
 10
0.345614
 20
2.028020
  0
VERTEX
  8
PLAN_1
 62
     2
  6
CONTINUOUS
 10
0.346075
 20
2.024787
  0
VERTEX
  8
PLAN_1
 62
     2
  6
CONTINUOUS
 10
0.346075
 20
2.021559
  0
VERTEX
  8
PLAN_1
 62
     2
  6
CONTINUOUS
 10
0.346075
 20
2.019252
  0
VERTEX
  8
PLAN_1
 62
     2
  6
CONTINUOUS
 10
0.346075
 20
2.017406
  0
VERTEX
  8
PLAN_1
 62
     2
  6
CONTINUOUS
 10
0.345614
 20
2.015559
  0
VERTEX
  8
PLAN_1
 62
     2
  6
CONTINUOUS
 10
0.345154
 20
2.013717
  0
VERTEX
  8
PLAN_1
 62
     2
  6
CONTINUOUS
 10
0.344689
 20
2.012331
  0
VERTEX
  8
PLAN_1
 62
     2
  6
CONTINUOUS
 10
0.344228
 20
2.010484
  0
VERTEX
  8
PLAN_1
 62
     2
  6
CONTINUOUS
 10
0.343768
 20
2.009102
  0
VERTEX
  8
PLAN_1
 62
     2
  6
CONTINUOUS
 10
0.342846
 20
2.007717
  0
VERTEX
  8
PLAN_1
 62
     2
  6
CONTINUOUS
 10
0.341461
 20
2.004949
  0
VERTEX
  8
PLAN_1
 62
     2
  6
CONTINUOUS
 10
0.339154
 20
2.002642
  0
VERTEX
  8
PLAN_1
 62
     2
  6
CONTINUOUS
 10
0.336846
 20
2.000795
  0
VERTEX
  8
PLAN_1
 62
     2
  6
CONTINUOUS
 10
0.334079
 20
1.999413
  0
VERTEX
  8
PLAN_1
 62
     2
  6
CONTINUOUS
 10
0.331311
 20
1.998488
  0
VERTEX
  8
PLAN_1
 62
     2
  6
CONTINUOUS
 10
0.328079
 20
1.997567
  0
VERTEX
  8
PLAN_1
 62
     2
  6
CONTINUOUS
 10
0.324850
 20
1.997106
  0
VERTEX
  8
PLAN_1
 62
     2
  6
CONTINUOUS
 10
0.322083
 20
1.997106
  0
VERTEX
  8
PLAN_1
 62
     2
  6
CONTINUOUS
 10
0.322083
 20
2.006335
  0
VERTEX
  8
PLAN_1
 62
     2
  6
CONTINUOUS
 10
0.324390
 20
2.006795
  0
VERTEX
  8
PLAN_1
 62
     2
  6
CONTINUOUS
 10
0.327157
 20
2.006795
  0
VERTEX
  8
PLAN_1
 62
     2
  6
CONTINUOUS
 10
0.329925
 20
2.007717
  0
VERTEX
  8
PLAN_1
 62
     2
  6
CONTINUOUS
 10
0.332693
 20
2.009102
  0
VERTEX
  8
PLAN_1
 62
     2
  6
CONTINUOUS
 10
0.334539
 20
2.010949
  0
VERTEX
  8
PLAN_1
 62
     2
  6
CONTINUOUS
 10
0.336386
 20
2.013717
  0
VERTEX
  8
PLAN_1
 62
     2
  6
CONTINUOUS
 10
0.337768
 20
2.017406
  0
VERTEX
  8
PLAN_1
 62
     2
  6
CONTINUOUS
 10
0.338232
 20
2.022020
  0
VERTEX
  8
PLAN_1
 62
     2
  6
CONTINUOUS
 10
0.337768
 20
2.025248
  0
VERTEX
  8
PLAN_1
 62
     2
  6
CONTINUOUS
 10
0.336846
 20
2.028480
  0
VERTEX
  8
PLAN_1
 62
     2
  6
CONTINUOUS
 10
0.335925
 20
2.031248
  0
VERTEX
  8
PLAN_1
 62
     2
  6
CONTINUOUS
 10
0.334079
 20
2.033555
  0
VERTEX
  8
PLAN_1
 62
     2
  6
CONTINUOUS
 10
0.332232
 20
2.035402
  0
VERTEX
  8
PLAN_1
 62
     2
  6
CONTINUOUS
 10
0.329465
 20
2.036783
  0
VERTEX
  8
PLAN_1
 62
     2
  6
CONTINUOUS
 10
0.326697
 20
2.037709
  0
VERTEX
  8
PLAN_1
 62
     2
  6
CONTINUOUS
 10
0.323929
 20
2.037709
  0
VERTEX
  8
PLAN_1
 62
     2
  6
CONTINUOUS
 10
0.321622
 20
2.037709
  0
VERTEX
  8
PLAN_1
 62
     2
  6
CONTINUOUS
 10
0.319776
 20
2.037244
  0
VERTEX
  8
PLAN_1
 62
     2
  6
CONTINUOUS
 10
0.317929
 20
2.036783
  0
VERTEX
  8
PLAN_1
 62
     2
  6
CONTINUOUS
 10
0.316547
 20
2.036323
  0
VERTEX
  8
PLAN_1
 62
     2
  6
CONTINUOUS
 10
0.314240
 20
2.034016
  0
VERTEX
  8
PLAN_1
 62
     2
  6
CONTINUOUS
 10
0.312394
 20
2.031709
  0
VERTEX
  8
PLAN_1
 62
     2
  6
CONTINUOUS
 10
0.311472
 20
2.028941
  0
VERTEX
  8
PLAN_1
 62
     2
  6
CONTINUOUS
 10
0.311008
 20
2.026173
  0
VERTEX
  8
PLAN_1
 62
     2
  6
CONTINUOUS
 10
0.310547
 20
2.023406
  0
VERTEX
  8
PLAN_1
 62
     2
  6
CONTINUOUS
 10
0.310547
 20
2.020638
  0
VERTEX
  8
PLAN_1
 62
     2
  6
CONTINUOUS
 10
0.310547
 20
2.020173
  0
VERTEX
  8
PLAN_1
 62
     2
  6
CONTINUOUS
 10
0.310547
 20
2.019713
  0
VERTEX
  8
PLAN_1
 62
     2
  6
CONTINUOUS
 10
0.310547
 20
2.019252
  0
VERTEX
  8
PLAN_1
 62
     2
  6
CONTINUOUS
 10
0.310547
 20
2.018791
  0
VERTEX
  8
PLAN_1
 62
     2
  6
CONTINUOUS
 10
0.310547
 20
2.018331
  0
VERTEX
  8
PLAN_1
 62
     2
  6
CONTINUOUS
 10
0.310547
 20
2.017866
  0
VERTEX
  8
PLAN_1
 62
     2
  6
CONTINUOUS
 10
0.310547
 20
2.017406
  0
VERTEX
  8
PLAN_1
 62
     2
  6
CONTINUOUS
 10
0.310547
 20
2.016484
  0
VERTEX
  8
PLAN_1
 62
     2
  6
CONTINUOUS
 10
0.302705
 20
2.016484
  0
SEQEND
  8
0
  0
POLYLINE
  8
PLAN_1
 62
     2
  6
CONTINUOUS
 66
     1
 40
0.004150
 41
0.004150
  0
VERTEX
  8
PLAN_1
 62
     2
  6
CONTINUOUS
 10
-0.550854
 20
3.434776
  0
VERTEX
  8
PLAN_1
 62
     2
  6
CONTINUOUS
 10
0.000961
 20
3.434776
  0
SEQEND
  8
0
  0
SOLID
  8
PLAN_1
 62
     2
 10
0.030488
 20
3.434776
 11
-0.028571
 21
3.450465
 12
0.030488
 22
3.434776
 13
-0.028571
 23
3.419091
  0
POLYLINE
  8
PLAN_1
 62
     2
  6
CONTINUOUS
 66
     1
 40
0.003000
 41
0.003000
  0
VERTEX
  8
PLAN_1
 62
     2
  6
CONTINUOUS
 10
0.030488
 20
3.434776
  0
VERTEX
  8
PLAN_1
 62
     2
  6
CONTINUOUS
 10
-0.028571
 20
3.450465
  0
VERTEX
  8
PLAN_1
 62
     2
  6
CONTINUOUS
 10
-0.028571
 20
3.419091
  0
VERTEX
  8
PLAN_1
 62
     2
  6
CONTINUOUS
 10
0.030488
 20
3.434776
  0
SEQEND
  8
0
  0
SOLID
  8
PLAN_1
 62
     2
 10
-0.580386
 20
3.434776
 11
-0.521327
 21
3.450465
 12
-0.580386
 22
3.434776
 13
-0.521327
 23
3.419091
  0
POLYLINE
  8
PLAN_1
 62
     2
  6
CONTINUOUS
 66
     1
 40
0.003000
 41
0.003000
  0
VERTEX
  8
PLAN_1
 62
     2
  6
CONTINUOUS
 10
-0.580386
 20
3.434776
  0
VERTEX
  8
PLAN_1
 62
     2
  6
CONTINUOUS
 10
-0.521327
 20
3.450465
  0
VERTEX
  8
PLAN_1
 62
     2
  6
CONTINUOUS
 10
-0.521327
 20
3.419091
  0
VERTEX
  8
PLAN_1
 62
     2
  6
CONTINUOUS
 10
-0.580386
 20
3.434776
  0
SEQEND
  8
0
  0
POLYLINE
  8
PLAN_1
 62
     2
  6
CONTINUOUS
 66
     1
 40
0.003000
 41
0.003000
  0
VERTEX
  8
PLAN_1
 62
     2
  6
CONTINUOUS
 10
-0.295248
 20
3.458307
  0
VERTEX
  8
PLAN_1
 62
     2
  6
CONTINUOUS
 10
-0.304937
 20
3.458307
  0
VERTEX
  8
PLAN_1
 62
     2
  6
CONTINUOUS
 10
-0.304937
 20
3.510445
  0
VERTEX
  8
PLAN_1
 62
     2
  6
CONTINUOUS
 10
-0.322008
 20
3.510445
  0
VERTEX
  8
PLAN_1
 62
     2
  6
CONTINUOUS
 10
-0.322008
 20
3.517827
  0
VERTEX
  8
PLAN_1
 62
     2
  6
CONTINUOUS
 10
-0.317858
 20
3.517827
  0
VERTEX
  8
PLAN_1
 62
     2
  6
CONTINUOUS
 10
-0.314626
 20
3.518287
  0
VERTEX
  8
PLAN_1
 62
     2
  6
CONTINUOUS
 10
-0.311398
 20
3.519213
  0
VERTEX
  8
PLAN_1
 62
     2
  6
CONTINUOUS
 10
-0.309091
 20
3.520594
  0
VERTEX
  8
PLAN_1
 62
     2
  6
CONTINUOUS
 10
-0.306783
 20
3.521980
  0
VERTEX
  8
PLAN_1
 62
     2
  6
CONTINUOUS
 10
-0.305398
 20
3.524287
  0
VERTEX
  8
PLAN_1
 62
     2
  6
CONTINUOUS
 10
-0.303555
 20
3.527516
  0
VERTEX
  8
PLAN_1
 62
     2
  6
CONTINUOUS
 10
-0.302630
 20
3.531669
  0
VERTEX
  8
PLAN_1
 62
     2
  6
CONTINUOUS
 10
-0.295248
 20
3.531669
  0
VERTEX
  8
PLAN_1
 62
     2
  6
CONTINUOUS
 10
-0.295248
 20
3.458307
  0
SEQEND
  8
0
  0
POLYLINE
  8
PLAN_1
 62
     2
  6
CONTINUOUS
 66
     1
 40
0.003000
 41
0.003000
  0
VERTEX
  8
PLAN_1
 62
     2
  6
CONTINUOUS
 10
-0.259724
 20
3.500756
  0
VERTEX
  8
PLAN_1
 62
     2
  6
CONTINUOUS
 10
-0.258339
 20
3.501677
  0
VERTEX
  8
PLAN_1
 62
     2
  6
CONTINUOUS
 10
-0.256953
 20
3.502602
  0
VERTEX
  8
PLAN_1
 62
     2
  6
CONTINUOUS
 10
-0.255571
 20
3.503524
  0
VERTEX
  8
PLAN_1
 62
     2
  6
CONTINUOUS
 10
-0.253724
 20
3.503984
  0
VERTEX
  8
PLAN_1
 62
     2
  6
CONTINUOUS
 10
-0.251878
 20
3.504909
  0
VERTEX
  8
PLAN_1
 62
     2
  6
CONTINUOUS
 10
-0.250031
 20
3.505370
  0
VERTEX
  8
PLAN_1
 62
     2
  6
CONTINUOUS
 10
-0.247728
 20
3.505370
  0
VERTEX
  8
PLAN_1
 62
     2
  6
CONTINUOUS
 10
-0.245421
 20
3.505370
  0
VERTEX
  8
PLAN_1
 62
     2
  6
CONTINUOUS
 10
-0.240807
 20
3.505370
  0
VERTEX
  8
PLAN_1
 62
     2
  6
CONTINUOUS
 10
-0.236654
 20
3.503984
  0
VERTEX
  8
PLAN_1
 62
     2
  6
CONTINUOUS
 10
-0.232500
 20
3.502138
  0
VERTEX
  8
PLAN_1
 62
     2
  6
CONTINUOUS
 10
-0.228811
 20
3.499370
  0
VERTEX
  8
PLAN_1
 62
     2
  6
CONTINUOUS
 10
-0.227425
 20
3.497988
  0
VERTEX
  8
PLAN_1
 62
     2
  6
CONTINUOUS
 10
-0.226043
 20
3.496142
  0
VERTEX
  8
PLAN_1
 62
     2
  6
CONTINUOUS
 10
-0.224657
 20
3.494295
  0
VERTEX
  8
PLAN_1
 62
     2
  6
CONTINUOUS
 10
-0.223272
 20
3.491988
  0
VERTEX
  8
PLAN_1
 62
     2
  6
CONTINUOUS
 10
-0.222350
 20
3.489681
  0
VERTEX
  8
PLAN_1
 62
     2
  6
CONTINUOUS
 10
-0.221890
 20
3.487374
  0
VERTEX
  8
PLAN_1
 62
     2
  6
CONTINUOUS
 10
-0.221429
 20
3.485067
  0
VERTEX
  8
PLAN_1
 62
     2
  6
CONTINUOUS
 10
-0.221429
 20
3.482299
  0
VERTEX
  8
PLAN_1
 62
     2
  6
CONTINUOUS
 10
-0.221429
 20
3.478610
  0
VERTEX
  8
PLAN_1
 62
     2
  6
CONTINUOUS
 10
-0.222350
 20
3.474917
  0
VERTEX
  8
PLAN_1
 62
     2
  6
CONTINUOUS
 10
-0.223736
 20
3.470303
  0
VERTEX
  8
PLAN_1
 62
     2
  6
CONTINUOUS
 10
-0.226043
 20
3.466154
  0
VERTEX
  8
PLAN_1
 62
     2
  6
CONTINUOUS
 10
-0.227425
 20
3.464307
  0
VERTEX
  8
PLAN_1
 62
     2
  6
CONTINUOUS
 10
-0.229272
 20
3.462461
  0
VERTEX
  8
PLAN_1
 62
     2
  6
CONTINUOUS
 10
-0.231579
 20
3.460614
  0
VERTEX
  8
PLAN_1
 62
     2
  6
CONTINUOUS
 10
-0.233886
 20
3.459232
  0
VERTEX
  8
PLAN_1
 62
     2
  6
CONTINUOUS
 10
-0.237114
 20
3.458307
  0
VERTEX
  8
PLAN_1
 62
     2
  6
CONTINUOUS
 10
-0.240343
 20
3.457386
  0
VERTEX
  8
PLAN_1
 62
     2
  6
CONTINUOUS
 10
-0.244035
 20
3.456461
  0
VERTEX
  8
PLAN_1
 62
     2
  6
CONTINUOUS
 10
-0.247728
 20
3.456461
  0
VERTEX
  8
PLAN_1
 62
     2
  6
CONTINUOUS
 10
-0.251417
 20
3.456461
  0
VERTEX
  8
PLAN_1
 62
     2
  6
CONTINUOUS
 10
-0.255571
 20
3.457386
  0
VERTEX
  8
PLAN_1
 62
     2
  6
CONTINUOUS
 10
-0.259260
 20
3.458307
  0
VERTEX
  8
PLAN_1
 62
     2
  6
CONTINUOUS
 10
-0.262492
 20
3.460614
  0
VERTEX
  8
PLAN_1
 62
     2
  6
CONTINUOUS
 10
-0.264335
 20
3.461539
  0
VERTEX
  8
PLAN_1
 62
     2
  6
CONTINUOUS
 10
-0.265720
 20
3.462921
  0
VERTEX
  8
PLAN_1
 62
     2
  6
CONTINUOUS
 10
-0.267106
 20
3.464768
  0
VERTEX
  8
PLAN_1
 62
     2
  6
CONTINUOUS
 10
-0.268488
 20
3.466614
  0
VERTEX
  8
PLAN_1
 62
     2
  6
CONTINUOUS
 10
-0.269413
 20
3.468921
  0
VERTEX
  8
PLAN_1
 62
     2
  6
CONTINUOUS
 10
-0.270335
 20
3.471228
  0
VERTEX
  8
PLAN_1
 62
     2
  6
CONTINUOUS
 10
-0.271256
 20
3.473535
  0
VERTEX
  8
PLAN_1
 62
     2
  6
CONTINUOUS
 10
-0.271717
 20
3.476764
  0
VERTEX
  8
PLAN_1
 62
     2
  6
CONTINUOUS
 10
-0.262028
 20
3.476764
  0
VERTEX
  8
PLAN_1
 62
     2
  6
CONTINUOUS
 10
-0.261567
 20
3.473535
  0
VERTEX
  8
PLAN_1
 62
     2
  6
CONTINUOUS
 10
-0.260185
 20
3.471228
  0
VERTEX
  8
PLAN_1
 62
     2
  6
CONTINUOUS
 10
-0.258799
 20
3.468921
  0
VERTEX
  8
PLAN_1
 62
     2
  6
CONTINUOUS
 10
-0.256953
 20
3.467075
  0
VERTEX
  8
PLAN_1
 62
     2
  6
CONTINUOUS
 10
-0.254646
 20
3.466154
  0
VERTEX
  8
PLAN_1
 62
     2
  6
CONTINUOUS
 10
-0.252339
 20
3.465228
  0
VERTEX
  8
PLAN_1
 62
     2
  6
CONTINUOUS
 10
-0.249571
 20
3.464307
  0
VERTEX
  8
PLAN_1
 62
     2
  6
CONTINUOUS
 10
-0.246343
 20
3.464307
  0
VERTEX
  8
PLAN_1
 62
     2
  6
CONTINUOUS
 10
-0.243114
 20
3.464768
  0
VERTEX
  8
PLAN_1
 62
     2
  6
CONTINUOUS
 10
-0.240343
 20
3.465689
  0
VERTEX
  8
PLAN_1
 62
     2
  6
CONTINUOUS
 10
-0.237575
 20
3.467075
  0
VERTEX
  8
PLAN_1
 62
     2
  6
CONTINUOUS
 10
-0.235268
 20
3.469382
  0
VERTEX
  8
PLAN_1
 62
     2
  6
CONTINUOUS
 10
-0.233425
 20
3.471689
  0
VERTEX
  8
PLAN_1
 62
     2
  6
CONTINUOUS
 10
-0.232039
 20
3.474457
  0
VERTEX
  8
PLAN_1
 62
     2
  6
CONTINUOUS
 10
-0.231579
 20
3.477685
  0
VERTEX
  8
PLAN_1
 62
     2
  6
CONTINUOUS
 10
-0.231118
 20
3.480917
  0
VERTEX
  8
PLAN_1
 62
     2
  6
CONTINUOUS
 10
-0.231579
 20
3.484606
  0
VERTEX
  8
PLAN_1
 62
     2
  6
CONTINUOUS
 10
-0.232500
 20
3.487839
  0
VERTEX
  8
PLAN_1
 62
     2
  6
CONTINUOUS
 10
-0.233886
 20
3.491067
  0
VERTEX
  8
PLAN_1
 62
     2
  6
CONTINUOUS
 10
-0.235732
 20
3.493374
  0
VERTEX
  8
PLAN_1
 62
     2
  6
CONTINUOUS
 10
-0.238039
 20
3.494756
  0
VERTEX
  8
PLAN_1
 62
     2
  6
CONTINUOUS
 10
-0.240807
 20
3.496142
  0
VERTEX
  8
PLAN_1
 62
     2
  6
CONTINUOUS
 10
-0.244035
 20
3.497063
  0
VERTEX
  8
PLAN_1
 62
     2
  6
CONTINUOUS
 10
-0.247264
 20
3.497528
  0
VERTEX
  8
PLAN_1
 62
     2
  6
CONTINUOUS
 10
-0.249110
 20
3.497063
  0
VERTEX
  8
PLAN_1
 62
     2
  6
CONTINUOUS
 10
-0.251417
 20
3.497063
  0
VERTEX
  8
PLAN_1
 62
     2
  6
CONTINUOUS
 10
-0.253264
 20
3.496142
  0
VERTEX
  8
PLAN_1
 62
     2
  6
CONTINUOUS
 10
-0.254646
 20
3.495681
  0
VERTEX
  8
PLAN_1
 62
     2
  6
CONTINUOUS
 10
-0.256492
 20
3.494756
  0
VERTEX
  8
PLAN_1
 62
     2
  6
CONTINUOUS
 10
-0.257878
 20
3.493374
  0
VERTEX
  8
PLAN_1
 62
     2
  6
CONTINUOUS
 10
-0.259724
 20
3.491988
  0
VERTEX
  8
PLAN_1
 62
     2
  6
CONTINUOUS
 10
-0.261106
 20
3.490142
  0
VERTEX
  8
PLAN_1
 62
     2
  6
CONTINUOUS
 10
-0.268949
 20
3.490606
  0
VERTEX
  8
PLAN_1
 62
     2
  6
CONTINUOUS
 10
-0.263413
 20
3.529823
  0
VERTEX
  8
PLAN_1
 62
     2
  6
CONTINUOUS
 10
-0.225579
 20
3.529823
  0
VERTEX
  8
PLAN_1
 62
     2
  6
CONTINUOUS
 10
-0.225579
 20
3.521055
  0
VERTEX
  8
PLAN_1
 62
     2
  6
CONTINUOUS
 10
-0.256492
 20
3.521055
  0
VERTEX
  8
PLAN_1
 62
     2
  6
CONTINUOUS
 10
-0.259724
 20
3.500756
  0
SEQEND
  8
0
  0
POLYLINE
  8
PLAN_1
 62
     2
  6
CONTINUOUS
 66
     1
 40
0.004150
 41
0.004150
  0
VERTEX
  8
PLAN_1
 62
     2
  6
CONTINUOUS
 10
-2.151398
 20
3.592110
  0
VERTEX
  8
PLAN_1
 62
     2
  6
CONTINUOUS
 10
0.000961
 20
3.592110
  0
SEQEND
  8
0
  0
SOLID
  8
PLAN_1
 62
     2
 10
0.030488
 20
3.592110
 11
-0.028571
 21
3.607795
 12
0.030488
 22
3.592110
 13
-0.028571
 23
3.576421
  0
POLYLINE
  8
PLAN_1
 62
     2
  6
CONTINUOUS
 66
     1
 40
0.003000
 41
0.003000
  0
VERTEX
  8
PLAN_1
 62
     2
  6
CONTINUOUS
 10
0.030488
 20
3.592110
  0
VERTEX
  8
PLAN_1
 62
     2
  6
CONTINUOUS
 10
-0.028571
 20
3.607795
  0
VERTEX
  8
PLAN_1
 62
     2
  6
CONTINUOUS
 10
-0.028571
 20
3.576421
  0
VERTEX
  8
PLAN_1
 62
     2
  6
CONTINUOUS
 10
0.030488
 20
3.592110
  0
SEQEND
  8
0
  0
SOLID
  8
PLAN_1
 62
     2
 10
-2.180925
 20
3.592110
 11
-2.121866
 21
3.607795
 12
-2.180925
 22
3.592110
 13
-2.121866
 23
3.576421
  0
POLYLINE
  8
PLAN_1
 62
     2
  6
CONTINUOUS
 66
     1
 40
0.003000
 41
0.003000
  0
VERTEX
  8
PLAN_1
 62
     2
  6
CONTINUOUS
 10
-2.180925
 20
3.592110
  0
VERTEX
  8
PLAN_1
 62
     2
  6
CONTINUOUS
 10
-2.121866
 20
3.607795
  0
VERTEX
  8
PLAN_1
 62
     2
  6
CONTINUOUS
 10
-2.121866
 20
3.576421
  0
VERTEX
  8
PLAN_1
 62
     2
  6
CONTINUOUS
 10
-2.180925
 20
3.592110
  0
SEQEND
  8
0
  0
POLYLINE
  8
PLAN_1
 62
     2
  6
CONTINUOUS
 66
     1
 40
0.003000
 41
0.003000
  0
VERTEX
  8
PLAN_1
 62
     2
  6
CONTINUOUS
 10
-1.117898
 20
3.658547
  0
VERTEX
  8
PLAN_1
 62
     2
  6
CONTINUOUS
 10
-1.116512
 20
3.659472
  0
VERTEX
  8
PLAN_1
 62
     2
  6
CONTINUOUS
 10
-1.115130
 20
3.659933
  0
VERTEX
  8
PLAN_1
 62
     2
  6
CONTINUOUS
 10
-1.113744
 20
3.660854
  0
VERTEX
  8
PLAN_1
 62
     2
  6
CONTINUOUS
 10
-1.111898
 20
3.661780
  0
VERTEX
  8
PLAN_1
 62
     2
  6
CONTINUOUS
 10
-1.110051
 20
3.662240
  0
VERTEX
  8
PLAN_1
 62
     2
  6
CONTINUOUS
 10
-1.108209
 20
3.662701
  0
VERTEX
  8
PLAN_1
 62
     2
  6
CONTINUOUS
 10
-1.105902
 20
3.662701
  0
VERTEX
  8
PLAN_1
 62
     2
  6
CONTINUOUS
 10
-1.103594
 20
3.663161
  0
VERTEX
  8
PLAN_1
 62
     2
  6
CONTINUOUS
 10
-1.099441
 20
3.662701
  0
VERTEX
  8
PLAN_1
 62
     2
  6
CONTINUOUS
 10
-1.094827
 20
3.661319
  0
VERTEX
  8
PLAN_1
 62
     2
  6
CONTINUOUS
 10
-1.090673
 20
3.659472
  0
VERTEX
  8
PLAN_1
 62
     2
  6
CONTINUOUS
 10
-1.086984
 20
3.657165
  0
VERTEX
  8
PLAN_1
 62
     2
  6
CONTINUOUS
 10
-1.085598
 20
3.655319
  0
VERTEX
  8
PLAN_1
 62
     2
  6
CONTINUOUS
 10
-1.084217
 20
3.653472
  0
VERTEX
  8
PLAN_1
 62
     2
  6
CONTINUOUS
 10
-1.082831
 20
3.651626
  0
VERTEX
  8
PLAN_1
 62
     2
  6
CONTINUOUS
 10
-1.081909
 20
3.649783
  0
VERTEX
  8
PLAN_1
 62
     2
  6
CONTINUOUS
 10
-1.080984
 20
3.647476
  0
VERTEX
  8
PLAN_1
 62
     2
  6
CONTINUOUS
 10
-1.080063
 20
3.644709
  0
VERTEX
  8
PLAN_1
 62
     2
  6
CONTINUOUS
 10
-1.079602
 20
3.642402
  0
VERTEX
  8
PLAN_1
 62
     2
  6
CONTINUOUS
 10
-1.079602
 20
3.639634
  0
VERTEX
  8
PLAN_1
 62
     2
  6
CONTINUOUS
 10
-1.080063
 20
3.635941
  0
VERTEX
  8
PLAN_1
 62
     2
  6
CONTINUOUS
 10
-1.080524
 20
3.632248
  0
VERTEX
  8
PLAN_1
 62
     2
  6
CONTINUOUS
 10
-1.081909
 20
3.628098
  0
VERTEX
  8
PLAN_1
 62
     2
  6
CONTINUOUS
 10
-1.084217
 20
3.623484
  0
VERTEX
  8
PLAN_1
 62
     2
  6
CONTINUOUS
 10
-1.086059
 20
3.621638
  0
VERTEX
  8
PLAN_1
 62
     2
  6
CONTINUOUS
 10
-1.087906
 20
3.619791
  0
VERTEX
  8
PLAN_1
 62
     2
  6
CONTINUOUS
 10
-1.089752
 20
3.618409
  0
VERTEX
  8
PLAN_1
 62
     2
  6
CONTINUOUS
 10
-1.092520
 20
3.616563
  0
VERTEX
  8
PLAN_1
 62
     2
  6
CONTINUOUS
 10
-1.095287
 20
3.615642
  0
VERTEX
  8
PLAN_1
 62
     2
  6
CONTINUOUS
 10
-1.098520
 20
3.614717
  0
VERTEX
  8
PLAN_1
 62
     2
  6
CONTINUOUS
 10
-1.102209
 20
3.614256
  0
VERTEX
  8
PLAN_1
 62
     2
  6
CONTINUOUS
 10
-1.106362
 20
3.613795
  0
VERTEX
  8
PLAN_1
 62
     2
  6
CONTINUOUS
 10
-1.110051
 20
3.614256
  0
VERTEX
  8
PLAN_1
 62
     2
  6
CONTINUOUS
 10
-1.113744
 20
3.614717
  0
VERTEX
  8
PLAN_1
 62
     2
  6
CONTINUOUS
 10
-1.117437
 20
3.616102
  0
VERTEX
  8
PLAN_1
 62
     2
  6
CONTINUOUS
 10
-1.121126
 20
3.617949
  0
VERTEX
  8
PLAN_1
 62
     2
  6
CONTINUOUS
 10
-1.122512
 20
3.618870
  0
VERTEX
  8
PLAN_1
 62
     2
  6
CONTINUOUS
 10
-1.123894
 20
3.620717
  0
VERTEX
  8
PLAN_1
 62
     2
  6
CONTINUOUS
 10
-1.125280
 20
3.622098
  0
VERTEX
  8
PLAN_1
 62
     2
  6
CONTINUOUS
 10
-1.126661
 20
3.623945
  0
VERTEX
  8
PLAN_1
 62
     2
  6
CONTINUOUS
 10
-1.127587
 20
3.626252
  0
VERTEX
  8
PLAN_1
 62
     2
  6
CONTINUOUS
 10
-1.128508
 20
3.628559
  0
VERTEX
  8
PLAN_1
 62
     2
  6
CONTINUOUS
 10
-1.129429
 20
3.631327
  0
VERTEX
  8
PLAN_1
 62
     2
  6
CONTINUOUS
 10
-1.129894
 20
3.634094
  0
VERTEX
  8
PLAN_1
 62
     2
  6
CONTINUOUS
 10
-1.120205
 20
3.634094
  0
VERTEX
  8
PLAN_1
 62
     2
  6
CONTINUOUS
 10
-1.119740
 20
3.630866
  0
VERTEX
  8
PLAN_1
 62
     2
  6
CONTINUOUS
 10
-1.118819
 20
3.628559
  0
VERTEX
  8
PLAN_1
 62
     2
  6
CONTINUOUS
 10
-1.116972
 20
3.626252
  0
VERTEX
  8
PLAN_1
 62
     2
  6
CONTINUOUS
 10
-1.115130
 20
3.624866
  0
VERTEX
  8
PLAN_1
 62
     2
  6
CONTINUOUS
 10
-1.113283
 20
3.623484
  0
VERTEX
  8
PLAN_1
 62
     2
  6
CONTINUOUS
 10
-1.110516
 20
3.622559
  0
VERTEX
  8
PLAN_1
 62
     2
  6
CONTINUOUS
 10
-1.107744
 20
3.622098
  0
VERTEX
  8
PLAN_1
 62
     2
  6
CONTINUOUS
 10
-1.104976
 20
3.621638
  0
VERTEX
  8
PLAN_1
 62
     2
  6
CONTINUOUS
 10
-1.101287
 20
3.622098
  0
VERTEX
  8
PLAN_1
 62
     2
  6
CONTINUOUS
 10
-1.098520
 20
3.623024
  0
VERTEX
  8
PLAN_1
 62
     2
  6
CONTINUOUS
 10
-1.095752
 20
3.624866
  0
VERTEX
  8
PLAN_1
 62
     2
  6
CONTINUOUS
 10
-1.093445
 20
3.626713
  0
VERTEX
  8
PLAN_1
 62
     2
  6
CONTINUOUS
 10
-1.091598
 20
3.629020
  0
VERTEX
  8
PLAN_1
 62
     2
  6
CONTINUOUS
 10
-1.090673
 20
3.632248
  0
VERTEX
  8
PLAN_1
 62
     2
  6
CONTINUOUS
 10
-1.089752
 20
3.635020
  0
VERTEX
  8
PLAN_1
 62
     2
  6
CONTINUOUS
 10
-1.089291
 20
3.638709
  0
VERTEX
  8
PLAN_1
 62
     2
  6
CONTINUOUS
 10
-1.089752
 20
3.642402
  0
VERTEX
  8
PLAN_1
 62
     2
  6
CONTINUOUS
 10
-1.090673
 20
3.645630
  0
VERTEX
  8
PLAN_1
 62
     2
  6
CONTINUOUS
 10
-1.092059
 20
3.648398
  0
VERTEX
  8
PLAN_1
 62
     2
  6
CONTINUOUS
 10
-1.094366
 20
3.650705
  0
VERTEX
  8
PLAN_1
 62
     2
  6
CONTINUOUS
 10
-1.096673
 20
3.652551
  0
VERTEX
  8
PLAN_1
 62
     2
  6
CONTINUOUS
 10
-1.099441
 20
3.653933
  0
VERTEX
  8
PLAN_1
 62
     2
  6
CONTINUOUS
 10
-1.102209
 20
3.654398
  0
VERTEX
  8
PLAN_1
 62
     2
  6
CONTINUOUS
 10
-1.105441
 20
3.654858
  0
VERTEX
  8
PLAN_1
 62
     2
  6
CONTINUOUS
 10
-1.107744
 20
3.654858
  0
VERTEX
  8
PLAN_1
 62
     2
  6
CONTINUOUS
 10
-1.109591
 20
3.654398
  0
VERTEX
  8
PLAN_1
 62
     2
  6
CONTINUOUS
 10
-1.111437
 20
3.653933
  0
VERTEX
  8
PLAN_1
 62
     2
  6
CONTINUOUS
 10
-1.113283
 20
3.653012
  0
VERTEX
  8
PLAN_1
 62
     2
  6
CONTINUOUS
 10
-1.114665
 20
3.652091
  0
VERTEX
  8
PLAN_1
 62
     2
  6
CONTINUOUS
 10
-1.116512
 20
3.650705
  0
VERTEX
  8
PLAN_1
 62
     2
  6
CONTINUOUS
 10
-1.117898
 20
3.649323
  0
VERTEX
  8
PLAN_1
 62
     2
  6
CONTINUOUS
 10
-1.119280
 20
3.647937
  0
VERTEX
  8
PLAN_1
 62
     2
  6
CONTINUOUS
 10
-1.127126
 20
3.648398
  0
VERTEX
  8
PLAN_1
 62
     2
  6
CONTINUOUS
 10
-1.121587
 20
3.687614
  0
VERTEX
  8
PLAN_1
 62
     2
  6
CONTINUOUS
 10
-1.083756
 20
3.687614
  0
VERTEX
  8
PLAN_1
 62
     2
  6
CONTINUOUS
 10
-1.083756
 20
3.678390
  0
VERTEX
  8
PLAN_1
 62
     2
  6
CONTINUOUS
 10
-1.114665
 20
3.678390
  0
VERTEX
  8
PLAN_1
 62
     2
  6
CONTINUOUS
 10
-1.117898
 20
3.658547
  0
SEQEND
  8
0
  0
POLYLINE
  8
PLAN_1
 62
     2
  6
CONTINUOUS
 66
     1
 40
0.003000
 41
0.003000
  0
VERTEX
  8
PLAN_1
 62
     2
  6
CONTINUOUS
 10
-1.031618
 20
3.669622
  0
VERTEX
  8
PLAN_1
 62
     2
  6
CONTINUOUS
 10
-1.032539
 20
3.671929
  0
VERTEX
  8
PLAN_1
 62
     2
  6
CONTINUOUS
 10
-1.033000
 20
3.674236
  0
VERTEX
  8
PLAN_1
 62
     2
  6
CONTINUOUS
 10
-1.034386
 20
3.676083
  0
VERTEX
  8
PLAN_1
 62
     2
  6
CONTINUOUS
 10
-1.035772
 20
3.677465
  0
VERTEX
  8
PLAN_1
 62
     2
  6
CONTINUOUS
 10
-1.037154
 20
3.678850
  0
VERTEX
  8
PLAN_1
 62
     2
  6
CONTINUOUS
 10
-1.039461
 20
3.679772
  0
VERTEX
  8
PLAN_1
 62
     2
  6
CONTINUOUS
 10
-1.041768
 20
3.680697
  0
VERTEX
  8
PLAN_1
 62
     2
  6
CONTINUOUS
 10
-1.044535
 20
3.680697
  0
VERTEX
  8
PLAN_1
 62
     2
  6
CONTINUOUS
 10
-1.046843
 20
3.680697
  0
VERTEX
  8
PLAN_1
 62
     2
  6
CONTINUOUS
 10
-1.049150
 20
3.679772
  0
VERTEX
  8
PLAN_1
 62
     2
  6
CONTINUOUS
 10
-1.051457
 20
3.678850
  0
VERTEX
  8
PLAN_1
 62
     2
  6
CONTINUOUS
 10
-1.053303
 20
3.677465
  0
VERTEX
  8
PLAN_1
 62
     2
  6
CONTINUOUS
 10
-1.054685
 20
3.676083
  0
VERTEX
  8
PLAN_1
 62
     2
  6
CONTINUOUS
 10
-1.056071
 20
3.674236
  0
VERTEX
  8
PLAN_1
 62
     2
  6
CONTINUOUS
 10
-1.057457
 20
3.672390
  0
VERTEX
  8
PLAN_1
 62
     2
  6
CONTINUOUS
 10
-1.058378
 20
3.670083
  0
VERTEX
  8
PLAN_1
 62
     2
  6
CONTINUOUS
 10
-1.060224
 20
3.665469
  0
VERTEX
  8
PLAN_1
 62
     2
  6
CONTINUOUS
 10
-1.061146
 20
3.661319
  0
VERTEX
  8
PLAN_1
 62
     2
  6
CONTINUOUS
 10
-1.061606
 20
3.657165
  0
VERTEX
  8
PLAN_1
 62
     2
  6
CONTINUOUS
 10
-1.061606
 20
3.653933
  0
VERTEX
  8
PLAN_1
 62
     2
  6
CONTINUOUS
 10
-1.061606
 20
3.653472
  0
VERTEX
  8
PLAN_1
 62
     2
  6
CONTINUOUS
 10
-1.060685
 20
3.654858
  0
VERTEX
  8
PLAN_1
 62
     2
  6
CONTINUOUS
 10
-1.059299
 20
3.656705
  0
VERTEX
  8
PLAN_1
 62
     2
  6
CONTINUOUS
 10
-1.057917
 20
3.658087
  0
VERTEX
  8
PLAN_1
 62
     2
  6
CONTINUOUS
 10
-1.055610
 20
3.659472
  0
VERTEX
  8
PLAN_1
 62
     2
  6
CONTINUOUS
 10
-1.053303
 20
3.660854
  0
VERTEX
  8
PLAN_1
 62
     2
  6
CONTINUOUS
 10
-1.050996
 20
3.661780
  0
VERTEX
  8
PLAN_1
 62
     2
  6
CONTINUOUS
 10
-1.047768
 20
3.662240
  0
VERTEX
  8
PLAN_1
 62
     2
  6
CONTINUOUS
 10
-1.044075
 20
3.662701
  0
VERTEX
  8
PLAN_1
 62
     2
  6
CONTINUOUS
 10
-1.040846
 20
3.662240
  0
VERTEX
  8
PLAN_1
 62
     2
  6
CONTINUOUS
 10
-1.036693
 20
3.661319
  0
VERTEX
  8
PLAN_1
 62
     2
  6
CONTINUOUS
 10
-1.033000
 20
3.659933
  0
VERTEX
  8
PLAN_1
 62
     2
  6
CONTINUOUS
 10
-1.029311
 20
3.657626
  0
VERTEX
  8
PLAN_1
 62
     2
  6
CONTINUOUS
 10
-1.027925
 20
3.655780
  0
VERTEX
  8
PLAN_1
 62
     2
  6
CONTINUOUS
 10
-1.026083
 20
3.654398
  0
VERTEX
  8
PLAN_1
 62
     2
  6
CONTINUOUS
 10
-1.024697
 20
3.652551
  0
VERTEX
  8
PLAN_1
 62
     2
  6
CONTINUOUS
 10
-1.023776
 20
3.650244
  0
VERTEX
  8
PLAN_1
 62
     2
  6
CONTINUOUS
 10
-1.022850
 20
3.647937
  0
VERTEX
  8
PLAN_1
 62
     2
  6
CONTINUOUS
 10
-1.021929
 20
3.645169
  0
VERTEX
  8
PLAN_1
 62
     2
  6
CONTINUOUS
 10
-1.021469
 20
3.642402
  0
VERTEX
  8
PLAN_1
 62
     2
  6
CONTINUOUS
 10
-1.021469
 20
3.639169
  0
VERTEX
  8
PLAN_1
 62
     2
  6
CONTINUOUS
 10
-1.021469
 20
3.636402
  0
VERTEX
  8
PLAN_1
 62
     2
  6
CONTINUOUS
 10
-1.021929
 20
3.634094
  0
VERTEX
  8
PLAN_1
 62
     2
  6
CONTINUOUS
 10
-1.022390
 20
3.631787
  0
VERTEX
  8
PLAN_1
 62
     2
  6
CONTINUOUS
 10
-1.022850
 20
3.629480
  0
VERTEX
  8
PLAN_1
 62
     2
  6
CONTINUOUS
 10
-1.023776
 20
3.627173
  0
VERTEX
  8
PLAN_1
 62
     2
  6
CONTINUOUS
 10
-1.025157
 20
3.624866
  0
VERTEX
  8
PLAN_1
 62
     2
  6
CONTINUOUS
 10
-1.026543
 20
3.623024
  0
VERTEX
  8
PLAN_1
 62
     2
  6
CONTINUOUS
 10
-1.028390
 20
3.621177
  0
VERTEX
  8
PLAN_1
 62
     2
  6
CONTINUOUS
 10
-1.029772
 20
3.619331
  0
VERTEX
  8
PLAN_1
 62
     2
  6
CONTINUOUS
 10
-1.031157
 20
3.617949
  0
VERTEX
  8
PLAN_1
 62
     2
  6
CONTINUOUS
 10
-1.033000
 20
3.617024
  0
VERTEX
  8
PLAN_1
 62
     2
  6
CONTINUOUS
 10
-1.035307
 20
3.615642
  0
VERTEX
  8
PLAN_1
 62
     2
  6
CONTINUOUS
 10
-1.037614
 20
3.615177
  0
VERTEX
  8
PLAN_1
 62
     2
  6
CONTINUOUS
 10
-1.039921
 20
3.614256
  0
VERTEX
  8
PLAN_1
 62
     2
  6
CONTINUOUS
 10
-1.043154
 20
3.613795
  0
VERTEX
  8
PLAN_1
 62
     2
  6
CONTINUOUS
 10
-1.046843
 20
3.613795
  0
VERTEX
  8
PLAN_1
 62
     2
  6
CONTINUOUS
 10
-1.049150
 20
3.613795
  0
VERTEX
  8
PLAN_1
 62
     2
  6
CONTINUOUS
 10
-1.051457
 20
3.614256
  0
VERTEX
  8
PLAN_1
 62
     2
  6
CONTINUOUS
 10
-1.053764
 20
3.615177
  0
VERTEX
  8
PLAN_1
 62
     2
  6
CONTINUOUS
 10
-1.056531
 20
3.616102
  0
VERTEX
  8
PLAN_1
 62
     2
  6
CONTINUOUS
 10
-1.058839
 20
3.617484
  0
VERTEX
  8
PLAN_1
 62
     2
  6
CONTINUOUS
 10
-1.061146
 20
3.619331
  0
VERTEX
  8
PLAN_1
 62
     2
  6
CONTINUOUS
 10
-1.063453
 20
3.621638
  0
VERTEX
  8
PLAN_1
 62
     2
  6
CONTINUOUS
 10
-1.065760
 20
3.624406
  0
VERTEX
  8
PLAN_1
 62
     2
  6
CONTINUOUS
 10
-1.067146
 20
3.627173
  0
VERTEX
  8
PLAN_1
 62
     2
  6
CONTINUOUS
 10
-1.068528
 20
3.629941
  0
VERTEX
  8
PLAN_1
 62
     2
  6
CONTINUOUS
 10
-1.069453
 20
3.633173
  0
VERTEX
  8
PLAN_1
 62
     2
  6
CONTINUOUS
 10
-1.069913
 20
3.636402
  0
VERTEX
  8
PLAN_1
 62
     2
  6
CONTINUOUS
 10
-1.070835
 20
3.639634
  0
VERTEX
  8
PLAN_1
 62
     2
  6
CONTINUOUS
 10
-1.070835
 20
3.642862
  0
VERTEX
  8
PLAN_1
 62
     2
  6
CONTINUOUS
 10
-1.071295
 20
3.646551
  0
VERTEX
  8
PLAN_1
 62
     2
  6
CONTINUOUS
 10
-1.071295
 20
3.649783
  0
VERTEX
  8
PLAN_1
 62
     2
  6
CONTINUOUS
 10
-1.070835
 20
3.656240
  0
VERTEX
  8
PLAN_1
 62
     2
  6
CONTINUOUS
 10
-1.069913
 20
3.662701
  0
VERTEX
  8
PLAN_1
 62
     2
  6
CONTINUOUS
 10
-1.069453
 20
3.665929
  0
VERTEX
  8
PLAN_1
 62
     2
  6
CONTINUOUS
 10
-1.068528
 20
3.669161
  0
VERTEX
  8
PLAN_1
 62
     2
  6
CONTINUOUS
 10
-1.067146
 20
3.672390
  0
VERTEX
  8
PLAN_1
 62
     2
  6
CONTINUOUS
 10
-1.065760
 20
3.675618
  0
VERTEX
  8
PLAN_1
 62
     2
  6
CONTINUOUS
 10
-1.064374
 20
3.678390
  0
VERTEX
  8
PLAN_1
 62
     2
  6
CONTINUOUS
 10
-1.062531
 20
3.680697
  0
VERTEX
  8
PLAN_1
 62
     2
  6
CONTINUOUS
 10
-1.060224
 20
3.683004
  0
VERTEX
  8
PLAN_1
 62
     2
  6
CONTINUOUS
 10
-1.057457
 20
3.685307
  0
VERTEX
  8
PLAN_1
 62
     2
  6
CONTINUOUS
 10
-1.054685
 20
3.686693
  0
VERTEX
  8
PLAN_1
 62
     2
  6
CONTINUOUS
 10
-1.051457
 20
3.688079
  0
VERTEX
  8
PLAN_1
 62
     2
  6
CONTINUOUS
 10
-1.048228
 20
3.688539
  0
VERTEX
  8
PLAN_1
 62
     2
  6
CONTINUOUS
 10
-1.044075
 20
3.689000
  0
VERTEX
  8
PLAN_1
 62
     2
  6
CONTINUOUS
 10
-1.040846
 20
3.688539
  0
VERTEX
  8
PLAN_1
 62
     2
  6
CONTINUOUS
 10
-1.037614
 20
3.688079
  0
VERTEX
  8
PLAN_1
 62
     2
  6
CONTINUOUS
 10
-1.033925
 20
3.686693
  0
VERTEX
  8
PLAN_1
 62
     2
  6
CONTINUOUS
 10
-1.030693
 20
3.684846
  0
VERTEX
  8
PLAN_1
 62
     2
  6
CONTINUOUS
 10
-1.027925
 20
3.682079
  0
VERTEX
  8
PLAN_1
 62
     2
  6
CONTINUOUS
 10
-1.025618
 20
3.678850
  0
VERTEX
  8
PLAN_1
 62
     2
  6
CONTINUOUS
 10
-1.024697
 20
3.677004
  0
VERTEX
  8
PLAN_1
 62
     2
  6
CONTINUOUS
 10
-1.023776
 20
3.674697
  0
VERTEX
  8
PLAN_1
 62
     2
  6
CONTINUOUS
 10
-1.023311
 20
3.672390
  0
VERTEX
  8
PLAN_1
 62
     2
  6
CONTINUOUS
 10
-1.022850
 20
3.669622
  0
VERTEX
  8
PLAN_1
 62
     2
  6
CONTINUOUS
 10
-1.031618
 20
3.669622
  0
SEQEND
  8
0
  0
POLYLINE
  8
PLAN_1
 62
     2
  6
CONTINUOUS
 66
     1
 40
0.003000
 41
0.003000
  0
VERTEX
  8
PLAN_1
 62
     2
  6
CONTINUOUS
 10
-1.044996
 20
3.622098
  0
VERTEX
  8
PLAN_1
 62
     2
  6
CONTINUOUS
 10
-1.042228
 20
3.622559
  0
VERTEX
  8
PLAN_1
 62
     2
  6
CONTINUOUS
 10
-1.039000
 20
3.623484
  0
VERTEX
  8
PLAN_1
 62
     2
  6
CONTINUOUS
 10
-1.036693
 20
3.624866
  0
VERTEX
  8
PLAN_1
 62
     2
  6
CONTINUOUS
 10
-1.034846
 20
3.626713
  0
VERTEX
  8
PLAN_1
 62
     2
  6
CONTINUOUS
 10
-1.033000
 20
3.629020
  0
VERTEX
  8
PLAN_1
 62
     2
  6
CONTINUOUS
 10
-1.031618
 20
3.632248
  0
VERTEX
  8
PLAN_1
 62
     2
  6
CONTINUOUS
 10
-1.031157
 20
3.635480
  0
VERTEX
  8
PLAN_1
 62
     2
  6
CONTINUOUS
 10
-1.030693
 20
3.638709
  0
VERTEX
  8
PLAN_1
 62
     2
  6
CONTINUOUS
 10
-1.031157
 20
3.641476
  0
VERTEX
  8
PLAN_1
 62
     2
  6
CONTINUOUS
 10
-1.031618
 20
3.643783
  0
VERTEX
  8
PLAN_1
 62
     2
  6
CONTINUOUS
 10
-1.032539
 20
3.646551
  0
VERTEX
  8
PLAN_1
 62
     2
  6
CONTINUOUS
 10
-1.033925
 20
3.648858
  0
VERTEX
  8
PLAN_1
 62
     2
  6
CONTINUOUS
 10
-1.035772
 20
3.651165
  0
VERTEX
  8
PLAN_1
 62
     2
  6
CONTINUOUS
 10
-1.038539
 20
3.652551
  0
VERTEX
  8
PLAN_1
 62
     2
  6
CONTINUOUS
 10
-1.041768
 20
3.653933
  0
VERTEX
  8
PLAN_1
 62
     2
  6
CONTINUOUS
 10
-1.045461
 20
3.654398
  0
VERTEX
  8
PLAN_1
 62
     2
  6
CONTINUOUS
 10
-1.049150
 20
3.653933
  0
VERTEX
  8
PLAN_1
 62
     2
  6
CONTINUOUS
 10
-1.052378
 20
3.653012
  0
VERTEX
  8
PLAN_1
 62
     2
  6
CONTINUOUS
 10
-1.054685
 20
3.651626
  0
VERTEX
  8
PLAN_1
 62
     2
  6
CONTINUOUS
 10
-1.056992
 20
3.649323
  0
VERTEX
  8
PLAN_1
 62
     2
  6
CONTINUOUS
 10
-1.058378
 20
3.647016
  0
VERTEX
  8
PLAN_1
 62
     2
  6
CONTINUOUS
 10
-1.059764
 20
3.644244
  0
VERTEX
  8
PLAN_1
 62
     2
  6
CONTINUOUS
 10
-1.060224
 20
3.641476
  0
VERTEX
  8
PLAN_1
 62
     2
  6
CONTINUOUS
 10
-1.060685
 20
3.638248
  0
VERTEX
  8
PLAN_1
 62
     2
  6
CONTINUOUS
 10
-1.060224
 20
3.635480
  0
VERTEX
  8
PLAN_1
 62
     2
  6
CONTINUOUS
 10
-1.059764
 20
3.632713
  0
VERTEX
  8
PLAN_1
 62
     2
  6
CONTINUOUS
 10
-1.058378
 20
3.629941
  0
VERTEX
  8
PLAN_1
 62
     2
  6
CONTINUOUS
 10
-1.056992
 20
3.627173
  0
VERTEX
  8
PLAN_1
 62
     2
  6
CONTINUOUS
 10
-1.054685
 20
3.625331
  0
VERTEX
  8
PLAN_1
 62
     2
  6
CONTINUOUS
 10
-1.051917
 20
3.623484
  0
VERTEX
  8
PLAN_1
 62
     2
  6
CONTINUOUS
 10
-1.048689
 20
3.622559
  0
VERTEX
  8
PLAN_1
 62
     2
  6
CONTINUOUS
 10
-1.044996
 20
3.622098
  0
SEQEND
  8
0
  0
ENDSEC
  0
EOF
