999
DXF file: C:\Users\sesa63760\Dev\_Creo\CAD\MCADPD0005316_3D-CAD\drw0001_6.dxf
999
Pro/ENGINEER 2019471 by Parametric Technology Corporation
  0
SECTION
  2
HEADER
  9
$ACADVER
  1
AC1024
  9
$DWGCODEPAGE
  3
ANSI_1252
  9
$EXTMAX
 10
304.6397486035
 20
430.8476444535
 30
0.0
  9
$EXTMIN
 10
0.0
 20
0.0
 30
0.0
  9
$LIMMIN
 10
0.0
 20
0.0
  9
$LIMMAX
 10
304.6397486035
 20
430.8476444535
  9
$VIEWCTR
 10
152.3198743017
 20
215.4238222267
  9
$VIEWSIZE
 40
430.8476444535
  9
$CLAYER
  8
0
  9
$LTSCALE
 40
28.0848834903
  9
$CELTYPE
  6
BYLAYER
  9
$DIMSCALE
 40
1.0
  9
$DIMASZ
 40
3.6266636739
  9
$DIMEXO
 40
1.0
  9
$DIMDLI
 40
19.4041013206
  9
$DIMEXE
 40
1.0
  9
$DIMCEN
 40
4.5957082075
  9
$DIMLFAC
 40
1.0
  9
$DIMBLK
  1
_FILLED
  9
$DIMALT
 70
0
  9
$DIMALTF
 40
0.0393700787
  9
$DIMTXT
 40
5.0773291434
  9
$DIMTOL
 70
1
  9
$DIMLIM
 70
0
  9
$DIMTFAC
 40
1.0
  9
$DIMTP
 40
0.01
  9
$DIMTM
 40
0.01
  9
$DIMGAP
 40
0.625
  9
$DIMDSEP
 70
46
  9
$AUNITS
 70
0
  9
$PDMODE
 70
3
  9
$PDSIZE
 40
0.3125
  9
$HANDSEED
  5
28D
  9
$TILEMODE
 70
1
  9
$MEASUREMENT
 70
1
  9
$INSUNITS
 70
4
  0
ENDSEC
  0
SECTION
  2
CLASSES
  0
CLASS
  1
ACDBDICTIONARYWDFLT
  2
AcDbDictionaryWithDefault
  3
AutoCAD 2000
 90
0
 91
1
280
0
281
0
  0
CLASS
  1
ACDBPLACEHOLDER
  2
AcDbPlaceHolder
  3
AutoCAD 2000
 90
0
 91
1
280
0
281
0
  0
CLASS
  1
LAYOUT
  2
AcDbLayout
  3
AutoCAD 2000
 90
0
 91
0
280
0
281
0
  0
ENDSEC
  0
SECTION
  2
TABLES
  0
TABLE
  2
VPORT
  5
8
100
AcDbSymbolTable
 70
2
  0
VPORT
  5
1F4
100
AcDbSymbolTableRecord
100
AcDbViewportTableRecord
  2
*ACTIVE
 70
0
 10
0.0
 20
0.0
 11
1.0
 21
1.0
 12
152.3198743017
 22
215.4238222267
 13
0.0
 23
0.0
 14
1.0
 24
1.0
 15
0.0
 25
0.0
 16
0.0
 26
0.0
 36
1.0
 17
0.0
 27
0.0
 37
0.0
 40
430.8476444535
 41
0.7070707071
 42
50.0
 43
0.0
 44
0.0
 50
0.0
 51
0.0
 71
0
 72
100
 73
1
 74
1
 75
0
 76
0
 77
0
 78
0
  0
ENDTAB
  0
TABLE
  2
LTYPE
  5
5
100
AcDbSymbolTable
 70
6
  0
LTYPE
  5
14
100
AcDbSymbolTableRecord
100
AcDbLinetypeTableRecord
  2
BYBLOCK
 70
0
  3

 72
65
 73
0
 40
0.0
  0
LTYPE
  5
15
100
AcDbSymbolTableRecord
100
AcDbLinetypeTableRecord
  2
BYLAYER
 70
0
  3

 72
65
 73
0
 40
0.0
  0
LTYPE
  5
16
100
AcDbSymbolTableRecord
100
AcDbLinetypeTableRecord
  2
CONTINUOUS
 70
64
  3
Solid line
 72
65
 73
0
 40
0.0
  0
LTYPE
  5
1F5
100
AcDbSymbolTableRecord
100
AcDbLinetypeTableRecord
  2
CENTER
 70
64
  3
____ _ ____ _ ____ _ ____ _ ____ _ ____ _ ____
 72
65
 73
4
 40
0.6
 49
0.375
 74
0
 49
-0.075
 74
0
 49
0.075
 74
0
 49
-0.075
 74
0
  0
LTYPE
  5
1F6
100
AcDbSymbolTableRecord
100
AcDbLinetypeTableRecord
  2
HIDDEN
 70
64
  3
- - - - - - - - - - - - - - - - - - - -
 72
65
 73
2
 40
0.2
 49
0.1
 74
0
 49
-0.1
 74
0
  0
LTYPE
  5
1F7
100
AcDbSymbolTableRecord
100
AcDbLinetypeTableRecord
  2
PHANTOM
 70
64
  3
_____ _ _ _____ _ _ _____ _ _ _____
 72
65
 73
6
 40
0.8
 49
0.45
 74
0
 49
-0.05
 74
0
 49
0.1
 74
0
 49
-0.05
 74
0
 49
0.1
 74
0
 49
-0.05
 74
0
  0
LTYPE
  5
1F8
100
AcDbSymbolTableRecord
100
AcDbLinetypeTableRecord
  2
DOT
 70
64
  3
. . . . . . . . . . . . . . . . . . . .
 72
65
 73
2
 40
0.2
 49
0.1
 74
0
 49
-0.1
 74
0
  0
LTYPE
  5
1F9
100
AcDbSymbolTableRecord
100
AcDbLinetypeTableRecord
  2
DASHED
 70
64
  3
- - - - - - - - - - - - - - - - - - - -
 72
65
 73
2
 40
0.2
 49
0.1
 74
0
 49
-0.1
 74
0
  0
ENDTAB
  0
TABLE
  2
LAYER
  5
2
100
AcDbSymbolTable
 70
36
  0
LAYER
  5
10
100
AcDbSymbolTableRecord
100
AcDbLayerTableRecord
  2
0
 70
0
 62
7
  6
CONTINUOUS
370
-3
390
F
  0
LAYER
  5
1FA
100
AcDbSymbolTableRecord
100
AcDbLayerTableRecord
  2
DEFAULT_1
 70
0
 62
7
  6
CENTER
370
-3
390
F
  0
LAYER
  5
1FB
100
AcDbSymbolTableRecord
100
AcDbLayerTableRecord
  2
DEFAULT_2
 70
0
 62
7
  6
HIDDEN
370
-3
390
F
  0
LAYER
  5
1FC
100
AcDbSymbolTableRecord
100
AcDbLayerTableRecord
  2
DEFAULT_3
 70
0
 62
7
  6
PHANTOM
370
-3
390
F
  0
LAYER
  5
1FD
100
AcDbSymbolTableRecord
100
AcDbLayerTableRecord
  2
00_COMPONENTS
 70
0
 62
7
  6
CONTINUOUS
370
-3
390
F
  0
LAYER
  5
1FE
100
AcDbSymbolTableRecord
100
AcDbLayerTableRecord
  2
01_1_DEFAULT_DATUMS
 70
0
 62
7
  6
CONTINUOUS
370
-3
390
F
  0
LAYER
  5
1FF
100
AcDbSymbolTableRecord
100
AcDbLayerTableRecord
  2
01_PLANES
 70
0
 62
7
  6
CONTINUOUS
370
-3
390
F
  0
LAYER
  5
200
100
AcDbSymbolTableRecord
100
AcDbLayerTableRecord
  2
02_COORD_SYS
 70
0
 62
7
  6
CONTINUOUS
370
-3
390
F
  0
LAYER
  5
201
100
AcDbSymbolTableRecord
100
AcDbLayerTableRecord
  2
03_AXES
 70
0
 62
7
  6
CONTINUOUS
370
-3
390
F
  0
LAYER
  5
202
100
AcDbSymbolTableRecord
100
AcDbLayerTableRecord
  2
04_POINTS
 70
0
 62
7
  6
CONTINUOUS
370
-3
390
F
  0
LAYER
  5
203
100
AcDbSymbolTableRecord
100
AcDbLayerTableRecord
  2
05_CURVES
 70
0
 62
7
  6
CONTINUOUS
370
-3
390
F
  0
LAYER
  5
204
100
AcDbSymbolTableRecord
100
AcDbLayerTableRecord
  2
06_SURFS
 70
0
 62
7
  6
CONTINUOUS
370
-3
390
F
  0
LAYER
  5
205
100
AcDbSymbolTableRecord
100
AcDbLayerTableRecord
  2
07_COSMETICS
 70
0
 62
7
  6
CONTINUOUS
370
-3
390
F
  0
LAYER
  5
206
100
AcDbSymbolTableRecord
100
AcDbLayerTableRecord
  2
10_NOTES
 70
0
 62
7
  6
CONTINUOUS
370
-3
390
F
  0
LAYER
  5
207
100
AcDbSymbolTableRecord
100
AcDbLayerTableRecord
  2
11_NOTES_PUB
 70
0
 62
7
  6
CONTINUOUS
370
-3
390
F
  0
LAYER
  5
208
100
AcDbSymbolTableRecord
100
AcDbLayerTableRecord
  2
13_REF_GTOL
 70
0
 62
7
  6
CONTINUOUS
370
-3
390
F
  0
LAYER
  5
209
100
AcDbSymbolTableRecord
100
AcDbLayerTableRecord
  2
16_MISC
 70
0
 62
7
  6
CONTINUOUS
370
-3
390
F
  0
LAYER
  5
20A
100
AcDbSymbolTableRecord
100
AcDbLayerTableRecord
  2
17_NO_PRINT
 70
0
 62
7
  6
CONTINUOUS
370
-3
390
F
  0
LAYER
  5
20B
100
AcDbSymbolTableRecord
100
AcDbLayerTableRecord
  2
18_DATUM_CAMS_JOINTS
 70
0
 62
7
  6
CONTINUOUS
370
-3
390
F
  0
LAYER
  5
20C
100
AcDbSymbolTableRecord
100
AcDbLayerTableRecord
  2
19_DATUM_FUNCTIONAL
 70
0
 62
7
  6
CONTINUOUS
370
-3
390
F
  0
LAYER
  5
20D
100
AcDbSymbolTableRecord
100
AcDbLayerTableRecord
  2
20_DATUM_KINEMATIC_SCHEME
 70
0
 62
7
  6
CONTINUOUS
370
-3
390
F
  0
ENDTAB
  0
TABLE
  2
STYLE
  5
3
100
AcDbSymbolTable
 70
1
  0
STYLE
  5
11
100
AcDbSymbolTableRecord
100
AcDbTextStyleTableRecord
  2
STANDARD
 70
0
 40
0.0
 41
1.0
 50
0.0
 71
0
 42
0.2
  3
ARIAL.TTF
  4

  0
STYLE
  5
20E
100
AcDbSymbolTableRecord
100
AcDbTextStyleTableRecord
  2
TEXTSTYLE_1
 70
0
 40
0.0
 41
0.8
 50
0.0
 71
0
 42
0.2
  3
gdt
  4

  0
ENDTAB
  0
TABLE
  2
VIEW
  5
6
100
AcDbSymbolTable
 70
0
  0
ENDTAB
  0
TABLE
  2
UCS
  5
7
100
AcDbSymbolTable
 70
0
  0
ENDTAB
  0
TABLE
  2
APPID
  5
9
100
AcDbSymbolTable
 70
1
  0
APPID
  5
20F
100
AcDbSymbolTableRecord
100
AcDbRegAppTableRecord
  2
ACAD
 70
0
  0
ENDTAB
  0
TABLE
  2
BLOCK_RECORD
  5
1
100
AcDbSymbolTable
 70
0
  0
BLOCK_RECORD
  5
210
100
AcDbSymbolTableRecord
100
AcDbBlockTableRecord
  2
*Model_Space
  0
BLOCK_RECORD
  5
211
100
AcDbSymbolTableRecord
100
AcDbBlockTableRecord
  2
*Paper_Space
  0
BLOCK_RECORD
  5
212
100
AcDbSymbolTableRecord
100
AcDbBlockTableRecord
  2
_FILLED
  0
ENDTAB
  0
TABLE
  2
DIMSTYLE
  5
A
100
AcDbSymbolTable
 70
1
100
AcDbDimStyleTable
 71
0
  0
DIMSTYLE
105
213
100
AcDbSymbolTableRecord
100
AcDbDimStyleTableRecord
  2
STANDARD
 70
0
  3

  4

 40
1.0
 41
3.6266636739
 42
1.0
 43
0.38
 44
1.0
 45
0.0
 46
0.0
 47
0.01
 48
0.01
140
5.0773291434
141
0.09
142
0.0
143
25.4
144
1.0
145
0.0
146
1.0
147
0.625
 71
1
 72
0
 73
0
 74
0
 75
0
 76
0
 77
1
 78
8
 79
2
170
0
171
1
172
0
173
0
174
0
175
0
176
0
177
0
178
0
270
2
179
2
271
2
272
2
273
2
274
2
275
0
280
0
281
0
282
0
283
1
284
8
285
0
286
0
287
3
288
0
340
11
278
46
341
212
342
212
343
212
344
212
  0
ENDTAB
  0
ENDSEC
  0
SECTION
  2
BLOCKS
  0
BLOCK
  5
20
100
AcDbEntity
  8
0
100
AcDbBlockBegin
  2
*Model_Space
 70
0
 10
0.0
 20
0.0
 30
0.0
  3
*Model_Space
  1

  0
ENDBLK
  5
21
100
AcDbEntity
  8
0
100
AcDbBlockEnd
  0
BLOCK
  5
1C
100
AcDbEntity
  8
0
100
AcDbBlockBegin
  2
*Paper_Space
 70
0
 10
0.0
 20
0.0
 30
0.0
  3
*Paper_Space
  1

  0
ENDBLK
  5
1D
100
AcDbEntity
  8
0
100
AcDbBlockEnd
  0
BLOCK
  5
214
100
AcDbEntity
  8
0
100
AcDbBlockBegin
  2
_FILLED
 70
64
 10
0.0
 20
0.0
  3
_FILLED
  1

  0
SOLID
  5
215
100
AcDbEntity
  8
0
  6
BYBLOCK
 62
0
100
AcDbTrace
 10
0.0
 20
0.0
 11
-1.0
 21
0.25
 12
-1.0
 22
-0.25
 13
-1.0
 23
-0.25
  0
ENDBLK
  5
216
100
AcDbEntity
  8
0
  6
BYBLOCK
 62
0
100
AcDbBlockEnd
  0
ENDSEC
  0
SECTION
  2
ENTITIES
  0
LINE
  5
217
100
AcDbEntity
  8
0
100
AcDbLine
 62
7
  6
BYLAYER
 10
34.456640583
 20
225.5738018309
 11
34.456640583
 21
242.4889454892
  0
LINE
  5
218
100
AcDbEntity
  8
0
100
AcDbLine
 62
7
  6
BYLAYER
 10
37.356640583
 20
120.7738018309
 11
37.356640583
 21
225.5738018309
  0
LINE
  5
219
100
AcDbEntity
  8
0
100
AcDbLine
 62
7
  6
BYLAYER
 10
39.956640583
 20
245.9738018309
 11
39.956640583
 21
246.0440577447
  0
LINE
  5
21A
100
AcDbEntity
  8
0
100
AcDbLine
 62
7
  6
BYLAYER
 10
41.9572922971
 20
246.8423890259
 11
41.9572922972
 21
245.9738018309
  0
LINE
  5
21B
100
AcDbEntity
  8
0
100
AcDbLine
 62
7
  6
BYLAYER
 10
42.6643990784
 20
245.9738018309
 11
42.6643990783
 21
246.8423890259
  0
LINE
  5
21C
100
AcDbEntity
  8
0
100
AcDbLine
 62
7
  6
BYLAYER
 10
47.456640583
 20
225.5738018309
 11
47.456640583
 21
120.7738018309
  0
LINE
  5
21D
100
AcDbEntity
  8
0
100
AcDbLine
 62
7
  6
BYLAYER
 10
46.9766405831
 20
225.5738018309
 11
46.9805692214
 21
242.4891316432
  0
LINE
  5
21E
100
AcDbEntity
  8
0
100
AcDbLine
 62
7
  6
BYLAYER
 10
55.956640583
 20
247.8650683645
 11
55.956640583
 21
247.9738018309
  0
LINE
  5
21F
100
AcDbEntity
  8
0
100
AcDbLine
 62
7
  6
BYLAYER
 10
58.956640583
 20
292.6838390729
 11
58.956650374
 21
292.473716168
  0
LINE
  5
220
100
AcDbEntity
  8
0
100
AcDbLine
 62
7
  6
BYLAYER
 10
37.356640583
 20
120.7738018309
 11
272.556640583
 21
120.7738018309
  0
LINE
  5
221
100
AcDbEntity
  8
0
100
AcDbLine
 62
7
  6
BYLAYER
 10
68.6116406132
 20
310.0738018309
 11
68.6116406034
 21
288.4738018309
  0
LINE
  5
222
100
AcDbEntity
  8
0
100
AcDbLine
 62
7
  6
BYLAYER
 10
109.956640583
 20
247.9738018309
 11
109.956640583
 21
254.5738018309
  0
LINE
  5
223
100
AcDbEntity
  8
0
100
AcDbLine
 62
7
  6
BYLAYER
 10
113.4566405831
 20
247.9738018309
 11
113.456640583
 21
255.5738018309
  0
LINE
  5
224
100
AcDbEntity
  8
0
100
AcDbLine
 62
7
  6
BYLAYER
 10
132.956640583
 20
255.5738018309
 11
132.956640583
 21
288.4738018309
  0
LINE
  5
225
100
AcDbEntity
  8
0
100
AcDbLine
 62
7
  6
BYLAYER
 10
136.7293049617
 20
279.7248467583
 11
136.4848491822
 21
292.6482793804
  0
LINE
  5
226
100
AcDbEntity
  8
0
100
AcDbLine
 62
7
  6
BYLAYER
 10
165.656640583
 20
308.5738018309
 11
165.656640583
 21
310.0738018309
  0
LINE
  5
227
100
AcDbEntity
  8
0
100
AcDbLine
 62
7
  6
BYLAYER
 10
165.756640583
 20
308.5738018309
 11
165.756640583
 21
310.0738018309
  0
LINE
  5
228
100
AcDbEntity
  8
0
100
AcDbLine
 62
7
  6
BYLAYER
 10
34.456640583
 20
225.5738018309
 11
275.456640583
 21
225.5738018309
  0
LINE
  5
229
100
AcDbEntity
  8
0
100
AcDbLine
 62
7
  6
BYLAYER
 10
173.7030120761
 20
308.6392309166
 11
173.7030120761
 21
310.0738018309
  0
LINE
  5
22A
100
AcDbEntity
  8
0
100
AcDbLine
 62
7
  6
BYLAYER
 10
176.956640583
 20
255.5738018309
 11
176.956640583
 21
308.5738018309
  0
LINE
  5
22B
100
AcDbEntity
  8
0
100
AcDbLine
 62
7
  6
BYLAYER
 10
46.9805692214
 20
242.4891316432
 11
262.9326995808
 21
242.4891630892
  0
LINE
  5
22C
100
AcDbEntity
  8
0
100
AcDbLine
 62
7
  6
BYLAYER
 10
39.8063388075
 20
245.9738018309
 11
49.2202943118
 21
245.9738018309
  0
LINE
  5
22D
100
AcDbEntity
  8
0
100
AcDbLine
 62
7
  6
BYLAYER
 10
260.6929868543
 20
245.9738018309
 11
270.1837235545
 21
245.9738018309
  0
LINE
  5
22E
100
AcDbEntity
  8
0
100
AcDbLine
 62
7
  6
BYLAYER
 10
196.456640583
 20
247.9738018309
 11
196.456640583
 21
255.5738018309
  0
LINE
  5
22F
100
AcDbEntity
  8
0
100
AcDbLine
 62
7
  6
BYLAYER
 10
47.2220732543
 20
247.9738018309
 11
55.9553247996
 21
247.9738018309
  0
LINE
  5
230
100
AcDbEntity
  8
0
100
AcDbLine
 62
7
  6
BYLAYER
 10
56.1738731366
 20
247.9738018309
 11
253.7394080295
 21
247.9738018309
  0
LINE
  5
231
100
AcDbEntity
  8
0
100
AcDbLine
 62
7
  6
BYLAYER
 10
253.956640583
 20
247.9738018309
 11
262.6912079118
 21
247.9738018309
  0
LINE
  5
232
100
AcDbEntity
  8
0
100
AcDbLine
 62
7
  6
BYLAYER
 10
199.956640583
 20
254.5738018309
 11
109.956640583
 21
254.5738018309
  0
LINE
  5
233
100
AcDbEntity
  8
0
100
AcDbLine
 62
7
  6
BYLAYER
 10
110.956640583
 20
255.5738018309
 11
198.956640583
 21
255.5738018309
  0
LINE
  5
234
100
AcDbEntity
  8
0
100
AcDbLine
 62
7
  6
BYLAYER
 10
199.956640583
 20
247.9738018309
 11
199.956640583
 21
254.5738018309
  0
LINE
  5
235
100
AcDbEntity
  8
0
100
AcDbLine
 62
7
  6
BYLAYER
 10
164.0237809688
 20
270.0738018309
 11
145.8895002012
 21
270.0738018309
  0
LINE
  5
236
100
AcDbEntity
  8
0
100
AcDbLine
 62
7
  6
BYLAYER
 10
163.1994954803
 20
272.0738018309
 11
146.7137856745
 21
272.0738018309
  0
LINE
  5
237
100
AcDbEntity
  8
0
100
AcDbLine
 62
7
  6
BYLAYER
 10
173.1839675991
 20
279.7248467523
 11
136.7293049617
 21
279.7248467583
  0
LINE
  5
238
100
AcDbEntity
  8
0
100
AcDbLine
 62
7
  6
BYLAYER
 10
62.9569583229
 20
288.4738018309
 11
133.6997331483
 21
288.4738018309
  0
LINE
  5
239
100
AcDbEntity
  8
0
100
AcDbLine
 62
7
  6
BYLAYER
 10
68.611640604
 20
292.6482793806
 11
136.4848491822
 21
292.6482793804
  0
LINE
  5
23A
100
AcDbEntity
  8
0
100
AcDbLine
 62
7
  6
BYLAYER
 10
176.956640583
 20
308.5738018309
 11
175.5780327777
 21
308.5738018309
  0
LINE
  5
23B
100
AcDbEntity
  8
0
100
AcDbLine
 62
7
  6
BYLAYER
 10
165.656640583
 20
308.5738018309
 11
165.756640583
 21
308.5738018309
  0
LINE
  5
23C
100
AcDbEntity
  8
0
100
AcDbLine
 62
7
  6
BYLAYER
 10
173.7029714521
 20
308.6392309212
 11
165.756640583
 21
308.6392309119
  0
LINE
  5
23D
100
AcDbEntity
  8
0
100
AcDbLine
 62
7
  6
BYLAYER
 10
165.656640583
 20
308.639230912
 11
68.6116405954
 21
308.639230912
  0
LINE
  5
23E
100
AcDbEntity
  8
0
100
AcDbLine
 62
7
  6
BYLAYER
 10
253.956640583
 20
247.8645427881
 11
253.956640583
 21
247.9738018309
  0
LINE
  5
23F
100
AcDbEntity
  8
0
100
AcDbLine
 62
7
  6
BYLAYER
 10
255.9572922971
 20
247.0729572732
 11
255.9572922971
 21
246.9733576412
  0
LINE
  5
240
100
AcDbEntity
  8
0
100
AcDbLine
 62
7
  6
BYLAYER
 10
256.6643990783
 20
246.7281863538
 11
256.6643990783
 21
246.8423890259
  0
LINE
  5
241
100
AcDbEntity
  8
0
100
AcDbLine
 62
7
  6
BYLAYER
 10
60.4865321069
 20
310.0738018309
 11
165.656640583
 21
310.0738018309
  0
LINE
  5
242
100
AcDbEntity
  8
0
100
AcDbLine
 62
7
  6
BYLAYER
 10
165.756640583
 20
310.0738018309
 11
175.456621796
 21
310.0738018309
  0
LINE
  5
243
100
AcDbEntity
  8
0
100
AcDbLine
 62
7
  6
BYLAYER
 10
262.9366405831
 20
225.5738018309
 11
262.9326995808
 21
242.4891630892
  0
LINE
  5
244
100
AcDbEntity
  8
0
100
AcDbLine
 62
7
  6
BYLAYER
 10
262.456640583
 20
120.7738018309
 11
262.456640583
 21
225.5738018309
  0
LINE
  5
245
100
AcDbEntity
  8
0
100
AcDbLine
 62
7
  6
BYLAYER
 10
269.956640583
 20
245.9738018309
 11
269.956640583
 21
246.0440577447
  0
LINE
  5
246
100
AcDbEntity
  8
0
100
AcDbLine
 62
7
  6
BYLAYER
 10
272.556640583
 20
225.5738018309
 11
272.556640583
 21
120.7738018309
  0
LINE
  5
247
100
AcDbEntity
  8
0
100
AcDbLine
 62
7
  6
BYLAYER
 10
275.456640583
 20
225.5738018309
 11
275.456640583
 21
242.489091343
  0
ARC
  5
248
100
AcDbEntity
  8
0
100
AcDbCircle
 62
7
  6
BYLAYER
 10
-8107.7849138372
 20
442.8274124766
 40
8282.5749656893
100
AcDbArc
 50
358.8716440517
 51
359.0716953509
  0
ARC
  5
249
100
AcDbEntity
  8
0
100
AcDbCircle
 62
7
  6
BYLAYER
 10
-7362.061717392
 20
442.9252043959
 40
7538.8369993461
100
AcDbArc
 50
358.7589038222
 51
358.9788642649
  0
ARC
  5
24A
100
AcDbEntity
  8
0
100
AcDbCircle
 62
7
  6
BYLAYER
 10
49.2787811014
 20
225.5884063965
 40
22.4796791775
100
AcDbArc
 50
114.7959240431
 51
131.2516493142
  0
ARC
  5
24B
100
AcDbEntity
  8
0
100
AcDbCircle
 62
7
  6
BYLAYER
 10
49.2787811014
 20
225.5884063965
 40
22.4796791775
100
AcDbArc
 50
95.2494389932
 51
114.5015844049
  0
ARC
  5
24C
100
AcDbEntity
  8
0
100
AcDbCircle
 62
7
  6
BYLAYER
 10
41.6040424379
 20
236.7268190006
 40
9.0055631741
100
AcDbArc
 50
100.0165043971
 51
101.0903642819
  0
ARC
  5
24D
100
AcDbEntity
  8
0
100
AcDbCircle
 62
7
  6
BYLAYER
 10
47.9508666401
 20
263.6926561177
 40
17.6487258481
100
AcDbArc
 50
270.0187452205
 51
274.1840507154
  0
ARC
  5
24E
100
AcDbEntity
  8
0
100
AcDbCircle
 62
7
  6
BYLAYER
 10
47.9567779216
 20
263.1100673933
 40
17.0661361797
100
AcDbArc
 50
269.5346118557
 51
269.9995393083
  0
ARC
  5
24F
100
AcDbEntity
  8
0
100
AcDbCircle
 62
7
  6
BYLAYER
 10
110.956640583
 20
254.5738018309
 40
1.0
100
AcDbArc
 50
90.0
 51
180.0
  0
ARC
  5
250
100
AcDbEntity
  8
0
100
AcDbCircle
 62
7
  6
BYLAYER
 10
55.5313350991
 20
248.6934078717
 40
0.9663564878
100
AcDbArc
 50
306.2909627295
 51
307.1413491138
  0
ARC
  5
251
100
AcDbEntity
  8
0
100
AcDbCircle
 62
7
  6
BYLAYER
 10
262.5770267452
 20
225.567193753
 40
22.5015451717
100
AcDbArc
 50
103.1818538739
 51
105.5199268382
  0
ARC
  5
252
100
AcDbEntity
  8
0
100
AcDbCircle
 62
7
  6
BYLAYER
 10
260.6345000646
 20
225.5884063965
 40
22.4796791775
100
AcDbArc
 50
48.7483492714
 51
65.1996786782
  0
ARC
  5
253
100
AcDbEntity
  8
0
100
AcDbCircle
 62
7
  6
BYLAYER
 10
260.6345000646
 20
225.5884063965
 40
22.4796791775
100
AcDbArc
 50
65.5013677234
 51
84.7505610068
  0
ARC
  5
254
100
AcDbEntity
  8
0
100
AcDbCircle
 62
7
  6
BYLAYER
 10
262.5686593798
 20
225.5980208353
 40
22.4696032389
100
AcDbArc
 50
105.520401737
 51
107.1117326625
  0
ARC
  5
255
100
AcDbEntity
  8
0
100
AcDbCircle
 62
7
  6
BYLAYER
 10
262.5682920588
 20
225.6029741092
 40
22.4647157087
100
AcDbArc
 50
95.2401479903
 51
103.180973716
  0
ARC
  5
256
100
AcDbEntity
  8
0
100
AcDbCircle
 62
7
  6
BYLAYER
 10
268.3134457611
 20
236.7518064397
 40
8.9802687023
100
AcDbArc
 50
78.4174112587
 51
79.9890466454
  0
ARC
  5
257
100
AcDbEntity
  8
0
100
AcDbCircle
 62
7
  6
BYLAYER
 10
262.1599631171
 20
264.8895546739
 40
18.9770148923
100
AcDbArc
 50
253.3381872465
 51
253.5401962297
  0
ARC
  5
258
100
AcDbEntity
  8
0
100
AcDbCircle
 62
7
  6
BYLAYER
 10
262.1510775988
 20
264.8598593716
 40
18.9460187085
100
AcDbArc
 50
253.1450876782
 51
253.3381816537
  0
ARC
  5
259
100
AcDbEntity
  8
0
100
AcDbCircle
 62
7
  6
BYLAYER
 10
262.1439230109
 20
264.8362293777
 40
18.9213293439
100
AcDbArc
 50
253.0200385433
 51
253.1450747923
  0
ARC
  5
25A
100
AcDbEntity
  8
0
100
AcDbCircle
 62
7
  6
BYLAYER
 10
262.0533574347
 20
264.5067336692
 40
18.4680790512
100
AcDbArc
 50
253.0343377678
 51
263.9414250414
  0
ARC
  5
25B
100
AcDbEntity
  8
0
100
AcDbCircle
 62
7
  6
BYLAYER
 10
261.96597576
 20
263.837120462
 40
17.7929906413
100
AcDbArc
 50
263.9936529816
 51
265.8917525615
  0
ARC
  5
25C
100
AcDbEntity
  8
0
100
AcDbCircle
 62
7
  6
BYLAYER
 10
261.9622736392
 20
263.6994252856
 40
17.6553851304
100
AcDbArc
 50
265.8717229558
 51
269.9817194787
  0
ARC
  5
25D
100
AcDbEntity
  8
0
100
AcDbCircle
 62
7
  6
BYLAYER
 10
261.956497329
 20
263.1309453331
 40
17.0869042799
100
AcDbArc
 50
270.0004804003
 51
270.4697203506
  0
ARC
  5
25E
100
AcDbEntity
  8
0
100
AcDbCircle
 62
7
  6
BYLAYER
 10
198.956640583
 20
254.5738018309
 40
1.0
100
AcDbArc
 50
0.0
 51
90.0
  0
ARC
  5
25F
100
AcDbEntity
  8
0
100
AcDbCircle
 62
7
  6
BYLAYER
 10
254.3851848588
 20
248.6975749252
 40
0.9716398889
100
AcDbArc
 50
232.8672361761
 51
233.756041706
  0
ARC
  5
260
100
AcDbEntity
  8
0
100
AcDbCircle
 62
7
  6
BYLAYER
 10
62.9571165981
 20
292.4740147057
 40
4.000225482
100
AcDbArc
 50
180.0042054391
 51
269.9977126415
  0
ARC
  5
261
100
AcDbEntity
  8
0
100
AcDbCircle
 62
7
  6
BYLAYER
 10
175.456640583
 20
308.5738018309
 40
1.5
100
AcDbArc
 50
0.0
 51
90.0
  0
ARC
  5
262
100
AcDbEntity
  8
0
100
AcDbCircle
 62
7
  6
BYLAYER
 10
5120.3699911384
 20
292.693971052
 40
5061.4133505655
100
AcDbArc
 50
179.8201850167
 51
180.0001146952
  0
SPLINE
  5
263
100
AcDbEntity
  8
0
100
AcDbSpline
 62
7
  6
BYLAYER
 70
0
 71
3
 72
11
 73
7
 74
0
 42
0.0000001
 43
0.0000001
 44
0.0000000001
 40
0.0
 40
0.0
 40
0.0
 40
0.0
 40
0.2500115003
 40
0.5000027197
 40
0.7499943556
 40
1.0
 40
1.0
 40
1.0
 40
1.0
 10
60.4865207509
 20
310.0737758583
 30
0.0
 10
60.2914952327
 20
310.0737901265
 30
0.0
 10
59.89722436
 20
309.9964178773
 30
0.0
 10
59.3977166311
 20
309.6645754181
 30
0.0
 10
59.0619564943
 20
309.1675825748
 30
0.0
 10
58.9824856042
 20
308.7735189365
 30
0.0
 10
58.9818702921
 20
308.5784989564
 30
0.0
  0
SPLINE
  5
264
100
AcDbEntity
  8
0
100
AcDbSpline
 62
7
  6
BYLAYER
 70
0
 71
3
 72
13
 73
9
 74
0
 42
0.0000001
 43
0.0000001
 44
0.0000000001
 40
0.0
 40
0.0
 40
0.0
 40
0.0
 40
0.3479662345
 40
0.6473946253
 40
0.7708608055
 40
0.8727304348
 40
0.950012225
 40
1.0
 40
1.0
 40
1.0
 40
1.0
 10
49.2202943118
 20
245.9738018309
 30
0.0
 10
50.0536580962
 20
246.0338381968
 30
0.0
 10
51.5979185798
 20
246.256950568
 30
0.0
 10
53.387481902
 20
246.7451700079
 30
0.0
 10
54.5723868422
 20
247.1746342926
 30
0.0
 10
55.2437088731
 20
247.4542453269
 30
0.0
 10
55.7387598119
 20
247.6935554177
 30
0.0
 10
56.0065742968
 20
247.8434438336
 30
0.0
 10
56.1033080258
 20
247.9145036204
 30
0.0
  0
SPLINE
  5
265
100
AcDbEntity
  8
0
100
AcDbSpline
 62
7
  6
BYLAYER
 70
0
 71
3
 72
9
 73
5
 74
0
 42
0.0000001
 43
0.0000001
 44
0.0000000001
 40
0.0
 40
0.0
 40
0.0
 40
0.0
 40
0.2856982798
 40
1.0
 40
1.0
 40
1.0
 40
1.0
 10
56.1148051335
 20
247.9230783445
 30
0.0
 10
56.1207176164
 20
247.9275582691
 30
0.0
 10
56.1412009366
 20
247.9435002578
 30
0.0
 10
56.1609396606
 20
247.9605090127
 30
0.0
 10
56.1738731366
 20
247.9738018309
 30
0.0
  0
SPLINE
  5
266
100
AcDbEntity
  8
0
100
AcDbSpline
 62
7
  6
BYLAYER
 70
0
 71
3
 72
9
 73
5
 74
0
 42
0.0000001
 43
0.0000001
 44
0.0000000001
 40
0.0
 40
0.0
 40
0.0
 40
0.0
 40
0.2145720964
 40
1.0
 40
1.0
 40
1.0
 40
1.0
 10
253.7394080295
 20
247.9738018309
 30
0.0
 10
253.743304093
 20
247.9697975196
 30
0.0
 10
253.7620074872
 20
247.951666823
 30
0.0
 10
253.7823392056
 20
247.9352942901
 30
0.0
 10
253.7986408595
 20
247.9229458459
 30
0.0
  0
SPLINE
  5
267
100
AcDbEntity
  8
0
100
AcDbSpline
 62
7
  6
BYLAYER
 70
0
 71
3
 72
11
 73
7
 74
0
 42
0.0000001
 43
0.0000001
 44
0.0000000001
 40
0.0
 40
0.0
 40
0.0
 40
0.0
 40
0.1381154745
 40
0.3572718972
 40
0.6479865835
 40
1.0
 40
1.0
 40
1.0
 40
1.0
 10
253.810727447
 20
247.9139406
 30
0.0
 10
253.9239842938
 20
247.8308833018
 30
0.0
 10
254.2448551818
 20
247.6566666907
 30
0.0
 10
254.840923562
 20
247.377093246
 30
0.0
 10
255.656213047
 20
247.0531286399
 30
0.0
 10
256.2758367218
 20
246.8442756532
 30
0.0
 10
256.6181903975
 20
246.7397384685
 30
0.0
  0
SPLINE
  5
268
100
AcDbEntity
  8
0
100
AcDbSpline
 62
7
  6
BYLAYER
 70
0
 71
3
 72
9
 73
5
 74
0
 42
0.0000001
 43
0.0000001
 44
0.0000000001
 40
0.0
 40
0.0
 40
0.0
 40
0.0
 40
0.2278133721
 40
1.0
 40
1.0
 40
1.0
 40
1.0
 10
256.7829662142
 20
246.6902415405
 30
0.0
 10
257.0727459186
 20
246.604625808
 30
0.0
 10
258.3533471803
 20
246.2591003431
 30
0.0
 10
259.6714361037
 20
246.0474119945
 30
0.0
 10
260.6929868542
 20
245.9738187949
 30
0.0
  0
SPLINE
  5
269
100
AcDbEntity
  8
0
100
AcDbSpline
 62
7
  6
BYLAYER
 70
0
 71
3
 72
9
 73
5
 74
0
 42
0.0000001
 43
0.0000001
 44
0.0000000001
 40
0.0
 40
0.0
 40
0.0
 40
0.0
 40
0.5776338946
 40
1.0
 40
1.0
 40
1.0
 40
1.0
 10
173.1839761887
 20
279.7248459673
 30
0.0
 10
173.5353265866
 20
279.7179310897
 30
0.0
 10
174.1431419391
 20
279.6973760584
 30
0.0
 10
174.7514739301
 20
279.6673147766
 30
0.0
 10
175.0067081456
 20
279.6376071877
 30
0.0
  0
SPLINE
  5
26A
100
AcDbEntity
  8
0
100
AcDbSpline
 62
7
  6
BYLAYER
 70
0
 71
3
 72
10
 73
6
 74
0
 42
0.0000001
 43
0.0000001
 44
0.0000000001
 40
0.0
 40
0.0
 40
0.0
 40
0.0
 40
0.2296180851
 40
0.5987895345
 40
1.0
 40
1.0
 40
1.0
 40
1.0
 10
47.8143856315
 20
245.9412908411
 30
0.0
 10
47.7707449175
 20
245.8259631169
 30
0.0
 10
47.6647899607
 20
245.5221458694
 30
0.0
 10
47.5226069836
 20
245.0040039151
 30
0.0
 10
47.4218331878
 20
244.602775341
 30
0.0
 10
47.3721403826
 20
244.3931278569
 30
0.0
  0
SPLINE
  5
26B
100
AcDbEntity
  8
0
100
AcDbSpline
 62
7
  6
BYLAYER
 70
0
 71
3
 72
11
 73
7
 74
0
 42
0.0000001
 43
0.0000001
 44
0.0000000001
 40
0.0
 40
0.0
 40
0.0
 40
0.0
 40
0.3255509504
 40
0.4870120223
 40
0.6356965278
 40
1.0
 40
1.0
 40
1.0
 40
1.0
 10
164.0237809416
 20
270.0738018309
 30
0.0
 10
164.0237809417
 20
270.3199545249
 30
0.0
 10
163.997935231
 20
270.6874606659
 30
0.0
 10
163.8960777015
 20
271.1633786302
 30
0.0
 10
163.7489226222
 20
271.6294787915
 30
0.0
 10
163.4749493618
 20
272.0738018309
 30
0.0
 10
163.1994954551
 20
272.0738018309
 30
0.0
  0
SPLINE
  5
26C
100
AcDbEntity
  8
0
100
AcDbSpline
 62
7
  6
BYLAYER
 70
0
 71
3
 72
15
 73
11
 74
0
 42
0.0000001
 43
0.0000001
 44
0.0000000001
 40
0.0
 40
0.0
 40
0.0
 40
0.0
 40
0.1485019445
 40
0.284858053
 40
0.4053670418
 40
0.5152261882
 40
0.6244219236
 40
0.7404099183
 40
0.865746335
 40
1.0
 40
1.0
 40
1.0
 40
1.0
 10
175.0067089654
 20
279.6376080615
 30
0.0
 10
174.9884584005
 20
278.7974411395
 30
0.0
 10
174.8554974135
 20
277.1853655665
 30
0.0
 10
174.320523055
 20
274.9423944775
 30
0.0
 10
173.3880956866
 20
273.0588545336
 30
0.0
 10
172.0188504473
 20
271.6608252093
 30
0.0
 10
170.3087656455
 20
270.7845250136
 30
0.0
 10
168.3719978636
 20
270.3094277048
 30
0.0
 10
166.2530762094
 20
270.100701673
 30
0.0
 10
164.7835157858
 20
270.0738045682
 30
0.0
 10
164.0237809688
 20
270.0738018309
 30
0.0
  0
SPLINE
  5
26D
100
AcDbEntity
  8
0
100
AcDbSpline
 62
7
  6
BYLAYER
 70
0
 71
3
 72
9
 73
5
 74
0
 42
0.0000001
 43
0.0000001
 44
0.0000000001
 40
0.0
 40
0.0
 40
0.0
 40
0.0
 40
0.2607293652
 40
1.0
 40
1.0
 40
1.0
 40
1.0
 10
47.3721403612
 20
244.3931277643
 30
0.0
 10
46.9734349993
 20
244.5758779885
 30
0.0
 10
45.4200133588
 20
245.2196425444
 30
0.0
 10
43.7555897586
 20
245.6198758257
 30
0.0
 10
42.5153142843
 20
245.7105223237
 30
0.0
  0
SPLINE
  5
26E
100
AcDbEntity
  8
0
100
AcDbSpline
 62
7
  6
BYLAYER
 70
0
 71
3
 72
9
 73
5
 74
0
 42
0.0000001
 43
0.0000001
 44
0.0000000001
 40
0.0
 40
0.0
 40
0.0
 40
0.0
 40
0.2576722992
 40
1.0
 40
1.0
 40
1.0
 40
1.0
 10
42.5153142843
 20
245.7105223237
 30
0.0
 10
42.3025425792
 20
245.7260729093
 30
0.0
 10
41.4753769909
 20
245.7632013124
 30
0.0
 10
40.6429263446
 20
245.7020299499
 30
0.0
 10
40.0376881719
 20
245.5951166048
 30
0.0
  0
SPLINE
  5
26F
100
AcDbEntity
  8
0
100
AcDbSpline
 62
7
  6
BYLAYER
 70
0
 71
3
 72
9
 73
5
 74
0
 42
0.0000001
 43
0.0000001
 44
0.0000000001
 40
0.0
 40
0.0
 40
0.0
 40
0.0
 40
0.2584748577
 40
1.0
 40
1.0
 40
1.0
 40
1.0
 10
39.8717599086
 20
245.56420353
 30
0.0
 10
39.6055781947
 20
245.5120210358
 30
0.0
 10
38.5854770379
 20
245.2638651563
 30
0.0
 10
37.6123232624
 20
244.8195093128
 30
0.0
 10
36.9613678936
 20
244.393121438
 30
0.0
  0
SPLINE
  5
270
100
AcDbEntity
  8
0
100
AcDbSpline
 62
7
  6
BYLAYER
 70
0
 71
3
 72
9
 73
5
 74
0
 42
0.0000001
 43
0.0000001
 44
0.0000000001
 40
0.0
 40
0.0
 40
0.0
 40
0.0
 40
0.3913075918
 40
1.0
 40
1.0
 40
1.0
 40
1.0
 10
175.5780317751
 20
308.5739221854
 30
0.0
 10
175.3345053603
 20
308.5983399462
 30
0.0
 10
174.7087023855
 20
308.6188071786
 30
0.0
 10
174.0836969628
 20
308.6346208086
 30
0.0
 10
173.7030117254
 20
308.6392315127
 30
0.0
  0
SPLINE
  5
271
100
AcDbEntity
  8
0
100
AcDbSpline
 62
7
  6
BYLAYER
 70
0
 71
3
 72
9
 73
5
 74
0
 42
0.0000001
 43
0.0000001
 44
0.0000000001
 40
0.0
 40
0.0
 40
0.0
 40
0.0
 40
0.2171570544
 40
1.0
 40
1.0
 40
1.0
 40
1.0
 10
267.6134948325
 20
246.9572998623
 30
0.0
 10
267.227965882
 20
246.8313876558
 30
0.0
 10
265.4345897575
 20
246.3099546903
 30
0.0
 10
263.5585899549
 20
246.056589141
 30
0.0
 10
262.0965770493
 20
246.0446152549
 30
0.0
  0
SPLINE
  5
272
100
AcDbEntity
  8
0
100
AcDbSpline
 62
7
  6
BYLAYER
 70
0
 71
3
 72
9
 73
5
 74
0
 42
0.0000001
 43
0.0000001
 44
0.0000000001
 40
0.0
 40
0.0
 40
0.0
 40
0.0
 40
0.4956193774
 40
1.0
 40
1.0
 40
1.0
 40
1.0
 10
174.1720215315
 20
310.0737947719
 30
0.0
 10
174.3516395105
 20
310.0737957578
 30
0.0
 10
174.7178234945
 20
309.9975492172
 30
0.0
 10
175.0229217778
 20
309.7827679685
 30
0.0
 10
175.1500556709
 20
309.6514275346
 30
0.0
  0
SPLINE
  5
273
100
AcDbEntity
  8
0
100
AcDbSpline
 62
7
  6
BYLAYER
 70
0
 71
3
 72
9
 73
5
 74
0
 42
0.0000001
 43
0.0000001
 44
0.0000000001
 40
0.0
 40
0.0
 40
0.0
 40
0.0
 40
0.4955870291
 40
1.0
 40
1.0
 40
1.0
 40
1.0
 10
175.1500556709
 20
309.6514275346
 30
0.0
 10
175.2857454461
 20
309.5112481261
 30
0.0
 10
175.5038384197
 20
309.1698303034
 30
0.0
 10
175.5780220952
 20
308.772491443
 30
0.0
 10
175.5780317751
 20
308.5739221854
 30
0.0
  0
SPLINE
  5
274
100
AcDbEntity
  8
0
100
AcDbSpline
 62
7
  6
BYLAYER
 70
0
 71
3
 72
21
 73
17
 74
0
 42
0.0000001
 43
0.0000001
 44
0.0000000001
 40
0.0
 40
0.0
 40
0.0
 40
0.0
 40
0.0016814687
 40
0.0056129955
 40
0.0118817964
 40
0.020491876
 40
0.0446959755
 40
0.0780317214
 40
0.120157705
 40
0.1707065394
 40
0.2291864611
 40
0.2950312037
 40
0.4462868834
 40
0.6186375544
 40
0.8056816144
 40
1.0
 40
1.0
 40
1.0
 40
1.0
 10
58.9567614406
 20
292.4747543437
 30
0.0
 10
58.9582596154
 20
292.479957974
 30
0.0
 10
58.9799041606
 20
292.4853829082
 30
0.0
 10
59.0137200335
 20
292.4935248828
 30
0.0
 10
59.0757688341
 20
292.5011635697
 30
0.0
 10
59.1998698033
 20
292.5137474546
 30
0.0
 10
59.413326478
 20
292.5276247035
 30
0.0
 10
59.7335161102
 20
292.54314705
 30
0.0
 10
60.1392095995
 20
292.55802569
 30
0.0
 10
60.6257265898
 20
292.5723270743
 30
0.0
 10
61.1887491795
 20
292.5857918636
 30
0.0
 10
62.0760521549
 20
292.6032312998
 30
0.0
 10
63.3301263848
 20
292.6211491734
 30
0.0
 10
64.9745568808
 20
292.6365901521
 30
0.0
 10
66.7577152397
 20
292.646157874
 30
0.0
 10
67.985857102
 20
292.6483389131
 30
0.0
 10
68.6116405997
 20
292.6482751868
 30
0.0
  0
SPLINE
  5
275
100
AcDbEntity
  8
0
100
AcDbSpline
 62
7
  6
BYLAYER
 70
0
 71
3
 72
9
 73
5
 74
0
 42
0.0000001
 43
0.0000001
 44
0.0000000001
 40
0.0
 40
0.0
 40
0.0
 40
0.0
 40
0.2662618636
 40
1.0
 40
1.0
 40
1.0
 40
1.0
 10
262.9327009429
 20
242.4891698816
 30
0.0
 10
262.9026017168
 20
242.6590637891
 30
0.0
 10
262.782823213
 20
243.2959092651
 30
0.0
 10
262.6501416944
 20
243.9304203184
 30
0.0
 10
262.5411081817
 20
244.3932172891
 30
0.0
  0
SPLINE
  5
276
100
AcDbEntity
  8
0
100
AcDbSpline
 62
7
  6
BYLAYER
 70
0
 71
3
 72
9
 73
5
 74
0
 42
0.0000001
 43
0.0000001
 44
0.0000000001
 40
0.0
 40
0.0
 40
0.0
 40
0.0
 40
0.5280499189
 40
1.0
 40
1.0
 40
1.0
 40
1.0
 10
262.5411181171
 20
244.3932179499
 30
0.0
 10
263.7437300837
 20
244.944442559
 30
0.0
 10
266.1490609868
 20
245.7458533672
 30
0.0
 10
268.7101797041
 20
245.8009402119
 30
0.0
 10
269.8745437229
 20
245.595346405
 30
0.0
  0
SPLINE
  5
277
100
AcDbEntity
  8
0
100
AcDbSpline
 62
7
  6
BYLAYER
 70
0
 71
3
 72
9
 73
5
 74
0
 42
0.0000001
 43
0.0000001
 44
0.0000000001
 40
0.0
 40
0.0
 40
0.0
 40
0.0
 40
0.2592702327
 40
1.0
 40
1.0
 40
1.0
 40
1.0
 10
270.1165062199
 20
245.5492037222
 30
0.0
 10
270.3766099787
 20
245.4958815786
 30
0.0
 10
271.3701230864
 20
245.2457949335
 30
0.0
 10
272.3172069313
 20
244.8088579348
 30
0.0
 10
272.9517659287
 20
244.3932179499
 30
0.0
  0
SPLINE
  5
278
100
AcDbEntity
  8
0
100
AcDbSpline
 62
7
  6
BYLAYER
 70
0
 71
3
 72
25
 73
21
 74
0
 42
0.0000001
 43
0.0000001
 44
0.0000000001
 40
0.0
 40
0.0
 40
0.0
 40
0.0
 40
0.195072481
 40
0.3827328296
 40
0.5555706613
 40
0.6343736388
 40
0.7070831436
 40
0.7729975046
 40
0.831453603
 40
0.8819103247
 40
0.923867684
 40
0.9415342692
 40
0.9569374498
 40
0.9700357738
 40
0.9807907799
 40
0.9891808206
 40
0.9951898794
 40
0.9972964778
 40
0.998801729
 40
1.0
 40
1.0
 40
1.0
 40
1.0
 10
262.9326996203
 20
242.4891630892
 30
0.0
 10
263.7471325196
 20
242.488757591
 30
0.0
 10
265.3450499889
 20
242.498802024
 30
0.0
 10
267.6644260882
 20
242.5242587079
 30
0.0
 10
269.4984355157
 20
242.5424706933
 30
0.0
 10
270.8525864599
 20
242.5503651372
 30
0.0
 10
271.7603493692
 20
242.5523723582
 30
0.0
 10
272.5831658834
 20
242.5506733704
 30
0.0
 10
273.313055527
 20
242.5451942657
 30
0.0
 10
273.9428960816
 20
242.5367069175
 30
0.0
 10
274.4023774901
 20
242.5272248908
 30
0.0
 10
274.7155302615
 20
242.5187539501
 30
0.0
 10
274.9081293327
 20
242.512778159
 30
0.0
 10
275.0721019397
 20
242.5068304118
 30
0.0
 10
275.2061091344
 20
242.5016209656
 30
0.0
 10
275.3123006925
 20
242.496063922
 30
0.0
 10
275.378457545
 20
242.4941136603
 30
0.0
 10
275.4221588448
 20
242.489897976
 30
0.0
 10
275.4359160272
 20
242.4924178918
 30
0.0
 10
275.4593092832
 20
242.4848416799
 30
0.0
 10
275.4566401463
 20
242.4890729755
 30
0.0
  0
SPLINE
  5
279
100
AcDbEntity
  8
0
100
AcDbSpline
 62
7
  6
BYLAYER
 70
0
 71
3
 72
14
 73
10
 74
0
 42
0.0000001
 43
0.0000001
 44
0.0000000001
 40
0.0
 40
0.0
 40
0.0
 40
0.0
 40
0.3670729411
 40
0.5344226552
 40
0.6830904926
 40
0.8078190728
 40
0.9042569694
 40
0.9690827434
 40
1.0
 40
1.0
 40
1.0
 40
1.0
 10
68.6116405997
 20
308.6392200189
 30
0.0
 10
67.4332690193
 20
308.6392485824
 30
0.0
 10
65.7176681003
 20
308.6372550031
 30
0.0
 10
63.524844639
 20
308.6297987401
 30
0.0
 10
62.1099594984
 20
308.6228683944
 30
0.0
 10
60.9228299295
 20
308.6134055274
 30
0.0
 10
60.0045994653
 20
308.6055390421
 30
0.0
 10
59.3881361906
 20
308.5915190821
 30
0.0
 10
59.0803738608
 20
308.5878556575
 30
0.0
 10
58.9815657118
 20
308.5785000779
 30
0.0
  0
SPLINE
  5
27A
100
AcDbEntity
  8
0
100
AcDbSpline
 62
7
  6
BYLAYER
 70
0
 71
3
 72
9
 73
5
 74
0
 42
0.0000001
 43
0.0000001
 44
0.0000000001
 40
0.0
 40
0.0
 40
0.0
 40
0.0
 40
0.5776335549
 40
1.0
 40
1.0
 40
1.0
 40
1.0
 10
136.729304786
 20
279.7248467579
 30
0.0
 10
136.3779543225
 20
279.7179318932
 30
0.0
 10
135.7701385044
 20
279.6973768434
 30
0.0
 10
135.1618060245
 20
279.6673157037
 30
0.0
 10
134.9065714146
 20
279.6376079957
 30
0.0
  0
SPLINE
  5
27B
100
AcDbEntity
  8
0
100
AcDbSpline
 62
7
  6
BYLAYER
 70
0
 71
3
 72
9
 73
5
 74
0
 42
0.0000001
 43
0.0000001
 44
0.0000000001
 40
0.0
 40
0.0
 40
0.0
 40
0.0
 40
0.2334311848
 40
1.0
 40
1.0
 40
1.0
 40
1.0
 10
47.3721403826
 20
244.3931278569
 30
0.0
 10
47.3375889399
 20
244.2458703674
 30
0.0
 10
47.1963487159
 20
243.6134757358
 30
0.0
 10
47.0672024906
 20
242.9782711683
 30
0.0
 10
46.9805705875
 20
242.4891698816
 30
0.0
  0
SPLINE
  5
27C
100
AcDbEntity
  8
0
100
AcDbSpline
 62
7
  6
BYLAYER
 70
0
 71
3
 72
25
 73
21
 74
0
 42
0.0000001
 43
0.0000001
 44
0.0000000001
 40
0.0
 40
0.0
 40
0.0
 40
0.0
 40
0.1950392274
 40
0.3826172341
 40
0.5555241739
 40
0.6343619588
 40
0.7070878674
 40
0.7730009246
 40
0.8314671374
 40
0.8819243368
 40
0.9238871498
 40
0.9415540364
 40
0.9569525839
 40
0.9700463468
 40
0.9808016005
 40
0.9891937065
 40
0.9952002064
 40
0.9973035648
 40
0.9988054076
 40
1.0
 40
1.0
 40
1.0
 40
1.0
 10
46.9805691795
 20
242.4891234614
 30
0.0
 10
46.1662751425
 20
242.4887247962
 30
0.0
 10
44.5688404297
 20
242.4987754922
 30
0.0
 10
42.24965855
 20
242.524235319
 30
0.0
 10
40.4155591813
 20
242.5424545315
 30
0.0
 10
39.060906348
 20
242.5503942924
 30
0.0
 10
38.1529351438
 20
242.5524829465
 30
0.0
 10
37.3300135857
 20
242.5507390741
 30
0.0
 10
36.6000845332
 20
242.5453425089
 30
0.0
 10
35.9701775759
 20
242.5368032843
 30
0.0
 10
35.5106700278
 20
242.5273405199
 30
0.0
 10
35.1975122474
 20
242.5188700096
 30
0.0
 10
35.0049518953
 20
242.5128617846
 30
0.0
 10
34.8410162835
 20
242.5068762228
 30
0.0
 10
34.7070241788
 20
242.5016526617
 30
0.0
 10
34.6008202471
 20
242.4960993602
 30
0.0
 10
34.5347065236
 20
242.4941121434
 30
0.0
 10
34.4910150452
 20
242.4898588989
 30
0.0
 10
34.4773487963
 20
242.4923168279
 30
0.0
 10
34.4539085588
 20
242.4847731441
 30
0.0
 10
34.4566410034
 20
242.4889454892
 30
0.0
  0
SPLINE
  5
27D
100
AcDbEntity
  8
0
100
AcDbSpline
 62
7
  6
BYLAYER
 70
0
 71
3
 72
10
 73
6
 74
0
 42
0.0000001
 43
0.0000001
 44
0.0000000001
 40
0.0
 40
0.0
 40
0.0
 40
0.0
 40
0.221099201
 40
0.4695061387
 40
1.0
 40
1.0
 40
1.0
 40
1.0
 10
134.6958887033
 20
289.7201761502
 30
0.0
 10
134.7901172493
 20
289.9552422502
 30
0.0
 10
135.0375593977
 20
290.4347408847
 30
0.0
 10
135.6336935313
 20
291.4126561715
 30
0.0
 10
136.1401357119
 20
292.1478692616
 30
0.0
 10
136.4848489273
 20
292.6482592488
 30
0.0
  0
SPLINE
  5
27E
100
AcDbEntity
  8
0
100
AcDbSpline
 62
7
  6
BYLAYER
 70
0
 71
3
 72
11
 73
7
 74
0
 42
0.0000001
 43
0.0000001
 44
0.0000000001
 40
0.0
 40
0.0
 40
0.0
 40
0.0
 40
0.3643024078
 40
0.5129868648
 40
0.674448109
 40
1.0
 40
1.0
 40
1.0
 40
1.0
 10
146.7137911591
 20
272.0738018308
 30
0.0
 10
146.4383380829
 20
272.073801827
 30
0.0
 10
146.1643651676
 20
271.629480249
 30
0.0
 10
146.0172100615
 20
271.1633808486
 30
0.0
 10
145.9153521795
 20
270.6874621693
 30
0.0
 10
145.8895064044
 20
270.3199552132
 30
0.0
 10
145.8895064281
 20
270.0738018309
 30
0.0
  0
SPLINE
  5
27F
100
AcDbEntity
  8
0
100
AcDbSpline
 62
7
  6
BYLAYER
 70
0
 71
3
 72
15
 73
11
 74
0
 42
0.0000001
 43
0.0000001
 44
0.0000000001
 40
0.0
 40
0.0
 40
0.0
 40
0.0
 40
0.136593945
 40
0.2641408413
 40
0.3803913205
 40
0.4908342025
 40
0.6044554117
 40
0.7268289549
 40
0.8590506205
 40
1.0
 40
1.0
 40
1.0
 40
1.0
 10
173.1840064173
 20
279.7248460098
 30
0.0
 10
173.1675845077
 20
279.0606095938
 30
0.0
 10
173.0479694239
 20
277.7758011625
 30
0.0
 10
172.5644305574
 20
275.9771523453
 30
0.0
 10
171.7076450587
 20
274.4524723274
 30
0.0
 10
170.4492244611
 20
273.3303744455
 30
0.0
 10
168.8925773177
 20
272.6359483956
 30
0.0
 10
167.1338771533
 20
272.2602694954
 30
0.0
 10
165.214350036
 20
272.0936763509
 30
0.0
 10
163.8851314378
 20
272.0738080839
 30
0.0
 10
163.1995057396
 20
272.0738018306
 30
0.0
  0
SPLINE
  5
280
100
AcDbEntity
  8
0
100
AcDbSpline
 62
7
  6
BYLAYER
 70
0
 71
3
 72
15
 73
11
 74
0
 42
0.0000001
 43
0.0000001
 44
0.0000000001
 40
0.0
 40
0.0
 40
0.0
 40
0.0
 40
0.1411066415
 40
0.2734812087
 40
0.3959813515
 40
0.5095340147
 40
0.6199161334
 40
0.7360823877
 40
0.8635153172
 40
1.0
 40
1.0
 40
1.0
 40
1.0
 10
146.713786364
 20
272.0738018309
 30
0.0
 10
146.0274026809
 20
272.0738096582
 30
0.0
 10
144.6967093378
 20
272.0933187303
 30
0.0
 10
142.7749661451
 20
272.2603704437
 30
0.0
 10
141.0159893795
 20
272.6390995903
 30
0.0
 10
139.4592140596
 20
273.333143141
 30
0.0
 10
138.2029069955
 20
274.4562017942
 30
0.0
 10
137.3477335521
 20
275.9801268291
 30
0.0
 10
136.8652148314
 20
277.7774590138
 30
0.0
 10
136.7456763251
 20
279.0611475052
 30
0.0
 10
136.7293069817
 20
279.724846805
 30
0.0
  0
SPLINE
  5
281
100
AcDbEntity
  8
0
100
AcDbSpline
 62
7
  6
BYLAYER
 70
0
 71
3
 72
15
 73
11
 74
0
 42
0.0000001
 43
0.0000001
 44
0.0000000001
 40
0.0
 40
0.0
 40
0.0
 40
0.0
 40
0.1485021266
 40
0.2848643812
 40
0.4053766546
 40
0.5152251774
 40
0.6244208567
 40
0.7404095439
 40
0.8657464845
 40
1.0
 40
1.0
 40
1.0
 40
1.0
 10
134.9065714002
 20
279.6376079589
 30
0.0
 10
134.9247931842
 20
278.7974347185
 30
0.0
 10
135.0578132381
 20
277.1853119171
 30
0.0
 10
135.5926811651
 20
274.9422844564
 30
0.0
 10
136.5249300027
 20
273.0585752488
 30
0.0
 10
137.8945346151
 20
271.6609604325
 30
0.0
 10
139.6044358867
 20
270.784485627
 30
0.0
 10
141.5412743901
 20
270.3095129474
 30
0.0
 10
143.6601817739
 20
270.1005831836
 30
0.0
 10
145.1297620153
 20
270.0738039746
 30
0.0
 10
145.8895002012
 20
270.0738018309
 30
0.0
  0
SPLINE
  5
282
100
AcDbEntity
  8
0
100
AcDbSpline
 62
7
  6
BYLAYER
 70
0
 71
3
 72
8
 73
4
 74
0
 42
0.0000001
 43
0.0000001
 44
0.0000000001
 40
0.0
 40
0.0
 40
0.0
 40
0.0
 40
1.0
 40
1.0
 40
1.0
 40
1.0
 10
134.6948442131
 20
289.7201756492
 30
0.0
 10
134.7640593864
 20
286.3592914572
 30
0.0
 10
134.8352459397
 20
282.9984480282
 30
0.0
 10
134.9065714002
 20
279.6376079589
 30
0.0
  0
SPLINE
  5
283
100
AcDbEntity
  8
0
100
AcDbSpline
 62
7
  6
BYLAYER
 70
0
 71
3
 72
11
 73
7
 74
0
 42
0.0000001
 43
0.0000001
 44
0.0000000001
 40
0.0
 40
0.0
 40
0.0
 40
0.0
 40
0.1496160022
 40
0.3620897228
 40
0.6468656576
 40
1.0
 40
1.0
 40
1.0
 40
1.0
 10
133.6997331483
 20
288.4738018309
 30
0.0
 10
133.78215449
 20
288.4738018309
 30
0.0
 10
133.9759778833
 20
288.5625022491
 30
0.0
 10
134.2206283725
 20
288.8233404618
 30
0.0
 10
134.4750150557
 20
289.2196594885
 30
0.0
 10
134.6223655697
 20
289.5396448166
 30
0.0
 10
134.6948442131
 20
289.7201756492
 30
0.0
  0
SPLINE
  5
284
100
AcDbEntity
  8
0
100
AcDbSpline
 62
7
  6
BYLAYER
 70
0
 71
3
 72
9
 73
5
 74
0
 42
0.0000001
 43
0.0000001
 44
0.0000000001
 40
0.0
 40
0.0
 40
0.0
 40
0.0
 40
0.2721782228
 40
1.0
 40
1.0
 40
1.0
 40
1.0
 10
262.5411081817
 20
244.3932172891
 30
0.0
 10
262.5068865047
 20
244.5381143539
 30
0.0
 10
262.3763951444
 20
245.0692962438
 30
0.0
 10
262.2269038634
 20
245.5961335333
 30
0.0
 10
262.101032661
 20
245.9738357627
 30
0.0
  0
SPLINE
  5
285
100
AcDbEntity
  8
0
100
AcDbSpline
 62
7
  6
BYLAYER
 70
0
 71
3
 72
9
 73
5
 74
0
 42
0.0000001
 43
0.0000001
 44
0.0000000001
 40
0.0
 40
0.0
 40
0.0
 40
0.0
 40
0.2713192037
 40
1.0
 40
1.0
 40
1.0
 40
1.0
 10
47.8181588089
 20
246.0444941874
 30
0.0
 10
47.3455441001
 20
246.0483293233
 30
0.0
 10
45.6045066406
 20
246.1328978761
 30
0.0
 10
43.8789044145
 20
246.4733314814
 30
0.0
 10
42.6643990783
 20
246.8423890259
 30
0.0
  0
SPLINE
  5
286
100
AcDbEntity
  8
0
100
AcDbSpline
 62
7
  6
BYLAYER
 70
0
 71
3
 72
9
 73
5
 74
0
 42
0.0000001
 43
0.0000001
 44
0.0000000001
 40
0.0
 40
0.0
 40
0.0
 40
0.0
 40
0.5859599851
 40
1.0
 40
1.0
 40
1.0
 40
1.0
 10
255.9572922971
 20
247.0729572733
 30
0.0
 10
255.6270400696
 20
247.1882158286
 30
0.0
 10
255.0693535094
 20
247.4018487276
 30
0.0
 10
254.5252574425
 20
247.6497706709
 30
0.0
 10
254.307735021
 20
247.7671251621
 30
0.0
  0
SPLINE
  5
287
100
AcDbEntity
  8
0
100
AcDbSpline
 62
7
  6
BYLAYER
 70
0
 71
3
 72
9
 73
5
 74
0
 42
0.0000001
 43
0.0000001
 44
0.0000000001
 40
0.0
 40
0.0
 40
0.0
 40
0.0
 40
0.6098127628
 40
1.0
 40
1.0
 40
1.0
 40
1.0
 10
254.307735021
 20
247.7671251621
 30
0.0
 10
254.2398699916
 20
247.8037387027
 30
0.0
 10
254.1305149985
 20
247.8666277987
 30
0.0
 10
254.0253878486
 20
247.9389765832
 30
0.0
 10
253.9904362899
 20
247.9738018309
 30
0.0
  0
SPLINE
  5
288
100
AcDbEntity
  8
0
100
AcDbSpline
 62
7
  6
BYLAYER
 70
0
 71
3
 72
14
 73
10
 74
0
 42
0.0000001
 43
0.0000001
 44
0.0000000001
 40
0.0
 40
0.0
 40
0.0
 40
0.0
 40
0.040122454
 40
0.1108012292
 40
0.2094072179
 40
0.332616728
 40
0.4768969237
 40
0.6387134469
 40
1.0
 40
1.0
 40
1.0
 40
1.0
 10
55.9228448762
 20
247.9738018309
 30
0.0
 10
55.8565274933
 20
247.9077241116
 30
0.0
 10
55.6287705865
 20
247.7767136192
 30
0.0
 10
55.1950136338
 20
247.5569885883
 30
0.0
 10
54.5642651778
 20
247.2920277812
 30
0.0
 10
53.7624025543
 20
246.9981698954
 30
0.0
 10
52.8043480519
 20
246.7031677729
 30
0.0
 10
51.2924035505
 20
246.3287162932
 30
0.0
 10
50.0792887749
 20
246.1522173124
 30
0.0
 10
49.2385278141
 20
246.0909671998
 30
0.0
  0
ELLIPSE
  5
289
100
AcDbEntity
  8
0
100
AcDbEllipse
 62
7
  6
BYLAYER
 10
49.9858878825
 20
225.5884063967
 30
0.0
 11
22.4796791773
 21
-0.0
 31
0.0
 40
1.0
 41
1.6624163211
 42
1.9025416164
  0
ELLIPSE
  5
28A
100
AcDbEntity
  8
0
100
AcDbEllipse
 62
7
  6
BYLAYER
 10
263.9858878825
 20
225.5884063967
 30
0.0
 11
22.4796791773
 21
0.0
 31
0.0
 40
1.0
 41
7.9456016283
 42
8.1857269236
  0
ENDSEC
  0
SECTION
  2
OBJECTS
  0
DICTIONARY
  5
C
100
AcDbDictionary
280
0
281
1
  3
ACAD_GROUP
350
D
  3
ACAD_MLINESTYLE
350
17
  3
ACAD_LAYOUT
350
1A
  3
ACAD_PLOTSETTINGS
350
19
  3
ACAD_PLOTSTYLENAME
350
E
  0
DICTIONARY
  5
D
102
{ACAD_REACTORS
330
C
102
}
100
AcDbDictionary
280
0
281
1
  0
ACDBDICTIONARYWDFLT
  5
E
102
{ACAD_REACTORS
330
C
102
}
100
AcDbDictionary
281
1
  3
Normal
350
F
100
AcDbDictionaryWithDefault
340
F
  0
DICTIONARY
  5
17
102
{ACAD_REACTORS
330
C
102
}
100
AcDbDictionary
280
0
281
1
  3
Standard
350
18
  0
DICTIONARY
  5
19
102
{ACAD_REACTORS
330
C
102
}
100
AcDbDictionary
281
1
  0
DICTIONARY
  5
1A
102
{ACAD_REACTORS
330
C
102
}
100
AcDbDictionary
281
1
  3
Model
350
28B
  3
Layout1
350
28C
  0
ACDBPLACEHOLDER
  5
F
102
{ACAD_REACTORS
330
E
102
}
  0
MLINESTYLE
  5
18
102
{ACAD_REACTORS
330
17
102
}
100
AcDbMlineStyle
  2
STANDARD
 70
0
  3

 62
256
 51
90.0
 52
90.0
 71
2
 49
0.5
 62
256
  6
BYLAYER
 49
-0.5
 62
256
  6
BYLAYER
  0
LAYOUT
  5
28B
102
{ACAD_REACTORS
330
1A
102
}
100
AcDbPlotSettings
  1

  2
none_device
  4

  6

 40
0.0
 41
0.0
 42
0.0
 43
0.0
 44
210.0
 45
297.0
 46
0.0
 47
0.0
 48
0.0
 49
0.0
140
0.0
141
0.0
142
1.0
143
1.0
 70
1024
 72
1
 73
0
 74
0
  7

 75
0
147
1.0
148
0.0
149
0.0
100
AcDbLayout
  1
Model
 70
0
 71
0
 10
0.0
 20
0.0
 11
210.0
 21
297.0
 12
0.0
 22
0.0
 32
0.0
 14
0.0
 24
0.0
 34
0.0
 15
0.0
 25
0.0
 35
0.0
146
0.0
 13
0.0
 23
0.0
 33
0.0
 16
1.0
 26
0.0
 36
0.0
 17
0.0
 27
1.0
 37
0.0
 76
0
330
210
345
0
346
0
  0
LAYOUT
  5
28C
102
{ACAD_REACTORS
330
1A
102
}
100
AcDbPlotSettings
  1

  2
none_device
  4

  6

 40
0.0
 41
0.0
 42
0.0
 43
0.0
 44
210.0
 45
297.0
 46
0.0
 47
0.0
 48
0.0
 49
0.0
140
0.0
141
0.0
142
1.0
143
1.0
 70
0
 72
1
 73
0
 74
0
  7

 75
0
147
1.0
148
0.0
149
0.0
100
AcDbLayout
  1
Layout1
 70
0
 71
1
 10
0.0
 20
0.0
 11
210.0
 21
297.0
 12
0.0
 22
0.0
 32
0.0
 14
0.0
 24
0.0
 34
0.0
 15
0.0
 25
0.0
 35
0.0
146
0.0
 13
0.0
 23
0.0
 33
0.0
 16
1.0
 26
0.0
 36
0.0
 17
0.0
 27
1.0
 37
0.0
 76
0
330
211
345
0
346
0
  0
ENDSEC
  0
EOF
