999
DXF file: C:\Users\sesa63760\Dev\_Creo\CAD\MCADID0003391_3D-CAD\drw0001_7.dxf
999
Pro/ENGINEER 2019471 by Parametric Technology Corporation
  0
SECTION
  2
HEADER
  9
$ACADVER
  1
AC1024
  9
$DWGCODEPAGE
  3
ANSI_1252
  9
$EXTMAX
 10
39.1859514179
 20
55.420131291
 30
0.0
  9
$EXTMIN
 10
0.0
 20
0.0
 30
0.0
  9
$LIMMIN
 10
0.0
 20
0.0
  9
$LIMMAX
 10
39.1859514179
 20
55.420131291
  9
$VIEWCTR
 10
19.5929757089
 20
27.7100656455
  9
$VIEWSIZE
 40
55.420131291
  9
$CLAYER
  8
0
  9
$LTSCALE
 40
3.6125715212
  9
$CELTYPE
  6
BYLAYER
  9
$DIMSCALE
 40
1.0
  9
$DIMASZ
 40
0.4664994216
  9
$DIMEXO
 40
1.0
  9
$DIMDLI
 40
2.4959585056
  9
$DIMEXE
 40
1.0
  9
$DIMCEN
 40
0.5911480671
  9
$DIMLFAC
 40
1.0
  9
$DIMBLK
  1
_FILLED
  9
$DIMALT
 70
0
  9
$DIMALTF
 40
0.0393700787
  9
$DIMTXT
 40
0.6530991903
  9
$DIMTOL
 70
1
  9
$DIMLIM
 70
0
  9
$DIMTFAC
 40
1.0
  9
$DIMTP
 40
0.01
  9
$DIMTM
 40
0.01
  9
$DIMGAP
 40
0.625
  9
$DIMDSEP
 70
46
  9
$AUNITS
 70
0
  9
$PDMODE
 70
3
  9
$PDSIZE
 40
0.3125
  9
$HANDSEED
  5
268
  9
$TILEMODE
 70
1
  9
$MEASUREMENT
 70
1
  9
$INSUNITS
 70
4
  0
ENDSEC
  0
SECTION
  2
CLASSES
  0
CLASS
  1
ACDBDICTIONARYWDFLT
  2
AcDbDictionaryWithDefault
  3
AutoCAD 2000
 90
0
 91
1
280
0
281
0
  0
CLASS
  1
ACDBPLACEHOLDER
  2
AcDbPlaceHolder
  3
AutoCAD 2000
 90
0
 91
1
280
0
281
0
  0
CLASS
  1
LAYOUT
  2
AcDbLayout
  3
AutoCAD 2000
 90
0
 91
0
280
0
281
0
  0
ENDSEC
  0
SECTION
  2
TABLES
  0
TABLE
  2
VPORT
  5
8
100
AcDbSymbolTable
 70
2
  0
VPORT
  5
1F4
100
AcDbSymbolTableRecord
100
AcDbViewportTableRecord
  2
*ACTIVE
 70
0
 10
0.0
 20
0.0
 11
1.0
 21
1.0
 12
19.5929757089
 22
27.7100656455
 13
0.0
 23
0.0
 14
1.0
 24
1.0
 15
0.0
 25
0.0
 16
0.0
 26
0.0
 36
1.0
 17
0.0
 27
0.0
 37
0.0
 40
55.420131291
 41
0.7070707071
 42
50.0
 43
0.0
 44
0.0
 50
0.0
 51
0.0
 71
0
 72
100
 73
1
 74
1
 75
0
 76
0
 77
0
 78
0
  0
ENDTAB
  0
TABLE
  2
LTYPE
  5
5
100
AcDbSymbolTable
 70
6
  0
LTYPE
  5
14
100
AcDbSymbolTableRecord
100
AcDbLinetypeTableRecord
  2
BYBLOCK
 70
0
  3

 72
65
 73
0
 40
0.0
  0
LTYPE
  5
15
100
AcDbSymbolTableRecord
100
AcDbLinetypeTableRecord
  2
BYLAYER
 70
0
  3

 72
65
 73
0
 40
0.0
  0
LTYPE
  5
16
100
AcDbSymbolTableRecord
100
AcDbLinetypeTableRecord
  2
CONTINUOUS
 70
64
  3
Solid line
 72
65
 73
0
 40
0.0
  0
LTYPE
  5
1F5
100
AcDbSymbolTableRecord
100
AcDbLinetypeTableRecord
  2
CENTER
 70
64
  3
____ _ ____ _ ____ _ ____ _ ____ _ ____ _ ____
 72
65
 73
4
 40
0.6
 49
0.375
 74
0
 49
-0.075
 74
0
 49
0.075
 74
0
 49
-0.075
 74
0
  0
LTYPE
  5
1F6
100
AcDbSymbolTableRecord
100
AcDbLinetypeTableRecord
  2
HIDDEN
 70
64
  3
- - - - - - - - - - - - - - - - - - - -
 72
65
 73
2
 40
0.2
 49
0.1
 74
0
 49
-0.1
 74
0
  0
LTYPE
  5
1F7
100
AcDbSymbolTableRecord
100
AcDbLinetypeTableRecord
  2
PHANTOM
 70
64
  3
_____ _ _ _____ _ _ _____ _ _ _____
 72
65
 73
6
 40
0.8
 49
0.45
 74
0
 49
-0.05
 74
0
 49
0.1
 74
0
 49
-0.05
 74
0
 49
0.1
 74
0
 49
-0.05
 74
0
  0
LTYPE
  5
1F8
100
AcDbSymbolTableRecord
100
AcDbLinetypeTableRecord
  2
DOT
 70
64
  3
. . . . . . . . . . . . . . . . . . . .
 72
65
 73
2
 40
0.2
 49
0.1
 74
0
 49
-0.1
 74
0
  0
LTYPE
  5
1F9
100
AcDbSymbolTableRecord
100
AcDbLinetypeTableRecord
  2
DASHED
 70
64
  3
- - - - - - - - - - - - - - - - - - - -
 72
65
 73
2
 40
0.2
 49
0.1
 74
0
 49
-0.1
 74
0
  0
ENDTAB
  0
TABLE
  2
LAYER
  5
2
100
AcDbSymbolTable
 70
36
  0
LAYER
  5
10
100
AcDbSymbolTableRecord
100
AcDbLayerTableRecord
  2
0
 70
0
 62
7
  6
CONTINUOUS
370
-3
390
F
  0
LAYER
  5
1FA
100
AcDbSymbolTableRecord
100
AcDbLayerTableRecord
  2
DEFAULT_1
 70
0
 62
7
  6
CENTER
370
-3
390
F
  0
LAYER
  5
1FB
100
AcDbSymbolTableRecord
100
AcDbLayerTableRecord
  2
DEFAULT_2
 70
0
 62
7
  6
HIDDEN
370
-3
390
F
  0
LAYER
  5
1FC
100
AcDbSymbolTableRecord
100
AcDbLayerTableRecord
  2
DEFAULT_3
 70
0
 62
7
  6
PHANTOM
370
-3
390
F
  0
LAYER
  5
1FD
100
AcDbSymbolTableRecord
100
AcDbLayerTableRecord
  2
00_COMPONENTS
 70
0
 62
7
  6
CONTINUOUS
370
-3
390
F
  0
LAYER
  5
1FE
100
AcDbSymbolTableRecord
100
AcDbLayerTableRecord
  2
01_1_DEFAULT_DATUMS
 70
0
 62
7
  6
CONTINUOUS
370
-3
390
F
  0
LAYER
  5
1FF
100
AcDbSymbolTableRecord
100
AcDbLayerTableRecord
  2
01_PLANES
 70
0
 62
7
  6
CONTINUOUS
370
-3
390
F
  0
LAYER
  5
200
100
AcDbSymbolTableRecord
100
AcDbLayerTableRecord
  2
02_COORD_SYS
 70
0
 62
7
  6
CONTINUOUS
370
-3
390
F
  0
LAYER
  5
201
100
AcDbSymbolTableRecord
100
AcDbLayerTableRecord
  2
03_AXES
 70
0
 62
7
  6
CONTINUOUS
370
-3
390
F
  0
LAYER
  5
202
100
AcDbSymbolTableRecord
100
AcDbLayerTableRecord
  2
04_POINTS
 70
0
 62
7
  6
CONTINUOUS
370
-3
390
F
  0
LAYER
  5
203
100
AcDbSymbolTableRecord
100
AcDbLayerTableRecord
  2
05_CURVES
 70
0
 62
7
  6
CONTINUOUS
370
-3
390
F
  0
LAYER
  5
204
100
AcDbSymbolTableRecord
100
AcDbLayerTableRecord
  2
06_SURFS
 70
0
 62
7
  6
CONTINUOUS
370
-3
390
F
  0
LAYER
  5
205
100
AcDbSymbolTableRecord
100
AcDbLayerTableRecord
  2
07_COSMETICS
 70
0
 62
7
  6
CONTINUOUS
370
-3
390
F
  0
LAYER
  5
206
100
AcDbSymbolTableRecord
100
AcDbLayerTableRecord
  2
10_NOTES
 70
0
 62
7
  6
CONTINUOUS
370
-3
390
F
  0
LAYER
  5
207
100
AcDbSymbolTableRecord
100
AcDbLayerTableRecord
  2
11_NOTES_PUB
 70
0
 62
7
  6
CONTINUOUS
370
-3
390
F
  0
LAYER
  5
208
100
AcDbSymbolTableRecord
100
AcDbLayerTableRecord
  2
13_REF_GTOL
 70
0
 62
7
  6
CONTINUOUS
370
-3
390
F
  0
LAYER
  5
209
100
AcDbSymbolTableRecord
100
AcDbLayerTableRecord
  2
16_MISC
 70
0
 62
7
  6
CONTINUOUS
370
-3
390
F
  0
LAYER
  5
20A
100
AcDbSymbolTableRecord
100
AcDbLayerTableRecord
  2
17_NO_PRINT
 70
0
 62
7
  6
CONTINUOUS
370
-3
390
F
  0
LAYER
  5
20B
100
AcDbSymbolTableRecord
100
AcDbLayerTableRecord
  2
18_DATUM_CAMS_JOINTS
 70
0
 62
7
  6
CONTINUOUS
370
-3
390
F
  0
LAYER
  5
20C
100
AcDbSymbolTableRecord
100
AcDbLayerTableRecord
  2
19_DATUM_FUNCTIONAL
 70
0
 62
7
  6
CONTINUOUS
370
-3
390
F
  0
LAYER
  5
20D
100
AcDbSymbolTableRecord
100
AcDbLayerTableRecord
  2
20_DATUM_KINEMATIC_SCHEME
 70
0
 62
7
  6
CONTINUOUS
370
-3
390
F
  0
ENDTAB
  0
TABLE
  2
STYLE
  5
3
100
AcDbSymbolTable
 70
1
  0
STYLE
  5
11
100
AcDbSymbolTableRecord
100
AcDbTextStyleTableRecord
  2
STANDARD
 70
0
 40
0.0
 41
1.0
 50
0.0
 71
0
 42
0.2
  3
ARIAL.TTF
  4

  0
STYLE
  5
20E
100
AcDbSymbolTableRecord
100
AcDbTextStyleTableRecord
  2
TEXTSTYLE_1
 70
0
 40
0.0
 41
0.8
 50
0.0
 71
0
 42
0.2
  3
gdt
  4

  0
ENDTAB
  0
TABLE
  2
VIEW
  5
6
100
AcDbSymbolTable
 70
0
  0
ENDTAB
  0
TABLE
  2
UCS
  5
7
100
AcDbSymbolTable
 70
0
  0
ENDTAB
  0
TABLE
  2
APPID
  5
9
100
AcDbSymbolTable
 70
1
  0
APPID
  5
20F
100
AcDbSymbolTableRecord
100
AcDbRegAppTableRecord
  2
ACAD
 70
0
  0
ENDTAB
  0
TABLE
  2
BLOCK_RECORD
  5
1
100
AcDbSymbolTable
 70
0
  0
BLOCK_RECORD
  5
210
100
AcDbSymbolTableRecord
100
AcDbBlockTableRecord
  2
*Model_Space
  0
BLOCK_RECORD
  5
211
100
AcDbSymbolTableRecord
100
AcDbBlockTableRecord
  2
*Paper_Space
  0
BLOCK_RECORD
  5
212
100
AcDbSymbolTableRecord
100
AcDbBlockTableRecord
  2
_FILLED
  0
ENDTAB
  0
TABLE
  2
DIMSTYLE
  5
A
100
AcDbSymbolTable
 70
1
100
AcDbDimStyleTable
 71
0
  0
DIMSTYLE
105
213
100
AcDbSymbolTableRecord
100
AcDbDimStyleTableRecord
  2
STANDARD
 70
0
  3

  4

 40
1.0
 41
0.4664994216
 42
1.0
 43
0.38
 44
1.0
 45
0.0
 46
0.0
 47
0.01
 48
0.01
140
0.6530991903
141
0.09
142
0.0
143
25.4
144
1.0
145
0.0
146
1.0
147
0.625
 71
1
 72
0
 73
0
 74
0
 75
0
 76
0
 77
1
 78
8
 79
2
170
0
171
1
172
0
173
0
174
0
175
0
176
0
177
0
178
0
270
2
179
2
271
2
272
2
273
2
274
2
275
0
280
0
281
0
282
0
283
1
284
8
285
0
286
0
287
3
288
0
340
11
278
46
341
212
342
212
343
212
344
212
  0
ENDTAB
  0
ENDSEC
  0
SECTION
  2
BLOCKS
  0
BLOCK
  5
20
100
AcDbEntity
  8
0
100
AcDbBlockBegin
  2
*Model_Space
 70
0
 10
0.0
 20
0.0
 30
0.0
  3
*Model_Space
  1

  0
ENDBLK
  5
21
100
AcDbEntity
  8
0
100
AcDbBlockEnd
  0
BLOCK
  5
1C
100
AcDbEntity
  8
0
100
AcDbBlockBegin
  2
*Paper_Space
 70
0
 10
0.0
 20
0.0
 30
0.0
  3
*Paper_Space
  1

  0
ENDBLK
  5
1D
100
AcDbEntity
  8
0
100
AcDbBlockEnd
  0
BLOCK
  5
214
100
AcDbEntity
  8
0
100
AcDbBlockBegin
  2
_FILLED
 70
64
 10
0.0
 20
0.0
  3
_FILLED
  1

  0
SOLID
  5
215
100
AcDbEntity
  8
0
  6
BYBLOCK
 62
0
100
AcDbTrace
 10
0.0
 20
0.0
 11
-1.0
 21
0.25
 12
-1.0
 22
-0.25
 13
-1.0
 23
-0.25
  0
ENDBLK
  5
216
100
AcDbEntity
  8
0
  6
BYBLOCK
 62
0
100
AcDbBlockEnd
  0
ENDSEC
  0
SECTION
  2
ENTITIES
  0
LINE
  5
217
100
AcDbEntity
  8
0
100
AcDbLine
 62
7
  6
BYLAYER
 10
4.160809407
 20
43.5154308183
 11
4.160809407
 21
18.5154308183
  0
LINE
  5
218
100
AcDbEntity
  8
0
100
AcDbLine
 62
7
  6
BYLAYER
 10
4.160809407
 20
18.5054308183
 11
4.160809407
 21
13.5054308183
  0
LINE
  5
219
100
AcDbEntity
  8
0
100
AcDbLine
 62
7
  6
BYLAYER
 10
4.6201851831
 20
18.5154308183
 11
4.6201851831
 21
43.5154308183
  0
LINE
  5
21A
100
AcDbEntity
  8
0
100
AcDbLine
 62
7
  6
BYLAYER
 10
4.779646249
 20
13.5054308183
 11
4.779646249
 21
18.2449703252
  0
LINE
  5
21B
100
AcDbEntity
  8
0
100
AcDbLine
 62
7
  6
BYLAYER
 10
20.9234408812
 20
12.728556724
 11
17.2614781038
 21
12.7284566281
  0
LINE
  5
21C
100
AcDbEntity
  8
0
100
AcDbLine
 62
7
  6
BYLAYER
 10
21.8726035792
 20
13.0154308183
 11
21.0947861199
 21
13.0154308183
  0
LINE
  5
21D
100
AcDbEntity
  8
0
100
AcDbLine
 62
7
  6
BYLAYER
 10
22.3184698537
 20
13.1236396545
 11
17.0031489603
 21
13.1236396545
  0
LINE
  5
21E
100
AcDbEntity
  8
0
100
AcDbLine
 62
7
  6
BYLAYER
 10
22.0601431457
 20
12.7284578536
 11
21.7012583405
 21
12.728556724
  0
LINE
  5
21F
100
AcDbEntity
  8
0
100
AcDbLine
 62
7
  6
BYLAYER
 10
18.882722976
 20
12.1760776402
 11
18.8829919477
 21
12.1760352648
  0
LINE
  5
220
100
AcDbEntity
  8
0
100
AcDbLine
 62
7
  6
BYLAYER
 10
13.5452181969
 20
13.5039961662
 11
16.967960511
 21
13.5039961662
  0
LINE
  5
221
100
AcDbEntity
  8
0
100
AcDbLine
 62
7
  6
BYLAYER
 10
22.353658303
 20
13.5039961662
 11
25.7748737036
 21
13.5039961662
  0
LINE
  5
222
100
AcDbEntity
  8
0
100
AcDbLine
 62
7
  6
BYLAYER
 10
35.160809407
 20
13.5054308183
 11
25.9214160092
 21
13.5054308183
  0
LINE
  5
223
100
AcDbEntity
  8
0
100
AcDbLine
 62
7
  6
BYLAYER
 10
13.3986354673
 20
13.5054308183
 11
4.160809407
 21
13.5054308183
  0
LINE
  5
224
100
AcDbEntity
  8
0
100
AcDbLine
 62
7
  6
BYLAYER
 10
20.5634728156
 20
13.7154814395
 11
18.7581459459
 21
13.7154829125
  0
LINE
  5
225
100
AcDbEntity
  8
0
100
AcDbLine
 62
7
  6
BYLAYER
 10
21.7223719186
 20
14.3724745554
 11
17.5986791009
 21
14.3724745554
  0
LINE
  5
226
100
AcDbEntity
  8
0
100
AcDbLine
 62
7
  6
BYLAYER
 10
12.3677879708
 20
18.4554308183
 11
26.9538230999
 21
18.4554308183
  0
LINE
  5
227
100
AcDbEntity
  8
0
100
AcDbLine
 62
7
  6
BYLAYER
 10
35.160809407
 20
18.5154308183
 11
4.160809407
 21
18.5154308183
  0
LINE
  5
228
100
AcDbEntity
  8
0
100
AcDbLine
 62
7
  6
BYLAYER
 10
11.4801269228
 20
13.5054308183
 11
11.4801269228
 21
17.7375599463
  0
LINE
  5
229
100
AcDbEntity
  8
0
100
AcDbLine
 62
7
  6
BYLAYER
 10
12.3677879708
 20
18.4554308183
 11
12.3677879708
 21
17.5740838836
  0
LINE
  5
22A
100
AcDbEntity
  8
0
100
AcDbLine
 62
7
  6
BYLAYER
 10
13.1023005944
 20
13.5054308183
 11
13.1023005944
 21
18.4554308183
  0
LINE
  5
22B
100
AcDbEntity
  8
0
100
AcDbLine
 62
7
  6
BYLAYER
 10
14.5981340251
 20
18.4554308183
 11
14.5981340251
 21
13.5780994112
  0
LINE
  5
22C
100
AcDbEntity
  8
0
100
AcDbLine
 62
7
  6
BYLAYER
 10
17.0031489603
 20
13.1236396546
 11
16.967960511
 21
13.5258454712
  0
LINE
  5
22D
100
AcDbEntity
  8
0
100
AcDbLine
 62
7
  6
BYLAYER
 10
17.881953061
 20
14.4895478399
 11
17.881953061
 21
18.4554308183
  0
LINE
  5
22E
100
AcDbEntity
  8
0
100
AcDbLine
 62
7
  6
BYLAYER
 10
18.8829919477
 20
12.1760352648
 11
18.8829919477
 21
12.2161852572
  0
LINE
  5
22F
100
AcDbEntity
  8
0
100
AcDbLine
 62
7
  6
BYLAYER
 10
20.4386268663
 20
12.1760352648
 11
20.4386268663
 21
12.4339302345
  0
LINE
  5
230
100
AcDbEntity
  8
0
100
AcDbLine
 62
7
  6
BYLAYER
 10
21.4393150876
 20
14.48945465
 11
21.4393150876
 21
18.4554308183
  0
LINE
  5
231
100
AcDbEntity
  8
0
100
AcDbLine
 62
7
  6
BYLAYER
 10
22.3184698537
 20
13.1236396546
 11
22.353658303
 21
13.5258454712
  0
LINE
  5
232
100
AcDbEntity
  8
0
100
AcDbLine
 62
7
  6
BYLAYER
 10
24.7225092382
 20
13.5780626281
 11
24.7225092382
 21
18.4554308183
  0
LINE
  5
233
100
AcDbEntity
  8
0
100
AcDbLine
 62
7
  6
BYLAYER
 10
26.2176691601
 20
18.4554308183
 11
26.2176691601
 21
13.5054308183
  0
LINE
  5
234
100
AcDbEntity
  8
0
100
AcDbLine
 62
7
  6
BYLAYER
 10
26.9538230999
 20
17.5740838836
 11
26.9538230999
 21
18.4554308183
  0
LINE
  5
235
100
AcDbEntity
  8
0
100
AcDbLine
 62
7
  6
BYLAYER
 10
27.8418585079
 20
13.5054308183
 11
27.8418585079
 21
17.7376591371
  0
LINE
  5
236
100
AcDbEntity
  8
0
100
AcDbLine
 62
7
  6
BYLAYER
 10
34.5414230041
 20
13.5054308183
 11
34.5414230041
 21
18.2449526022
  0
LINE
  5
237
100
AcDbEntity
  8
0
100
AcDbLine
 62
7
  6
BYLAYER
 10
34.7014336308
 20
18.5154308183
 11
34.7014336308
 21
43.5154308183
  0
LINE
  5
238
100
AcDbEntity
  8
0
100
AcDbLine
 62
7
  6
BYLAYER
 10
35.160809407
 20
13.5054308183
 11
35.160809407
 21
18.5054308183
  0
LINE
  5
239
100
AcDbEntity
  8
0
100
AcDbLine
 62
7
  6
BYLAYER
 10
35.160809407
 20
18.5154308183
 11
35.160809407
 21
43.5154308183
  0
LINE
  5
23A
100
AcDbEntity
  8
0
100
AcDbLine
 62
7
  6
BYLAYER
 10
4.160809407
 20
43.5154308183
 11
35.160809407
 21
43.5154308183
  0
ARC
  5
23B
100
AcDbEntity
  8
0
100
AcDbCircle
 62
7
  6
BYLAYER
 10
13.5429159606
 20
21.0540781749
 40
7.5500823598
100
AcDbArc
 50
270.0174711238
 51
278.0341009211
  0
ARC
  5
23C
100
AcDbEntity
  8
0
100
AcDbCircle
 62
7
  6
BYLAYER
 10
19.287002163
 20
14.7309381279
 40
2.5866491425
100
AcDbArc
 50
253.7871708994
 51
261.008115851
  0
ARC
  5
23D
100
AcDbEntity
  8
0
100
AcDbCircle
 62
7
  6
BYLAYER
 10
18.9528935085
 20
14.6835779359
 40
2.4673928113
100
AcDbArc
 50
270.0187886598
 51
279.0877658388
  0
ARC
  5
23E
100
AcDbEntity
  8
0
100
AcDbCircle
 62
7
  6
BYLAYER
 10
18.9538968194
 20
14.6758563925
 40
2.459671143
100
AcDbArc
 50
260.8979690633
 51
269.9954764381
  0
ARC
  5
23F
100
AcDbEntity
  8
0
100
AcDbCircle
 62
7
  6
BYLAYER
 10
17.5012463093
 20
13.1672175259
 40
0.5
100
AcDbArc
 50
185.0
 51
241.3209388554
  0
ARC
  5
240
100
AcDbEntity
  8
0
100
AcDbCircle
 62
7
  6
BYLAYER
 10
19.5351738561
 20
171.9331069119
 40
154.4190261013
100
AcDbArc
 50
273.0836312604
 51
275.5766710014
  0
ARC
  5
241
100
AcDbEntity
  8
0
100
AcDbCircle
 62
7
  6
BYLAYER
 10
19.6607906123
 20
-9.2863010144
 40
23.0194880746
100
AcDbArc
 50
87.7526370415
 51
92.2472694567
  0
CIRCLE
  5
242
100
AcDbEntity
  8
0
100
AcDbCircle
 62
7
  6
BYLAYER
 10
19.660809407
 20
31.0154308183
 40
7.8716585489
  0
ARC
  5
243
100
AcDbEntity
  8
0
100
AcDbCircle
 62
7
  6
BYLAYER
 10
25.7754680251
 20
21.0256710624
 40
7.5216749197
100
AcDbArc
 50
261.9527361406
 51
269.9954728018
  0
CIRCLE
  5
244
100
AcDbEntity
  8
0
100
AcDbCircle
 62
7
  6
BYLAYER
 10
19.660809407
 20
31.0154308183
 40
6.1940342601
  0
CIRCLE
  5
245
100
AcDbEntity
  8
0
100
AcDbCircle
 62
7
  6
BYLAYER
 10
19.660809407
 20
31.0154308183
 40
5.7213329897
  0
ARC
  5
246
100
AcDbEntity
  8
0
100
AcDbCircle
 62
7
  6
BYLAYER
 10
19.660809407
 20
17.1151647428
 40
5.0
100
AcDbArc
 50
241.3209414003
 51
258.2033517368
  0
ARC
  5
247
100
AcDbEntity
  8
0
100
AcDbCircle
 62
7
  6
BYLAYER
 10
19.660809407
 20
17.1151647428
 40
5.0
100
AcDbArc
 50
278.9494783858
 51
298.6790605622
  0
CIRCLE
  5
248
100
AcDbEntity
  8
0
100
AcDbCircle
 62
7
  6
BYLAYER
 10
19.660809407
 20
31.0154308183
 40
4.2688380792
  0
CIRCLE
  5
249
100
AcDbEntity
  8
0
100
AcDbCircle
 62
7
  6
BYLAYER
 10
19.660809407
 20
31.0154308183
 40
4.2278006321
  0
CIRCLE
  5
24A
100
AcDbEntity
  8
0
100
AcDbCircle
 62
7
  6
BYLAYER
 10
19.660809407
 20
31.0154308183
 40
4.1216360992
  0
CIRCLE
  5
24B
100
AcDbEntity
  8
0
100
AcDbCircle
 62
7
  6
BYLAYER
 10
19.660809407
 20
31.0154308183
 40
4.0
  0
ARC
  5
24C
100
AcDbEntity
  8
0
100
AcDbCircle
 62
7
  6
BYLAYER
 10
20.0609318655
 20
14.7135505963
 40
2.5688678517
100
AcDbArc
 50
253.7621557355
 51
261.0392228948
  0
ARC
  5
24D
100
AcDbEntity
  8
0
100
AcDbCircle
 62
7
  6
BYLAYER
 10
20.6534264483
 20
14.7467396464
 40
2.4316952483
100
AcDbArc
 50
260.7333045054
 51
264.9290844856
  0
ARC
  5
24E
100
AcDbEntity
  8
0
100
AcDbCircle
 62
7
  6
BYLAYER
 10
21.8203725046
 20
13.1672175259
 40
0.5
100
AcDbArc
 50
298.6790611446
 51
355.0
  0
ARC
  5
24F
100
AcDbEntity
  8
0
100
AcDbCircle
 62
7
  6
BYLAYER
 10
19.842671883
 20
172.6778770583
 40
155.1658051033
100
AcDbArc
 50
264.4292440335
 51
266.9105827817
  0
SPLINE
  5
250
100
AcDbEntity
  8
0
100
AcDbSpline
 62
7
  6
BYLAYER
 70
0
 71
3
 72
9
 73
5
 74
0
 42
0.0000001
 43
0.0000001
 44
0.0000000001
 40
0.0
 40
0.0
 40
0.0
 40
0.0
 40
0.2554319502
 40
1.0
 40
1.0
 40
1.0
 40
1.0
 10
20.9233237912
 20
12.7284815402
 30
0.0
 10
20.8775217608
 20
12.6939929813
 30
0.0
 10
20.6947916796
 20
12.5636065543
 30
0.0
 10
20.4981661788
 20
12.4524229547
 30
0.0
 10
20.3459867651
 20
12.3833358083
 30
0.0
  0
SPLINE
  5
251
100
AcDbEntity
  8
0
100
AcDbSpline
 62
7
  6
BYLAYER
 70
0
 71
3
 72
9
 73
5
 74
0
 42
0.0000001
 43
0.0000001
 44
0.0000000001
 40
0.0
 40
0.0
 40
0.0
 40
0.0
 40
0.5048969041
 40
1.0
 40
1.0
 40
1.0
 40
1.0
 10
20.3459867651
 20
12.3833358083
 30
0.0
 10
20.2360344723
 20
12.3334191345
 30
0.0
 10
20.0116690645
 20
12.2483748965
 30
0.0
 10
19.7777781146
 20
12.1944555762
 30
0.0
 10
19.660809407
 20
12.1760352648
 30
0.0
  0
SPLINE
  5
252
100
AcDbEntity
  8
0
100
AcDbSpline
 62
7
  6
BYLAYER
 70
0
 71
3
 72
10
 73
6
 74
0
 42
0.0000001
 43
0.0000001
 44
0.0000000001
 40
0.0
 40
0.0
 40
0.0
 40
0.0
 40
0.2711349188
 40
0.5300563382
 40
1.0
 40
1.0
 40
1.0
 40
1.0
 10
21.094758741
 20
13.0154308183
 30
0.0
 10
21.0878642669
 20
12.9855018352
 30
0.0
 10
21.0701348902
 20
12.9278077935
 30
0.0
 10
21.020741518
 20
12.8256956756
 30
0.0
 10
20.9658489703
 20
12.7605026444
 30
0.0
 10
20.9233237912
 20
12.7284815402
 30
0.0
  0
SPLINE
  5
253
100
AcDbEntity
  8
0
100
AcDbSpline
 62
7
  6
BYLAYER
 70
0
 71
3
 72
11
 73
7
 74
0
 42
0.0000001
 43
0.0000001
 44
0.0000000001
 40
0.0
 40
0.0
 40
0.0
 40
0.0
 40
0.2417578629
 40
0.4879564595
 40
0.740261646
 40
1.0
 40
1.0
 40
1.0
 40
1.0
 10
20.4386268663
 20
12.1760352648
 30
0.0
 10
20.5493692713
 20
12.1934750539
 30
0.0
 10
20.7707908958
 20
12.2436524381
 30
0.0
 10
21.0938863856
 20
12.362162302
 30
0.0
 10
21.4073220648
 20
12.5233072462
 30
0.0
 10
21.6049205645
 20
12.6560284722
 30
0.0
 10
21.701138262
 20
12.7284796213
 30
0.0
  0
SPLINE
  5
254
100
AcDbEntity
  8
0
100
AcDbSpline
 62
7
  6
BYLAYER
 70
0
 71
3
 72
14
 73
10
 74
0
 42
0.0000001
 43
0.0000001
 44
0.0000000001
 40
0.0
 40
0.0
 40
0.0
 40
0.0
 40
0.3382113976
 40
0.4875307248
 40
0.62130507
 40
0.7390937075
 40
0.8408619936
 40
0.9272596147
 40
1.0
 40
1.0
 40
1.0
 40
1.0
 10
34.5412545676
 20
18.2449383245
 30
0.0
 10
34.6179324263
 20
18.256864784
 30
0.0
 10
34.7279157218
 20
18.2787167446
 30
0.0
 10
34.8647678244
 20
18.3189222296
 30
0.0
 10
34.9510402042
 20
18.3510924218
 30
0.0
 10
35.0243832158
 20
18.385917307
 30
0.0
 10
35.0842131222
 20
18.4230228339
 30
0.0
 10
35.130069575
 20
18.461884475
 30
0.0
 10
35.1527592682
 20
18.4910824175
 30
0.0
 10
35.160809407
 20
18.505702297
 30
0.0
  0
SPLINE
  5
255
100
AcDbEntity
  8
0
100
AcDbSpline
 62
7
  6
BYLAYER
 70
0
 71
3
 72
9
 73
5
 74
0
 42
0.0000001
 43
0.0000001
 44
0.0000000001
 40
0.0
 40
0.0
 40
0.0
 40
0.0
 40
0.4843495075
 40
1.0
 40
1.0
 40
1.0
 40
1.0
 10
26.9539356765
 20
17.5740838836
 30
0.0
 10
27.0956888756
 20
17.608303957
 30
0.0
 10
27.3905179607
 20
17.6701570699
 30
0.0
 10
27.6880578613
 20
17.7169614905
 30
0.0
 10
27.841919981
 20
17.7376673201
 30
0.0
  0
SPLINE
  5
256
100
AcDbEntity
  8
0
100
AcDbSpline
 62
7
  6
BYLAYER
 70
0
 71
3
 72
9
 73
5
 74
0
 42
0.0000001
 43
0.0000001
 44
0.0000000001
 40
0.0
 40
0.0
 40
0.0
 40
0.0
 40
0.2614586885
 40
1.0
 40
1.0
 40
1.0
 40
1.0
 10
11.4801073359
 20
17.7375834367
 30
0.0
 10
11.5580812094
 20
17.7271061298
 30
0.0
 10
11.8558259342
 20
17.6836385731
 30
0.0
 10
12.1516649358
 20
17.6262997592
 30
0.0
 10
12.3676754385
 20
17.5740838836
 30
0.0
  0
SPLINE
  5
257
100
AcDbEntity
  8
0
100
AcDbSpline
 62
7
  6
BYLAYER
 70
0
 71
3
 72
14
 73
10
 74
0
 42
0.0000001
 43
0.0000001
 44
0.0000000001
 40
0.0
 40
0.0
 40
0.0
 40
0.0
 40
0.0726055637
 40
0.1588753313
 40
0.2605587973
 40
0.3783228434
 40
0.5121301529
 40
0.6615314001
 40
1.0
 40
1.0
 40
1.0
 40
1.0
 10
4.160809407
 20
18.5057056808
 30
0.0
 10
4.168777423
 20
18.4910822088
 30
0.0
 10
4.1913283603
 20
18.4618609589
 30
0.0
 10
4.2370386707
 20
18.4229754775
 30
0.0
 10
4.2967690626
 20
18.3858518623
 30
0.0
 10
4.3700599571
 20
18.3510166991
 30
0.0
 10
4.4563218375
 20
18.3188423118
 30
0.0
 10
4.5932167726
 20
18.2786412088
 30
0.0
 10
4.7032484853
 20
18.2568134439
 30
0.0
 10
4.7799640208
 20
18.2449080873
 30
0.0
  0
SPLINE
  5
258
100
AcDbEntity
  8
0
100
AcDbSpline
 62
7
  6
BYLAYER
 70
0
 71
3
 72
9
 73
5
 74
0
 42
0.0000001
 43
0.0000001
 44
0.0000000001
 40
0.0
 40
0.0
 40
0.0
 40
0.0
 40
0.5354827741
 40
1.0
 40
1.0
 40
1.0
 40
1.0
 10
18.7581491927
 20
13.7154303896
 30
0.0
 10
18.5778961918
 20
13.7081845264
 30
0.0
 10
18.2414329241
 20
13.690441526
 30
0.0
 10
17.905529894
 20
13.6640631829
 30
0.0
 10
17.7497302689
 20
13.6493690694
 30
0.0
  0
SPLINE
  5
259
100
AcDbEntity
  8
0
100
AcDbSpline
 62
7
  6
BYLAYER
 70
0
 71
3
 72
18
 73
14
 74
0
 42
0.0000001
 43
0.0000001
 44
0.0000000001
 40
0.0
 40
0.0
 40
0.0
 40
0.0
 40
0.2228885148
 40
0.4210987468
 40
0.5923245114
 40
0.7347782096
 40
0.8472836781
 40
0.9288203895
 40
0.9578405858
 40
0.9790597104
 40
0.9868063402
 40
0.9927311431
 40
1.0
 40
1.0
 40
1.0
 40
1.0
 10
17.7497302689
 20
13.6493690694
 30
0.0
 10
17.6908767598
 20
13.6438183492
 30
0.0
 10
17.57974724
 20
13.6326655482
 30
0.0
 10
17.4236560854
 20
13.614869148
 30
0.0
 10
17.2890146066
 20
13.5974077271
 30
0.0
 10
17.1771992024
 20
13.5807816696
 30
0.0
 10
17.0892954312
 20
13.5653195513
 30
0.0
 10
17.0314063284
 20
13.5529688125
 30
0.0
 10
16.9977732986
 20
13.5433252425
 30
0.0
 10
16.9833138943
 20
13.5381452902
 30
0.0
 10
16.9749767185
 20
13.5339018752
 30
0.0
 10
16.9704709199
 20
13.5309711327
 30
0.0
 10
16.967787439
 20
13.5277670632
 30
0.0
 10
16.9679530689
 20
13.5258463389
 30
0.0
  0
SPLINE
  5
25A
100
AcDbEntity
  8
0
100
AcDbSpline
 62
7
  6
BYLAYER
 70
0
 71
3
 72
24
 73
20
 74
0
 42
0.0000001
 43
0.0000001
 44
0.0000000001
 40
0.0
 40
0.0
 40
0.0
 40
0.0
 40
0.0023545226
 40
0.0040839289
 40
0.0062794148
 40
0.0121752348
 40
0.0201578162
 40
0.0302596396
 40
0.0424901278
 40
0.0733234232
 40
0.1125153362
 40
0.1598305599
 40
0.2150218441
 40
0.2777756864
 40
0.3476983654
 40
0.4243906014
 40
0.5963434521
 40
0.7898502601
 40
1.0
 40
1.0
 40
1.0
 40
1.0
 10
22.3536611478
 20
13.5258457105
 30
0.0
 10
22.3537831503
 20
13.5272583676
 30
0.0
 10
22.3523477179
 20
13.5296765135
 30
0.0
 10
22.3494783563
 20
13.5320465561
 30
0.0
 10
22.3444447757
 20
13.5352320508
 30
0.0
 10
22.3355710364
 20
13.5391394272
 30
0.0
 10
22.3219191545
 20
13.5438784484
 30
0.0
 10
22.30436362
 20
13.5489084293
 30
0.0
 10
22.2732864426
 20
13.5566262938
 30
0.0
 10
22.224753354
 20
13.5666199385
 30
0.0
 10
22.1551527758
 20
13.5788546246
 30
0.0
 10
22.0708080225
 20
13.5918359984
 30
0.0
 10
21.9722095776
 20
13.6053810062
 30
0.0
 10
21.8599270576
 20
13.6192740742
 30
0.0
 10
21.7346222799
 20
13.6332921979
 30
0.0
 10
21.5437471022
 20
13.6525828792
 30
0.0
 10
21.2784300557
 20
13.6752838832
 30
0.0
 10
20.9325503003
 20
13.6984489856
 30
0.0
 10
20.6897404351
 20
13.7103544174
 30
0.0
 10
20.5632884209
 20
13.7154377305
 30
0.0
  0
SPLINE
  5
25B
100
AcDbEntity
  8
0
100
AcDbSpline
 62
7
  6
BYLAYER
 70
0
 71
3
 72
10
 73
6
 74
0
 42
0.0000001
 43
0.0000001
 44
0.0000000001
 40
0.0
 40
0.0
 40
0.0
 40
0.0
 40
0.4699422135
 40
0.7288644498
 40
1.0
 40
1.0
 40
1.0
 40
1.0
 10
21.701138262
 20
12.7284796213
 30
0.0
 10
21.7436638658
 20
12.760501045
 30
0.0
 10
21.7985608267
 20
12.8256916985
 30
0.0
 10
21.84795293
 20
12.9278064691
 30
0.0
 10
21.8656823138
 20
12.9855013744
 30
0.0
 10
21.8725768939
 20
13.0154308183
 30
0.0
  0
SPLINE
  5
25C
100
AcDbEntity
  8
0
100
AcDbSpline
 62
7
  6
BYLAYER
 70
0
 71
3
 72
12
 73
8
 74
0
 42
0.0000001
 43
0.0000001
 44
0.0000000001
 40
0.0
 40
0.0
 40
0.0
 40
0.0
 40
0.303487724
 40
0.5730975229
 40
0.8060532104
 40
0.9080321749
 40
1.0
 40
1.0
 40
1.0
 40
1.0
 10
17.5986791009
 20
14.3724745554
 30
0.0
 10
17.297370141
 20
14.2845718997
 30
0.0
 10
16.7283783495
 20
14.1185914986
 30
0.0
 10
15.9260869828
 20
13.8921526012
 30
0.0
 10
15.3210305584
 20
13.7342026245
 30
0.0
 10
14.890695985
 20
13.6353733856
 30
0.0
 10
14.6940645192
 20
13.595569336
 30
0.0
 10
14.6005069441
 20
13.5784339454
 30
0.0
  0
SPLINE
  5
25D
100
AcDbEntity
  8
0
100
AcDbSpline
 62
7
  6
BYLAYER
 70
0
 71
3
 72
12
 73
8
 74
0
 42
0.0000001
 43
0.0000001
 44
0.0000000001
 40
0.0
 40
0.0
 40
0.0
 40
0.0
 40
0.0919582668
 40
0.1939305134
 40
0.4268810763
 40
0.696496466
 40
1.0
 40
1.0
 40
1.0
 40
1.0
 10
24.7201363552
 20
13.5783971664
 30
0.0
 10
24.626600369
 20
13.5955301894
 30
0.0
 10
24.4300107032
 20
13.6353308248
 30
0.0
 10
23.9997543295
 20
13.7341575024
 30
0.0
 10
23.3947859232
 20
13.8921127377
 30
0.0
 10
22.5925887447
 20
14.1185672661
 30
0.0
 10
22.0236546974
 20
14.2845625642
 30
0.0
 10
21.7223719186
 20
14.3724745554
 30
0.0
  0
SPLINE
  5
25E
100
AcDbEntity
  8
0
100
AcDbSpline
 62
7
  6
BYLAYER
 70
0
 71
3
 72
9
 73
5
 74
0
 42
0.0000001
 43
0.0000001
 44
0.0000000001
 40
0.0
 40
0.0
 40
0.0
 40
0.0
 40
0.2589417592
 40
1.0
 40
1.0
 40
1.0
 40
1.0
 10
17.881953061
 20
14.4895478399
 30
0.0
 10
17.8589678468
 20
14.4763219326
 30
0.0
 10
17.7686389597
 20
14.4280477482
 30
0.0
 10
17.6719694235
 20
14.3913444876
 30
0.0
 10
17.5984594257
 20
14.3724745554
 30
0.0
  0
SPLINE
  5
25F
100
AcDbEntity
  8
0
100
AcDbSpline
 62
7
  6
BYLAYER
 70
0
 71
3
 72
13
 73
9
 74
0
 42
0.0000001
 43
0.0000001
 44
0.0000000001
 40
0.0
 40
0.0
 40
0.0
 40
0.0
 40
0.2734332103
 40
0.5391469768
 40
0.6660151661
 40
0.7867061916
 40
0.8991540456
 40
1.0
 40
1.0
 40
1.0
 40
1.0
 10
19.6441123844
 20
15.8289621253
 30
0.0
 10
19.4874511113
 20
15.7016568517
 30
0.0
 10
19.1780645302
 20
15.4512421992
 30
0.0
 10
18.793364122
 20
15.1449948775
 30
0.0
 10
18.4931826781
 20
14.913725267
 30
0.0
 10
18.2798710151
 20
14.7551419302
 30
0.0
 10
18.0782726975
 20
14.6131343737
 30
0.0
 10
17.9459182487
 20
14.527644235
 30
0.0
 10
17.881953061
 20
14.4895478399
 30
0.0
  0
LINE
  5
260
100
AcDbEntity
  8
0
100
AcDbLine
 62
7
  6
BYLAYER
 10
19.660555834
 20
15.8422581426
 11
19.6441123844
 21
15.8289621253
  0
LINE
  5
261
100
AcDbEntity
  8
0
100
AcDbLine
 62
7
  6
BYLAYER
 10
19.6769992835
 20
15.8289621253
 11
19.660555834
 21
15.8422581426
  0
SPLINE
  5
262
100
AcDbEntity
  8
0
100
AcDbSpline
 62
7
  6
BYLAYER
 70
0
 71
3
 72
13
 73
9
 74
0
 42
0.0000001
 43
0.0000001
 44
0.0000000001
 40
0.0
 40
0.0
 40
0.0
 40
0.0
 40
0.1008379114
 40
0.2132803398
 40
0.333969661
 40
0.4608388956
 40
0.7265587692
 40
1.0
 40
1.0
 40
1.0
 40
1.0
 10
21.4393150876
 20
14.48945465
 30
0.0
 10
21.3753473121
 20
14.5275470588
 30
0.0
 10
21.2429867538
 20
14.6130334663
 30
0.0
 10
21.0413773301
 20
14.7550410406
 30
0.0
 10
20.8280501673
 20
14.9136326748
 30
0.0
 10
20.5278392225
 20
15.1449216447
 30
0.0
 10
20.1430989264
 20
15.4512017954
 30
0.0
 10
19.8336780346
 20
15.7016426488
 30
0.0
 10
19.6769992835
 20
15.8289621253
 30
0.0
  0
SPLINE
  5
263
100
AcDbEntity
  8
0
100
AcDbSpline
 62
7
  6
BYLAYER
 70
0
 71
3
 72
9
 73
5
 74
0
 42
0.0000001
 43
0.0000001
 44
0.0000000001
 40
0.0
 40
0.0
 40
0.0
 40
0.0
 40
0.2422359666
 40
1.0
 40
1.0
 40
1.0
 40
1.0
 10
21.7225916174
 20
14.3724745554
 30
0.0
 10
21.6985802975
 20
14.378639424
 30
0.0
 10
21.6003893766
 20
14.4076671728
 30
0.0
 10
21.5065329673
 20
14.4507825236
 30
0.0
 10
21.4393150876
 20
14.48945465
 30
0.0
  0
ELLIPSE
  5
264
100
AcDbEntity
  8
0
100
AcDbEllipse
 62
7
  6
BYLAYER
 10
13.5452181969
 20
47.1750174474
 30
0.0
 11
-0.0
 21
33.6710212813
 31
0.0
 40
0.4715969409
 41
-3.1508239289
 42
-3.1415926536
  0
ELLIPSE
  5
265
100
AcDbEntity
  8
0
100
AcDbEllipse
 62
7
  6
BYLAYER
 10
25.7748737036
 20
47.1750174474
 30
0.0
 11
-0.0
 21
33.6710212813
 31
0.0
 40
0.4714668858
 41
-3.1415926536
 42
-3.1323613783
  0
ENDSEC
  0
SECTION
  2
OBJECTS
  0
DICTIONARY
  5
C
100
AcDbDictionary
280
0
281
1
  3
ACAD_GROUP
350
D
  3
ACAD_MLINESTYLE
350
17
  3
ACAD_LAYOUT
350
1A
  3
ACAD_PLOTSETTINGS
350
19
  3
ACAD_PLOTSTYLENAME
350
E
  0
DICTIONARY
  5
D
102
{ACAD_REACTORS
330
C
102
}
100
AcDbDictionary
280
0
281
1
  0
ACDBDICTIONARYWDFLT
  5
E
102
{ACAD_REACTORS
330
C
102
}
100
AcDbDictionary
281
1
  3
Normal
350
F
100
AcDbDictionaryWithDefault
340
F
  0
DICTIONARY
  5
17
102
{ACAD_REACTORS
330
C
102
}
100
AcDbDictionary
280
0
281
1
  3
Standard
350
18
  0
DICTIONARY
  5
19
102
{ACAD_REACTORS
330
C
102
}
100
AcDbDictionary
281
1
  0
DICTIONARY
  5
1A
102
{ACAD_REACTORS
330
C
102
}
100
AcDbDictionary
281
1
  3
Model
350
266
  3
Layout1
350
267
  0
ACDBPLACEHOLDER
  5
F
102
{ACAD_REACTORS
330
E
102
}
  0
MLINESTYLE
  5
18
102
{ACAD_REACTORS
330
17
102
}
100
AcDbMlineStyle
  2
STANDARD
 70
0
  3

 62
256
 51
90.0
 52
90.0
 71
2
 49
0.5
 62
256
  6
BYLAYER
 49
-0.5
 62
256
  6
BYLAYER
  0
LAYOUT
  5
266
102
{ACAD_REACTORS
330
1A
102
}
100
AcDbPlotSettings
  1

  2
none_device
  4

  6

 40
0.0
 41
0.0
 42
0.0
 43
0.0
 44
210.0
 45
297.0
 46
0.0
 47
0.0
 48
0.0
 49
0.0
140
0.0
141
0.0
142
1.0
143
1.0
 70
1024
 72
1
 73
0
 74
0
  7

 75
0
147
1.0
148
0.0
149
0.0
100
AcDbLayout
  1
Model
 70
0
 71
0
 10
0.0
 20
0.0
 11
210.0
 21
297.0
 12
0.0
 22
0.0
 32
0.0
 14
0.0
 24
0.0
 34
0.0
 15
0.0
 25
0.0
 35
0.0
146
0.0
 13
0.0
 23
0.0
 33
0.0
 16
1.0
 26
0.0
 36
0.0
 17
0.0
 27
1.0
 37
0.0
 76
0
330
210
345
0
346
0
  0
LAYOUT
  5
267
102
{ACAD_REACTORS
330
1A
102
}
100
AcDbPlotSettings
  1

  2
none_device
  4

  6

 40
0.0
 41
0.0
 42
0.0
 43
0.0
 44
210.0
 45
297.0
 46
0.0
 47
0.0
 48
0.0
 49
0.0
140
0.0
141
0.0
142
1.0
143
1.0
 70
0
 72
1
 73
0
 74
0
  7

 75
0
147
1.0
148
0.0
149
0.0
100
AcDbLayout
  1
Layout1
 70
0
 71
1
 10
0.0
 20
0.0
 11
210.0
 21
297.0
 12
0.0
 22
0.0
 32
0.0
 14
0.0
 24
0.0
 34
0.0
 15
0.0
 25
0.0
 35
0.0
146
0.0
 13
0.0
 23
0.0
 33
0.0
 16
1.0
 26
0.0
 36
0.0
 17
0.0
 27
1.0
 37
0.0
 76
0
330
211
345
0
346
0
  0
ENDSEC
  0
EOF
