999
DXF file: C:\Gen2D\CAD\LC1D098BD_3D-CAD\drw0001_3.dxf
999
Pro/ENGINEER 2019471 by Parametric Technology Corporation
  0
SECTION
  2
HEADER
  9
$ACADVER
  1
AC1024
  9
$DWGCODEPAGE
  3
ANSI_1252
  9
$EXTMAX
 10
84.4344911157
 20
119.4144945779
 30
0.0
  9
$EXTMIN
 10
0.0
 20
0.0
 30
0.0
  9
$LIMMIN
 10
0.0
 20
0.0
  9
$LIMMAX
 10
84.4344911157
 20
119.4144945779
  9
$VIEWCTR
 10
42.2172455578
 20
59.7072472889
  9
$VIEWSIZE
 40
119.4144945779
  9
$CLAYER
  8
0
  9
$LTSCALE
 40
7.7840559429
  9
$CELTYPE
  6
BYLAYER
  9
$DIMSCALE
 40
1.0
  9
$DIMASZ
 40
1.0051725133
  9
$DIMEXO
 40
1.0
  9
$DIMDLI
 40
5.3780750151
  9
$DIMEXE
 40
1.0
  9
$DIMCEN
 40
1.2737546088
  9
$DIMLFAC
 40
1.0
  9
$DIMBLK
  1
_FILLED
  9
$DIMALT
 70
0
  9
$DIMALTF
 40
0.0393700787
  9
$DIMTXT
 40
1.4072415186
  9
$DIMTOL
 70
1
  9
$DIMLIM
 70
0
  9
$DIMTFAC
 40
1.0
  9
$DIMTP
 40
0.01
  9
$DIMTM
 40
0.01
  9
$DIMGAP
 40
0.625
  9
$DIMDSEP
 70
46
  9
$AUNITS
 70
0
  9
$PDMODE
 70
3
  9
$PDSIZE
 40
0.3125
  9
$HANDSEED
  5
2FC
  9
$TILEMODE
 70
1
  9
$MEASUREMENT
 70
1
  9
$INSUNITS
 70
4
  0
ENDSEC
  0
SECTION
  2
CLASSES
  0
CLASS
  1
ACDBDICTIONARYWDFLT
  2
AcDbDictionaryWithDefault
  3
AutoCAD 2000
 90
0
 91
1
280
0
281
0
  0
CLASS
  1
ACDBPLACEHOLDER
  2
AcDbPlaceHolder
  3
AutoCAD 2000
 90
0
 91
1
280
0
281
0
  0
CLASS
  1
LAYOUT
  2
AcDbLayout
  3
AutoCAD 2000
 90
0
 91
0
280
0
281
0
  0
ENDSEC
  0
SECTION
  2
TABLES
  0
TABLE
  2
VPORT
  5
8
100
AcDbSymbolTable
 70
2
  0
VPORT
  5
1F4
100
AcDbSymbolTableRecord
100
AcDbViewportTableRecord
  2
*ACTIVE
 70
0
 10
0.0
 20
0.0
 11
1.0
 21
1.0
 12
42.2172455578
 22
59.7072472889
 13
0.0
 23
0.0
 14
1.0
 24
1.0
 15
0.0
 25
0.0
 16
0.0
 26
0.0
 36
1.0
 17
0.0
 27
0.0
 37
0.0
 40
119.4144945779
 41
0.7070707071
 42
50.0
 43
0.0
 44
0.0
 50
0.0
 51
0.0
 71
0
 72
100
 73
1
 74
1
 75
0
 76
0
 77
0
 78
0
  0
ENDTAB
  0
TABLE
  2
LTYPE
  5
5
100
AcDbSymbolTable
 70
6
  0
LTYPE
  5
14
100
AcDbSymbolTableRecord
100
AcDbLinetypeTableRecord
  2
BYBLOCK
 70
0
  3

 72
65
 73
0
 40
0.0
  0
LTYPE
  5
15
100
AcDbSymbolTableRecord
100
AcDbLinetypeTableRecord
  2
BYLAYER
 70
0
  3

 72
65
 73
0
 40
0.0
  0
LTYPE
  5
16
100
AcDbSymbolTableRecord
100
AcDbLinetypeTableRecord
  2
CONTINUOUS
 70
64
  3
Solid line
 72
65
 73
0
 40
0.0
  0
LTYPE
  5
1F5
100
AcDbSymbolTableRecord
100
AcDbLinetypeTableRecord
  2
CENTER
 70
64
  3
____ _ ____ _ ____ _ ____ _ ____ _ ____ _ ____
 72
65
 73
4
 40
0.6
 49
0.375
 74
0
 49
-0.075
 74
0
 49
0.075
 74
0
 49
-0.075
 74
0
  0
LTYPE
  5
1F6
100
AcDbSymbolTableRecord
100
AcDbLinetypeTableRecord
  2
HIDDEN
 70
64
  3
- - - - - - - - - - - - - - - - - - - -
 72
65
 73
2
 40
0.2
 49
0.1
 74
0
 49
-0.1
 74
0
  0
LTYPE
  5
1F7
100
AcDbSymbolTableRecord
100
AcDbLinetypeTableRecord
  2
PHANTOM
 70
64
  3
_____ _ _ _____ _ _ _____ _ _ _____
 72
65
 73
6
 40
0.8
 49
0.45
 74
0
 49
-0.05
 74
0
 49
0.1
 74
0
 49
-0.05
 74
0
 49
0.1
 74
0
 49
-0.05
 74
0
  0
LTYPE
  5
1F8
100
AcDbSymbolTableRecord
100
AcDbLinetypeTableRecord
  2
DOT
 70
64
  3
. . . . . . . . . . . . . . . . . . . .
 72
65
 73
2
 40
0.2
 49
0.1
 74
0
 49
-0.1
 74
0
  0
LTYPE
  5
1F9
100
AcDbSymbolTableRecord
100
AcDbLinetypeTableRecord
  2
DASHED
 70
64
  3
- - - - - - - - - - - - - - - - - - - -
 72
65
 73
2
 40
0.2
 49
0.1
 74
0
 49
-0.1
 74
0
  0
ENDTAB
  0
TABLE
  2
LAYER
  5
2
100
AcDbSymbolTable
 70
36
  0
LAYER
  5
10
100
AcDbSymbolTableRecord
100
AcDbLayerTableRecord
  2
0
 70
0
 62
7
  6
CONTINUOUS
370
-3
390
F
  0
LAYER
  5
1FA
100
AcDbSymbolTableRecord
100
AcDbLayerTableRecord
  2
DEFAULT_1
 70
0
 62
7
  6
CENTER
370
-3
390
F
  0
LAYER
  5
1FB
100
AcDbSymbolTableRecord
100
AcDbLayerTableRecord
  2
DEFAULT_2
 70
0
 62
8
  6
HIDDEN
370
-3
390
F
  0
LAYER
  5
1FC
100
AcDbSymbolTableRecord
100
AcDbLayerTableRecord
  2
DEFAULT_3
 70
0
 62
7
  6
PHANTOM
370
-3
390
F
  0
LAYER
  5
1FD
100
AcDbSymbolTableRecord
100
AcDbLayerTableRecord
  2
00_COMPONENTS
 70
0
 62
7
  6
CONTINUOUS
370
-3
390
F
  0
LAYER
  5
1FE
100
AcDbSymbolTableRecord
100
AcDbLayerTableRecord
  2
01_1_DEFAULT_DATUMS
 70
0
 62
7
  6
CONTINUOUS
370
-3
390
F
  0
LAYER
  5
1FF
100
AcDbSymbolTableRecord
100
AcDbLayerTableRecord
  2
01_PLANES
 70
0
 62
7
  6
CONTINUOUS
370
-3
390
F
  0
LAYER
  5
200
100
AcDbSymbolTableRecord
100
AcDbLayerTableRecord
  2
02_COORD_SYS
 70
0
 62
7
  6
CONTINUOUS
370
-3
390
F
  0
LAYER
  5
201
100
AcDbSymbolTableRecord
100
AcDbLayerTableRecord
  2
03_AXES
 70
0
 62
7
  6
CONTINUOUS
370
-3
390
F
  0
LAYER
  5
202
100
AcDbSymbolTableRecord
100
AcDbLayerTableRecord
  2
04_POINTS
 70
0
 62
7
  6
CONTINUOUS
370
-3
390
F
  0
LAYER
  5
203
100
AcDbSymbolTableRecord
100
AcDbLayerTableRecord
  2
05_CURVES
 70
0
 62
7
  6
CONTINUOUS
370
-3
390
F
  0
LAYER
  5
204
100
AcDbSymbolTableRecord
100
AcDbLayerTableRecord
  2
06_SURFS
 70
0
 62
7
  6
CONTINUOUS
370
-3
390
F
  0
LAYER
  5
205
100
AcDbSymbolTableRecord
100
AcDbLayerTableRecord
  2
07_COSMETICS
 70
0
 62
7
  6
CONTINUOUS
370
-3
390
F
  0
LAYER
  5
206
100
AcDbSymbolTableRecord
100
AcDbLayerTableRecord
  2
10_NOTES
 70
0
 62
7
  6
CONTINUOUS
370
-3
390
F
  0
LAYER
  5
207
100
AcDbSymbolTableRecord
100
AcDbLayerTableRecord
  2
11_NOTES_PUB
 70
0
 62
7
  6
CONTINUOUS
370
-3
390
F
  0
LAYER
  5
208
100
AcDbSymbolTableRecord
100
AcDbLayerTableRecord
  2
13_REF_GTOL
 70
0
 62
7
  6
CONTINUOUS
370
-3
390
F
  0
LAYER
  5
209
100
AcDbSymbolTableRecord
100
AcDbLayerTableRecord
  2
16_MISC
 70
0
 62
7
  6
CONTINUOUS
370
-3
390
F
  0
LAYER
  5
20A
100
AcDbSymbolTableRecord
100
AcDbLayerTableRecord
  2
17_NO_PRINT
 70
0
 62
7
  6
CONTINUOUS
370
-3
390
F
  0
LAYER
  5
20B
100
AcDbSymbolTableRecord
100
AcDbLayerTableRecord
  2
18_DATUM_CAMS_JOINTS
 70
0
 62
7
  6
CONTINUOUS
370
-3
390
F
  0
LAYER
  5
20C
100
AcDbSymbolTableRecord
100
AcDbLayerTableRecord
  2
19_DATUM_FUNCTIONAL
 70
0
 62
7
  6
CONTINUOUS
370
-3
390
F
  0
LAYER
  5
20D
100
AcDbSymbolTableRecord
100
AcDbLayerTableRecord
  2
20_DATUM_KINEMATIC_SCHEME
 70
0
 62
7
  6
CONTINUOUS
370
-3
390
F
  0
LAYER
  5
20E
100
AcDbSymbolTableRecord
100
AcDbLayerTableRecord
  2
INTFCLR_65
 70
0
 62
7
  6
CONTINUOUS
370
-3
390
F
  0
LAYER
  5
20F
100
AcDbSymbolTableRecord
100
AcDbLayerTableRecord
  2
INTFCLR_74
 70
0
 62
7
  6
CONTINUOUS
370
-3
390
F
  0
LAYER
  5
210
100
AcDbSymbolTableRecord
100
AcDbLayerTableRecord
  2
INTFCLR_76
 70
0
 62
7
  6
CONTINUOUS
370
-3
390
F
  0
ENDTAB
  0
TABLE
  2
STYLE
  5
3
100
AcDbSymbolTable
 70
1
  0
STYLE
  5
11
100
AcDbSymbolTableRecord
100
AcDbTextStyleTableRecord
  2
STANDARD
 70
0
 40
0.0
 41
0.8
 50
0.0
 71
0
 42
0.2
  3
txt
  4

  0
STYLE
  5
211
100
AcDbSymbolTableRecord
100
AcDbTextStyleTableRecord
  2
TEXTSTYLE_1
 70
0
 40
0.0
 41
0.8
 50
0.0
 71
0
 42
0.2
  3
gdt
  4

  0
ENDTAB
  0
TABLE
  2
VIEW
  5
6
100
AcDbSymbolTable
 70
0
  0
ENDTAB
  0
TABLE
  2
UCS
  5
7
100
AcDbSymbolTable
 70
0
  0
ENDTAB
  0
TABLE
  2
APPID
  5
9
100
AcDbSymbolTable
 70
1
  0
APPID
  5
212
100
AcDbSymbolTableRecord
100
AcDbRegAppTableRecord
  2
ACAD
 70
0
  0
ENDTAB
  0
TABLE
  2
BLOCK_RECORD
  5
1
100
AcDbSymbolTable
 70
0
  0
BLOCK_RECORD
  5
213
100
AcDbSymbolTableRecord
100
AcDbBlockTableRecord
  2
*Model_Space
  0
BLOCK_RECORD
  5
214
100
AcDbSymbolTableRecord
100
AcDbBlockTableRecord
  2
*Paper_Space
  0
BLOCK_RECORD
  5
215
100
AcDbSymbolTableRecord
100
AcDbBlockTableRecord
  2
_FILLED
  0
ENDTAB
  0
TABLE
  2
DIMSTYLE
  5
A
100
AcDbSymbolTable
 70
1
100
AcDbDimStyleTable
 71
0
  0
DIMSTYLE
105
216
100
AcDbSymbolTableRecord
100
AcDbDimStyleTableRecord
  2
STANDARD
 70
0
  3

  4

 40
1.0
 41
1.0051725133
 42
1.0
 43
0.38
 44
1.0
 45
0.0
 46
0.0
 47
0.01
 48
0.01
140
1.4072415186
141
0.09
142
0.0
143
25.4
144
1.0
145
0.0
146
1.0
147
0.625
 71
1
 72
0
 73
0
 74
0
 75
0
 76
0
 77
1
 78
8
 79
2
170
0
171
1
172
0
173
0
174
0
175
0
176
0
177
0
178
0
270
2
179
2
271
2
272
2
273
2
274
2
275
0
280
0
281
0
282
0
283
1
284
8
285
0
286
0
287
3
288
0
340
11
278
46
341
215
342
215
343
215
344
215
  0
ENDTAB
  0
ENDSEC
  0
SECTION
  2
BLOCKS
  0
BLOCK
  5
20
100
AcDbEntity
  8
0
100
AcDbBlockBegin
  2
*Model_Space
 70
0
 10
0.0
 20
0.0
 30
0.0
  3
*Model_Space
  1

  0
ENDBLK
  5
21
100
AcDbEntity
  8
0
100
AcDbBlockEnd
  0
BLOCK
  5
1C
100
AcDbEntity
  8
0
100
AcDbBlockBegin
  2
*Paper_Space
 70
0
 10
0.0
 20
0.0
 30
0.0
  3
*Paper_Space
  1

  0
ENDBLK
  5
1D
100
AcDbEntity
  8
0
100
AcDbBlockEnd
  0
BLOCK
  5
217
100
AcDbEntity
  8
0
100
AcDbBlockBegin
  2
_FILLED
 70
64
 10
0.0
 20
0.0
  3
_FILLED
  1

  0
SOLID
  5
218
100
AcDbEntity
  8
0
  6
BYBLOCK
 62
0
100
AcDbTrace
 10
0.0
 20
0.0
 11
-1.0
 21
0.25
 12
-1.0
 22
-0.25
 13
-1.0
 23
-0.25
  0
ENDBLK
  5
219
100
AcDbEntity
  8
0
  6
BYBLOCK
 62
0
100
AcDbBlockEnd
  0
ENDSEC
  0
SECTION
  2
ENTITIES
  0
LINE
  5
21A
100
AcDbEntity
  8
0
100
AcDbLine
 62
7
  6
CONTINUOUS
 10
20.9865429344
 20
9.5739744883
 11
65.7865429344
 21
9.5744694771
  0
LINE
  5
21B
100
AcDbEntity
  8
0
100
AcDbLine
 62
7
  6
CONTINUOUS
 10
65.7865429344
 20
16.5744695421
 11
30.8638481865
 21
16.5739612472
  0
LINE
  5
21C
100
AcDbEntity
  8
0
100
AcDbLine
 62
7
  6
CONTINUOUS
 10
30.8638481865
 20
16.5739612472
 11
20.9865429344
 21
16.5739745533
  0
LINE
  5
21D
100
AcDbEntity
  8
0
100
AcDbLine
 62
7
  6
CONTINUOUS
 10
20.9865429344
 20
9.5739744883
 11
20.9865429344
 21
16.5739745533
  0
LINE
  5
21E
100
AcDbEntity
  8
INTFCLR_74
100
AcDbLine
 62
7
420
48875
  6
CONTINUOUS
 10
20.9865429344
 20
9.5736222703
 11
20.9865429344
 21
103.9237776207
  0
LINE
  5
21F
100
AcDbEntity
  8
0
100
AcDbLine
 62
7
  6
CONTINUOUS
 10
20.9865429344
 20
16.5758306733
 11
20.9865429344
 21
103.924626364
  0
LINE
  5
220
100
AcDbEntity
  8
0
100
AcDbLine
 62
7
  6
CONTINUOUS
 10
21.1858960926
 20
104.024745773
 11
21.1858960926
 21
110.42474577
  0
LINE
  5
221
100
AcDbEntity
  8
0
100
AcDbLine
 62
7
  6
CONTINUOUS
 10
22.8865429344
 20
71.8263759396
 11
22.3865429344
 21
71.3263759396
  0
LINE
  5
222
100
AcDbEntity
  8
0
100
AcDbLine
 62
7
  6
CONTINUOUS
 10
22.2365426496
 20
16.573826582
 11
22.2365426496
 21
9.5738265169
  0
LINE
  5
223
100
AcDbEntity
  8
0
100
AcDbLine
 62
7
  6
CONTINUOUS
 10
22.3865429344
 20
71.3263759396
 11
22.3865429344
 21
66.3263759396
  0
LINE
  5
224
100
AcDbEntity
  8
0
100
AcDbLine
 62
7
  6
CONTINUOUS
 10
22.7865429344
 20
96.4263759396
 11
22.7865429344
 21
100.9263759396
  0
LINE
  5
225
100
AcDbEntity
  8
0
100
AcDbLine
 62
7
  6
CONTINUOUS
 10
22.8865429344
 20
86.4547904034
 11
22.8865429344
 21
71.8263759396
  0
LINE
  5
226
100
AcDbEntity
  8
0
100
AcDbLine
 62
7
  6
CONTINUOUS
 10
22.8865429344
 20
55.3263759396
 11
22.8865429344
 21
65.8263759396
  0
LINE
  5
227
100
AcDbEntity
  8
0
100
AcDbLine
 62
7
  6
CONTINUOUS
 10
22.9088684186
 20
70.8343591323
 11
22.9088684186
 21
66.3263759396
  0
LINE
  5
228
100
AcDbEntity
  8
0
100
AcDbLine
 62
7
  6
CONTINUOUS
 10
24.3365429344
 20
96.9263759396
 11
24.3365429344
 21
100.9263759396
  0
LINE
  5
229
100
AcDbEntity
  8
0
100
AcDbLine
 62
7
  6
CONTINUOUS
 10
24.9864344805
 20
110.4246293161
 11
24.9865429298
 21
104.0246293191
  0
LINE
  5
22A
100
AcDbEntity
  8
0
100
AcDbLine
 62
7
  6
CONTINUOUS
 10
25.8865429344
 20
66.326338323
 11
25.8865429344
 21
71.2986363651
  0
LINE
  5
22B
100
AcDbEntity
  8
0
100
AcDbLine
 62
7
  6
CONTINUOUS
 10
26.1365429344
 20
69.9263759396
 11
26.1365429344
 21
70.7719413401
  0
LINE
  5
22C
100
AcDbEntity
  8
INTFCLR_76
100
AcDbLine
 62
7
420
3604575
  6
CONTINUOUS
 10
27.6365429344
 20
88.6019993733
 11
27.6365429344
 21
88.2206531085
  0
LINE
  5
22D
100
AcDbEntity
  8
0
100
AcDbLine
 62
7
  6
CONTINUOUS
 10
27.7721265188
 20
16.5758306733
 11
27.7721265188
 21
47.5763759396
  0
LINE
  5
22E
100
AcDbEntity
  8
0
100
AcDbLine
 62
7
  6
CONTINUOUS
 10
28.042652032
 20
16.4835812571
 11
28.042652032
 21
9.5736342085
  0
LINE
  5
22F
100
AcDbEntity
  8
0
100
AcDbLine
 62
7
  6
CONTINUOUS
 10
29.136542934
 20
70.7719361028
 11
29.136542934
 21
69.9263759396
  0
LINE
  5
230
100
AcDbEntity
  8
0
100
AcDbLine
 62
7
  6
CONTINUOUS
 10
33.6865429344
 20
71.8263759396
 11
33.1865429344
 21
71.3263759396
  0
LINE
  5
231
100
AcDbEntity
  8
0
100
AcDbLine
 62
7
  6
CONTINUOUS
 10
29.3634809311
 20
16.573827393
 11
29.3634809288
 21
9.573827328
  0
LINE
  5
232
100
AcDbEntity
  8
0
100
AcDbLine
 62
7
  6
CONTINUOUS
 10
29.3865429344
 20
66.3264135562
 11
29.3865429344
 21
71.2986341079
  0
LINE
  5
233
100
AcDbEntity
  8
0
100
AcDbLine
 62
7
  6
CONTINUOUS
 10
29.8412892829
 20
9.5738947037
 11
29.8412892829
 21
16.5738947688
  0
LINE
  5
234
100
AcDbEntity
  8
0
100
AcDbLine
 62
7
  6
CONTINUOUS
 10
30.863848305
 20
16.573945961
 11
30.863848305
 21
9.573945896
  0
LINE
  5
235
100
AcDbEntity
  8
0
100
AcDbLine
 62
7
  6
CONTINUOUS
 10
32.0865429344
 20
65.8263759396
 11
32.0865429344
 21
55.3263759396
  0
LINE
  5
236
100
AcDbEntity
  8
0
100
AcDbLine
 62
7
  6
CONTINUOUS
 10
32.0865429344
 20
71.8263759396
 11
32.0865429344
 21
87.63202759
  0
LINE
  5
237
100
AcDbEntity
  8
0
100
AcDbLine
 62
7
  6
CONTINUOUS
 10
32.3642174502
 20
66.3263759396
 11
32.3642174502
 21
70.8343360026
  0
LINE
  5
238
100
AcDbEntity
  8
0
100
AcDbLine
 62
7
  6
CONTINUOUS
 10
32.5865429344
 20
66.3263759396
 11
32.5865429344
 21
71.3263759396
  0
LINE
  5
239
100
AcDbEntity
  8
0
100
AcDbLine
 62
7
  6
CONTINUOUS
 10
32.0865429344
 20
65.8263759396
 11
32.5865429344
 21
66.3263759396
  0
LINE
  5
23A
100
AcDbEntity
  8
0
100
AcDbLine
 62
7
  6
CONTINUOUS
 10
48.3865429344
 20
47.5763759396
 11
38.3865429344
 21
47.5763759396
  0
LINE
  5
23B
100
AcDbEntity
  8
0
100
AcDbLine
 62
7
  6
CONTINUOUS
 10
20.9865429344
 20
47.5763759396
 11
37.3865429344
 21
47.5763759396
  0
LINE
  5
23C
100
AcDbEntity
  8
0
100
AcDbLine
 62
7
  6
CONTINUOUS
 10
49.3865429344
 20
47.5763759396
 11
65.7865429344
 21
47.5763759396
  0
LINE
  5
23D
100
AcDbEntity
  8
0
100
AcDbLine
 62
7
  6
CONTINUOUS
 10
38.3865429344
 20
48.4763759396
 11
48.3865429344
 21
48.4763759396
  0
LINE
  5
23E
100
AcDbEntity
  8
0
100
AcDbLine
 62
7
  6
CONTINUOUS
 10
49.3865429344
 20
49.0263759396
 11
37.3865429344
 21
49.0263759396
  0
LINE
  5
23F
100
AcDbEntity
  8
0
100
AcDbLine
 62
7
  6
CONTINUOUS
 10
33.1865429344
 20
71.3263759396
 11
33.1865429344
 21
66.3263759396
  0
LINE
  5
240
100
AcDbEntity
  8
0
100
AcDbLine
 62
7
  6
CONTINUOUS
 10
33.4088684186
 20
70.8343608697
 11
33.4088684186
 21
66.3263759396
  0
LINE
  5
241
100
AcDbEntity
  8
0
100
AcDbLine
 62
7
  6
CONTINUOUS
 10
33.6865429344
 20
87.7665213068
 11
33.6865429344
 21
71.8263759396
  0
LINE
  5
242
100
AcDbEntity
  8
0
100
AcDbLine
 62
7
  6
CONTINUOUS
 10
33.6865429344
 20
55.3263759396
 11
33.6865429344
 21
65.8263759396
  0
LINE
  5
243
100
AcDbEntity
  8
0
100
AcDbLine
 62
7
  6
CONTINUOUS
 10
33.8365429344
 20
101.8973941296
 11
33.8365429344
 21
90.9763759396
  0
LINE
  5
244
100
AcDbEntity
  8
0
100
AcDbLine
 62
7
  6
CONTINUOUS
 10
36.3365429344
 20
90.976338323
 11
36.3365429344
 21
95.9065615013
  0
LINE
  5
245
100
AcDbEntity
  8
0
100
AcDbLine
 62
7
  6
CONTINUOUS
 10
36.3865429344
 20
66.326338323
 11
36.3865429344
 21
71.2986328506
  0
LINE
  5
246
100
AcDbEntity
  8
0
100
AcDbLine
 62
7
  6
CONTINUOUS
 10
36.4865429344
 20
94.7263759396
 11
36.4865429344
 21
95.3797788137
  0
LINE
  5
247
100
AcDbEntity
  8
0
100
AcDbLine
 62
7
  6
CONTINUOUS
 10
44.1865429344
 20
71.8263759396
 11
43.6865429344
 21
71.3263759396
  0
LINE
  5
248
100
AcDbEntity
  8
0
100
AcDbLine
 62
7
  6
CONTINUOUS
 10
49.3865429344
 20
52.565043945
 11
37.3865429344
 21
52.565043945
  0
LINE
  5
249
100
AcDbEntity
  8
0
100
AcDbLine
 62
7
  6
CONTINUOUS
 10
22.3865429344
 20
66.3263759396
 11
22.8865429344
 21
65.8263759396
  0
LINE
  5
24A
100
AcDbEntity
  8
0
100
AcDbLine
 62
7
  6
CONTINUOUS
 10
36.6365429347
 20
69.9263759396
 11
36.6365429347
 21
70.7719378927
  0
LINE
  5
24B
100
AcDbEntity
  8
0
100
AcDbLine
 62
7
  6
CONTINUOUS
 10
37.3865429344
 20
52.565043945
 11
37.3865429344
 21
42.5763759396
  0
LINE
  5
24C
100
AcDbEntity
  8
0
100
AcDbLine
 62
7
  6
CONTINUOUS
 10
38.3865429344
 20
42.5763759396
 11
38.3865429344
 21
48.4763759396
  0
LINE
  5
24D
100
AcDbEntity
  8
0
100
AcDbLine
 62
7
  6
CONTINUOUS
 10
39.6365429344
 20
70.7719378341
 11
39.6365429344
 21
69.9263759396
  0
LINE
  5
24E
100
AcDbEntity
  8
0
100
AcDbLine
 62
7
  6
CONTINUOUS
 10
39.6865429344
 20
95.3797788137
 11
39.6865429344
 21
94.7263759396
  0
LINE
  5
24F
100
AcDbEntity
  8
0
100
AcDbLine
 62
7
  6
CONTINUOUS
 10
39.8365429344
 20
90.9764135562
 11
39.8365429344
 21
95.9065615013
  0
LINE
  5
250
100
AcDbEntity
  8
0
100
AcDbLine
 62
7
  6
CONTINUOUS
 10
39.8865429344
 20
66.3264135562
 11
39.8865429344
 21
71.2986358759
  0
LINE
  5
251
100
AcDbEntity
  8
0
100
AcDbLine
 62
7
  6
CONTINUOUS
 10
42.5865429344
 20
65.8263759396
 11
43.0865429344
 21
66.3263759396
  0
LINE
  5
252
100
AcDbEntity
  8
0
100
AcDbLine
 62
7
  6
CONTINUOUS
 10
65.7865429344
 20
55.3238174669
 11
20.9865429344
 21
55.3238174669
  0
LINE
  5
253
100
AcDbEntity
  8
0
100
AcDbLine
 62
7
  6
CONTINUOUS
 10
22.8865429344
 20
55.3263759396
 11
32.0865429344
 21
55.3263759396
  0
LINE
  5
254
100
AcDbEntity
  8
0
100
AcDbLine
 62
7
  6
CONTINUOUS
 10
33.6865429344
 20
55.3263759396
 11
42.5865429344
 21
55.3263759396
  0
LINE
  5
255
100
AcDbEntity
  8
0
100
AcDbLine
 62
7
  6
CONTINUOUS
 10
44.1865429344
 20
55.3263759396
 11
53.0865429344
 21
55.3263759396
  0
LINE
  5
256
100
AcDbEntity
  8
0
100
AcDbLine
 62
7
  6
CONTINUOUS
 10
54.6865429344
 20
55.3263759396
 11
63.8865429344
 21
55.3263759396
  0
LINE
  5
257
100
AcDbEntity
  8
0
100
AcDbLine
 62
7
  6
CONTINUOUS
 10
65.7865429344
 20
55.7369933781
 11
63.8865429344
 21
55.7369782901
  0
LINE
  5
258
100
AcDbEntity
  8
0
100
AcDbLine
 62
7
  6
CONTINUOUS
 10
22.8865429344
 20
55.7369782901
 11
20.9865429344
 21
55.7369933781
  0
LINE
  5
259
100
AcDbEntity
  8
0
100
AcDbLine
 62
7
  6
CONTINUOUS
 10
32.0865429344
 20
55.7369782901
 11
33.6865429344
 21
55.7369782901
  0
LINE
  5
25A
100
AcDbEntity
  8
0
100
AcDbLine
 62
7
  6
CONTINUOUS
 10
42.5865429344
 20
55.7369782901
 11
44.1865429344
 21
55.7369782901
  0
LINE
  5
25B
100
AcDbEntity
  8
0
100
AcDbLine
 62
7
  6
CONTINUOUS
 10
53.0865429344
 20
55.7369782901
 11
54.6865429344
 21
55.7369782901
  0
LINE
  5
25C
100
AcDbEntity
  8
0
100
AcDbLine
 62
7
  6
CONTINUOUS
 10
42.3365429344
 20
90.9763759396
 11
42.3365429344
 21
102.222403705
  0
LINE
  5
25D
100
AcDbEntity
  8
0
100
AcDbLine
 62
7
  6
CONTINUOUS
 10
42.5865429344
 20
65.8263759396
 11
42.5865429344
 21
55.3263759396
  0
LINE
  5
25E
100
AcDbEntity
  8
0
100
AcDbLine
 62
7
  6
CONTINUOUS
 10
42.5865429344
 20
71.8263759396
 11
42.5865429344
 21
88.1398231838
  0
LINE
  5
25F
100
AcDbEntity
  8
0
100
AcDbLine
 62
7
  6
CONTINUOUS
 10
42.8642174502
 20
66.3263759396
 11
42.8642174502
 21
70.8343291417
  0
LINE
  5
260
100
AcDbEntity
  8
0
100
AcDbLine
 62
7
  6
CONTINUOUS
 10
42.8865429344
 20
89.2253873245
 11
42.8865429344
 21
101.9263759396
  0
LINE
  5
261
100
AcDbEntity
  8
0
100
AcDbLine
 62
7
  6
CONTINUOUS
 10
43.0865429344
 20
66.3263759396
 11
43.0865429344
 21
71.3263759396
  0
LINE
  5
262
100
AcDbEntity
  8
0
100
AcDbLine
 62
7
  6
CONTINUOUS
 10
43.6865429344
 20
71.3263759396
 11
43.6865429344
 21
66.3263759396
  0
LINE
  5
263
100
AcDbEntity
  8
0
100
AcDbLine
 62
7
  6
CONTINUOUS
 10
54.6865429344
 20
71.8263759396
 11
54.1865429344
 21
71.3263759396
  0
LINE
  5
264
100
AcDbEntity
  8
0
100
AcDbLine
 62
7
  6
CONTINUOUS
 10
65.7865429344
 20
58.1698296134
 11
63.8865429344
 21
58.1686396692
  0
LINE
  5
265
100
AcDbEntity
  8
0
100
AcDbLine
 62
7
  6
CONTINUOUS
 10
54.6865429344
 20
58.1686396692
 11
53.0865429344
 21
58.1686396692
  0
LINE
  5
266
100
AcDbEntity
  8
0
100
AcDbLine
 62
7
  6
CONTINUOUS
 10
44.1865429344
 20
58.1686396692
 11
42.5865429344
 21
58.1686396692
  0
LINE
  5
267
100
AcDbEntity
  8
0
100
AcDbLine
 62
7
  6
CONTINUOUS
 10
33.6865429344
 20
58.1686396692
 11
32.0865429344
 21
58.1686396692
  0
LINE
  5
268
100
AcDbEntity
  8
0
100
AcDbLine
 62
7
  6
CONTINUOUS
 10
22.8865429344
 20
58.1686396692
 11
20.9865429344
 21
58.1698296134
  0
LINE
  5
269
100
AcDbEntity
  8
0
100
AcDbLine
 62
7
  6
CONTINUOUS
 10
33.1865429344
 20
66.3263759396
 11
33.6865429344
 21
65.8263759396
  0
LINE
  5
26A
100
AcDbEntity
  8
0
100
AcDbLine
 62
7
  6
CONTINUOUS
 10
32.5865429344
 20
71.3263759396
 11
32.0865429344
 21
71.8263759396
  0
LINE
  5
26B
100
AcDbEntity
  8
0
100
AcDbLine
 62
7
  6
CONTINUOUS
 10
43.8865429344
 20
89.2253873245
 11
43.8865429344
 21
101.9263759396
  0
LINE
  5
26C
100
AcDbEntity
  8
0
100
AcDbLine
 62
7
  6
CONTINUOUS
 10
43.9088684186
 20
70.8343608697
 11
43.9088684186
 21
66.3263759396
  0
LINE
  5
26D
100
AcDbEntity
  8
0
100
AcDbLine
 62
7
  6
CONTINUOUS
 10
44.1865429344
 20
88.1398231838
 11
44.1865429344
 21
71.8263759396
  0
LINE
  5
26E
100
AcDbEntity
  8
0
100
AcDbLine
 62
7
  6
CONTINUOUS
 10
44.1865429344
 20
55.3263759396
 11
44.1865429344
 21
65.8263759396
  0
LINE
  5
26F
100
AcDbEntity
  8
0
100
AcDbLine
 62
7
  6
CONTINUOUS
 10
44.4365429344
 20
102.222403705
 11
44.4365429344
 21
90.9763759396
  0
LINE
  5
270
100
AcDbEntity
  8
0
100
AcDbLine
 62
7
  6
CONTINUOUS
 10
46.8865429344
 20
66.326338323
 11
46.8865429344
 21
71.2986328504
  0
LINE
  5
271
100
AcDbEntity
  8
0
100
AcDbLine
 62
7
  6
CONTINUOUS
 10
46.9365429344
 20
90.976338323
 11
46.9365429344
 21
95.9065615013
  0
LINE
  5
272
100
AcDbEntity
  8
0
100
AcDbLine
 62
7
  6
CONTINUOUS
 10
47.0865429344
 20
94.7263759396
 11
47.0865429344
 21
95.3797788137
  0
LINE
  5
273
100
AcDbEntity
  8
0
100
AcDbLine
 62
7
  6
CONTINUOUS
 10
47.1365429344
 20
69.9263759396
 11
47.1365429344
 21
70.7719378927
  0
LINE
  5
274
100
AcDbEntity
  8
0
100
AcDbLine
 62
7
  6
CONTINUOUS
 10
53.0865429344
 20
65.8263759396
 11
53.5865429344
 21
66.3263759396
  0
LINE
  5
275
100
AcDbEntity
  8
0
100
AcDbLine
 62
7
  6
CONTINUOUS
 10
65.7865429344
 20
62.511034055
 11
63.8865429344
 21
62.510598129
  0
LINE
  5
276
100
AcDbEntity
  8
0
100
AcDbLine
 62
7
  6
CONTINUOUS
 10
32.0865429344
 20
62.510598129
 11
33.6865429344
 21
62.510598129
  0
LINE
  5
277
100
AcDbEntity
  8
0
100
AcDbLine
 62
7
  6
CONTINUOUS
 10
42.5865429344
 20
62.510598129
 11
44.1865429344
 21
62.510598129
  0
LINE
  5
278
100
AcDbEntity
  8
0
100
AcDbLine
 62
7
  6
CONTINUOUS
 10
53.0865429344
 20
62.510598129
 11
54.6865429344
 21
62.510598129
  0
LINE
  5
279
100
AcDbEntity
  8
0
100
AcDbLine
 62
7
  6
CONTINUOUS
 10
22.8865429344
 20
62.510598129
 11
20.9865429344
 21
62.511034055
  0
LINE
  5
27A
100
AcDbEntity
  8
0
100
AcDbLine
 62
7
  6
CONTINUOUS
 10
48.3865429344
 20
42.5763759396
 11
48.3865429344
 21
48.4763759396
  0
LINE
  5
27B
100
AcDbEntity
  8
0
100
AcDbLine
 62
7
  6
CONTINUOUS
 10
49.3865429344
 20
42.5763759396
 11
49.3865429344
 21
52.565043945
  0
LINE
  5
27C
100
AcDbEntity
  8
0
100
AcDbLine
 62
7
  6
CONTINUOUS
 10
50.1365429341
 20
70.7719378341
 11
50.1365429341
 21
69.9263759396
  0
LINE
  5
27D
100
AcDbEntity
  8
0
100
AcDbLine
 62
7
  6
CONTINUOUS
 10
50.2865429344
 20
95.3797788137
 11
50.2865429344
 21
94.7263759396
  0
LINE
  5
27E
100
AcDbEntity
  8
0
100
AcDbLine
 62
7
  6
CONTINUOUS
 10
50.3865429344
 20
66.3264135562
 11
50.3865429344
 21
71.2986358761
  0
LINE
  5
27F
100
AcDbEntity
  8
0
100
AcDbLine
 62
7
  6
CONTINUOUS
 10
50.4365429344
 20
90.9764135562
 11
50.4365429344
 21
95.9065615013
  0
LINE
  5
280
100
AcDbEntity
  8
0
100
AcDbLine
 62
7
  6
CONTINUOUS
 10
22.9088684186
 20
66.3263759396
 11
32.3642174502
 21
66.3263759396
  0
LINE
  5
281
100
AcDbEntity
  8
0
100
AcDbLine
 62
7
  6
CONTINUOUS
 10
33.4088684186
 20
66.3263759396
 11
42.8642174502
 21
66.3263759396
  0
LINE
  5
282
100
AcDbEntity
  8
0
100
AcDbLine
 62
7
  6
CONTINUOUS
 10
43.9088684186
 20
66.3263759396
 11
53.3642174502
 21
66.3263759396
  0
LINE
  5
283
100
AcDbEntity
  8
0
100
AcDbLine
 62
7
  6
CONTINUOUS
 10
54.4088684186
 20
66.3263759396
 11
63.8642174502
 21
66.3263759396
  0
LINE
  5
284
100
AcDbEntity
  8
0
100
AcDbLine
 62
7
  6
CONTINUOUS
 10
43.6865429344
 20
66.3263759396
 11
44.1865429344
 21
65.8263759396
  0
LINE
  5
285
100
AcDbEntity
  8
0
100
AcDbLine
 62
7
  6
CONTINUOUS
 10
43.0865429344
 20
71.3263759396
 11
42.5865429344
 21
71.8263759396
  0
LINE
  5
286
100
AcDbEntity
  8
0
100
AcDbLine
 62
7
  6
CONTINUOUS
 10
52.9365429344
 20
90.9763759396
 11
52.9365429344
 21
101.8973941296
  0
LINE
  5
287
100
AcDbEntity
  8
0
100
AcDbLine
 62
7
  6
CONTINUOUS
 10
53.0865429344
 20
65.8263759396
 11
53.0865429344
 21
55.3263759396
  0
LINE
  5
288
100
AcDbEntity
  8
0
100
AcDbLine
 62
7
  6
CONTINUOUS
 10
53.0865429344
 20
71.8263759396
 11
53.0865429344
 21
87.7665213068
  0
LINE
  5
289
100
AcDbEntity
  8
0
100
AcDbLine
 62
7
  6
CONTINUOUS
 10
53.3642174502
 20
66.3263759396
 11
53.3642174502
 21
70.8343291416
  0
LINE
  5
28A
100
AcDbEntity
  8
0
100
AcDbLine
 62
7
  6
CONTINUOUS
 10
53.4865429344
 20
88.8223374744
 11
53.4865429344
 21
101.9263759396
  0
LINE
  5
28B
100
AcDbEntity
  8
0
100
AcDbLine
 62
7
  6
CONTINUOUS
 10
53.5865429344
 20
66.3263759396
 11
53.5865429344
 21
71.3263759396
  0
LINE
  5
28C
100
AcDbEntity
  8
0
100
AcDbLine
 62
7
  6
CONTINUOUS
 10
54.1865429344
 20
71.3263759396
 11
54.1865429344
 21
66.3263759396
  0
LINE
  5
28D
100
AcDbEntity
  8
0
100
AcDbLine
 62
7
  6
CONTINUOUS
 10
54.4088684186
 20
70.8343670223
 11
54.4088684186
 21
66.3263759396
  0
LINE
  5
28E
100
AcDbEntity
  8
0
100
AcDbLine
 62
7
  6
CONTINUOUS
 10
54.4865429344
 20
88.7382064146
 11
54.4865429344
 21
101.9263759396
  0
LINE
  5
28F
100
AcDbEntity
  8
0
100
AcDbLine
 62
7
  6
CONTINUOUS
 10
54.6865429344
 20
87.63202759
 11
54.6865429344
 21
71.8263759396
  0
LINE
  5
290
100
AcDbEntity
  8
0
100
AcDbLine
 62
7
  6
CONTINUOUS
 10
54.6865429344
 20
55.3263759396
 11
54.6865429344
 21
65.8263759396
  0
LINE
  5
291
100
AcDbEntity
  8
0
100
AcDbLine
 62
7
  6
CONTINUOUS
 10
63.8865429344
 20
65.8263759396
 11
64.3865429344
 21
66.3263759396
  0
LINE
  5
292
100
AcDbEntity
  8
0
100
AcDbLine
 62
7
  6
CONTINUOUS
 10
60.1365429341
 20
69.4263759396
 11
58.1365429344
 21
69.4263759396
  0
LINE
  5
293
100
AcDbEntity
  8
0
100
AcDbLine
 62
7
  6
CONTINUOUS
 10
49.6365429341
 20
69.4263759396
 11
47.6365429344
 21
69.4263759396
  0
LINE
  5
294
100
AcDbEntity
  8
0
100
AcDbLine
 62
7
  6
CONTINUOUS
 10
39.1365429344
 20
69.4263759396
 11
37.1365429347
 21
69.4263759396
  0
LINE
  5
295
100
AcDbEntity
  8
0
100
AcDbLine
 62
7
  6
CONTINUOUS
 10
28.636542934
 20
69.4263759396
 11
26.6365429344
 21
69.4263759396
  0
LINE
  5
296
100
AcDbEntity
  8
0
100
AcDbLine
 62
7
  6
CONTINUOUS
 10
55.0365429344
 20
101.7365191996
 11
55.0365429344
 21
90.9763759396
  0
LINE
  5
297
100
AcDbEntity
  8
0
100
AcDbLine
 62
7
  6
CONTINUOUS
 10
57.3865429344
 20
66.326338323
 11
57.3865429344
 21
71.2986309912
  0
LINE
  5
298
100
AcDbEntity
  8
0
100
AcDbLine
 62
7
  6
CONTINUOUS
 10
57.5365429344
 20
90.976338323
 11
57.5365429344
 21
95.9065615013
  0
LINE
  5
299
100
AcDbEntity
  8
0
100
AcDbLine
 62
7
  6
CONTINUOUS
 10
57.6365429344
 20
69.9263759396
 11
57.6365429344
 21
70.7719360721
  0
LINE
  5
29A
100
AcDbEntity
  8
0
100
AcDbLine
 62
7
  6
CONTINUOUS
 10
57.6865429344
 20
94.7263759396
 11
57.6865429344
 21
95.3797788137
  0
LINE
  5
29B
100
AcDbEntity
  8
0
100
AcDbLine
 62
7
  6
CONTINUOUS
 10
54.1865429344
 20
66.3263759396
 11
54.6865429344
 21
65.8263759396
  0
LINE
  5
29C
100
AcDbEntity
  8
0
100
AcDbLine
 62
7
  6
CONTINUOUS
 10
59.00095935
 20
47.5763759396
 11
59.00095935
 21
16.5758306733
  0
LINE
  5
29D
100
AcDbEntity
  8
INTFCLR_76
100
AcDbLine
 62
7
420
3604575
  6
CONTINUOUS
 10
59.1365429344
 20
88.6019993733
 11
59.1365429344
 21
88.2206531085
  0
LINE
  5
29E
100
AcDbEntity
  8
0
100
AcDbLine
 62
7
  6
CONTINUOUS
 10
60.6365429341
 20
70.7719412365
 11
60.6365429341
 21
69.9263759396
  0
LINE
  5
29F
100
AcDbEntity
  8
0
100
AcDbLine
 62
7
  6
CONTINUOUS
 10
60.8865429344
 20
95.3797788137
 11
60.8865429344
 21
94.7263759396
  0
LINE
  5
2A0
100
AcDbEntity
  8
0
100
AcDbLine
 62
7
  6
CONTINUOUS
 10
60.8865429344
 20
66.3264135562
 11
60.8865429344
 21
71.2986393445
  0
LINE
  5
2A1
100
AcDbEntity
  8
0
100
AcDbLine
 62
7
  6
CONTINUOUS
 10
61.0365429344
 20
90.9764135562
 11
61.0365429344
 21
95.9065615013
  0
LINE
  5
2A2
100
AcDbEntity
  8
0
100
AcDbLine
 62
7
  6
CONTINUOUS
 10
61.7866513883
 20
110.4246293161
 11
61.7865429389
 21
104.0246293191
  0
LINE
  5
2A3
100
AcDbEntity
  8
0
100
AcDbLine
 62
7
  6
CONTINUOUS
 10
53.5865429344
 20
71.3263759396
 11
53.0865429344
 21
71.8263759396
  0
LINE
  5
2A4
100
AcDbEntity
  8
0
100
AcDbLine
 62
7
  6
CONTINUOUS
 10
62.6365429344
 20
100.9263759396
 11
62.6365429344
 21
96.9263759396
  0
LINE
  5
2A5
100
AcDbEntity
  8
0
100
AcDbLine
 62
7
  6
CONTINUOUS
 10
63.5365429344
 20
90.9763759396
 11
63.5365429344
 21
96.9263759396
  0
LINE
  5
2A6
100
AcDbEntity
  8
0
100
AcDbLine
 62
7
  6
CONTINUOUS
 10
63.8642174502
 20
66.3263759396
 11
63.8642174502
 21
70.834326854
  0
LINE
  5
2A7
100
AcDbEntity
  8
0
100
AcDbLine
 62
7
  6
CONTINUOUS
 10
63.8865429344
 20
65.8263759396
 11
63.8865429344
 21
55.3263759396
  0
LINE
  5
2A8
100
AcDbEntity
  8
0
100
AcDbLine
 62
7
  6
CONTINUOUS
 10
63.8865429344
 20
71.8263759396
 11
63.8865429344
 21
86.4547904034
  0
LINE
  5
2A9
100
AcDbEntity
  8
0
100
AcDbLine
 62
7
  6
CONTINUOUS
 10
64.1865429344
 20
96.4263759396
 11
64.1865429344
 21
100.9263759396
  0
LINE
  5
2AA
100
AcDbEntity
  8
0
100
AcDbLine
 62
7
  6
CONTINUOUS
 10
64.3096198826
 20
16.5738828677
 11
64.3096198826
 21
9.5738828027
  0
LINE
  5
2AB
100
AcDbEntity
  8
0
100
AcDbLine
 62
7
  6
CONTINUOUS
 10
64.3865429344
 20
66.3263759396
 11
64.3865429344
 21
71.3263759396
  0
LINE
  5
2AC
100
AcDbEntity
  8
0
100
AcDbLine
 62
7
  6
CONTINUOUS
 10
65.5871897761
 20
110.42474577
 11
65.5871897761
 21
104.024745773
  0
LINE
  5
2AD
100
AcDbEntity
  8
0
100
AcDbLine
 62
7
  6
CONTINUOUS
 10
65.7865429344
 20
9.5744694771
 11
65.7865429344
 21
103.924626364
  0
LINE
  5
2AE
100
AcDbEntity
  8
0
100
AcDbLine
 62
7
  6
CONTINUOUS
 10
64.3865429344
 20
71.3263759396
 11
63.8865429344
 21
71.8263759396
  0
LINE
  5
2AF
100
AcDbEntity
  8
0
100
AcDbLine
 62
7
  6
CONTINUOUS
 10
33.8365429344
 20
90.9763759396
 11
42.3365429344
 21
90.9763759396
  0
LINE
  5
2B0
100
AcDbEntity
  8
0
100
AcDbLine
 62
7
  6
CONTINUOUS
 10
44.4365429344
 20
90.9763759396
 11
52.9365429344
 21
90.9763759396
  0
LINE
  5
2B1
100
AcDbEntity
  8
0
100
AcDbLine
 62
7
  6
CONTINUOUS
 10
55.0365429344
 20
90.9763759396
 11
63.5365429344
 21
90.9763759396
  0
LINE
  5
2B2
100
AcDbEntity
  8
0
100
AcDbLine
 62
7
  6
CONTINUOUS
 10
60.3865429344
 20
94.2263759396
 11
58.1865429344
 21
94.2263759396
  0
LINE
  5
2B3
100
AcDbEntity
  8
0
100
AcDbLine
 62
7
  6
CONTINUOUS
 10
49.7865429344
 20
94.2263759396
 11
47.5865429344
 21
94.2263759396
  0
LINE
  5
2B4
100
AcDbEntity
  8
0
100
AcDbLine
 62
7
  6
CONTINUOUS
 10
39.1865429344
 20
94.2263759396
 11
36.9865429344
 21
94.2263759396
  0
LINE
  5
2B5
100
AcDbEntity
  8
0
100
AcDbLine
 62
7
  6
CONTINUOUS
 10
56.6865429344
 20
96.3797788137
 11
55.0365429344
 21
96.3797788137
  0
LINE
  5
2B6
100
AcDbEntity
  8
0
100
AcDbLine
 62
7
  6
CONTINUOUS
 10
52.9365429344
 20
96.3797788137
 11
51.2865429344
 21
96.3797788137
  0
LINE
  5
2B7
100
AcDbEntity
  8
0
100
AcDbLine
 62
7
  6
CONTINUOUS
 10
46.0865429344
 20
96.3797788137
 11
44.4365429344
 21
96.3797788137
  0
LINE
  5
2B8
100
AcDbEntity
  8
0
100
AcDbLine
 62
7
  6
CONTINUOUS
 10
42.3365429344
 20
96.3797788137
 11
40.6865429344
 21
96.3797788137
  0
LINE
  5
2B9
100
AcDbEntity
  8
0
100
AcDbLine
 62
7
  6
CONTINUOUS
 10
35.4865429344
 20
96.3797788137
 11
33.8365429344
 21
96.3797788137
  0
LINE
  5
2BA
100
AcDbEntity
  8
0
100
AcDbLine
 62
7
  6
CONTINUOUS
 10
61.8865429344
 20
96.3797788137
 11
63.5365429344
 21
96.3797788137
  0
LINE
  5
2BB
100
AcDbEntity
  8
0
100
AcDbLine
 62
7
  6
CONTINUOUS
 10
22.7865429344
 20
96.4263759396
 11
20.9865429344
 21
96.4263759396
  0
LINE
  5
2BC
100
AcDbEntity
  8
0
100
AcDbLine
 62
7
  6
CONTINUOUS
 10
64.1865429344
 20
96.4263759396
 11
65.7865429344
 21
96.4263759396
  0
LINE
  5
2BD
100
AcDbEntity
  8
0
100
AcDbLine
 62
7
  6
CONTINUOUS
 10
54.4865429344
 20
96.5412111325
 11
53.4865429344
 21
96.5412111325
  0
LINE
  5
2BE
100
AcDbEntity
  8
0
100
AcDbLine
 62
7
  6
CONTINUOUS
 10
43.8865429344
 20
96.5412111325
 11
42.8865429344
 21
96.5412111325
  0
LINE
  5
2BF
100
AcDbEntity
  8
0
100
AcDbLine
 62
7
  6
CONTINUOUS
 10
22.7865429344
 20
96.9263759396
 11
24.3365429344
 21
96.9263759396
  0
LINE
  5
2C0
100
AcDbEntity
  8
0
100
AcDbLine
 62
7
  6
CONTINUOUS
 10
62.6365429344
 20
96.9263759396
 11
64.1865429344
 21
96.9263759396
  0
LINE
  5
2C1
100
AcDbEntity
  8
0
100
AcDbLine
 62
7
  6
CONTINUOUS
 10
65.7865429344
 20
100.9263759396
 11
62.6365429344
 21
100.9263759396
  0
LINE
  5
2C2
100
AcDbEntity
  8
0
100
AcDbLine
 62
7
  6
CONTINUOUS
 10
24.3365429344
 20
100.9263759396
 11
20.9865429344
 21
100.9263759396
  0
LINE
  5
2C3
100
AcDbEntity
  8
0
100
AcDbLine
 62
7
  6
CONTINUOUS
 10
42.8865429344
 20
101.9263759396
 11
43.8865429344
 21
101.9263759396
  0
LINE
  5
2C4
100
AcDbEntity
  8
0
100
AcDbLine
 62
7
  6
CONTINUOUS
 10
53.4865429344
 20
101.9263759396
 11
54.4865429344
 21
101.9263759396
  0
LINE
  5
2C5
100
AcDbEntity
  8
0
100
AcDbLine
 62
7
  6
CONTINUOUS
 10
20.9865429344
 20
103.924626364
 11
65.7865429344
 21
103.924626364
  0
LINE
  5
2C6
100
AcDbEntity
  8
0
100
AcDbLine
 62
7
  6
CONTINUOUS
 10
65.5871897761
 20
104.024745773
 11
21.1858960926
 21
104.024745773
  0
LINE
  5
2C7
100
AcDbEntity
  8
0
100
AcDbLine
 62
7
  6
CONTINUOUS
 10
65.5871897761
 20
110.42474577
 11
21.1858960926
 21
110.42474577
  0
ARC
  5
2C8
100
AcDbEntity
  8
0
100
AcDbCircle
 62
7
  6
CONTINUOUS
 10
43.3865429344
 20
-36.5514018382
 40
140.2777777778
100
AcDbArc
 50
80.8114933375
 51
99.1885066625
  0
ARC
  5
2C9
100
AcDbEntity
  8
0
100
AcDbCircle
 62
7
  6
CONTINUOUS
 10
43.3865429344
 20
-36.5514018382
 40
138.7777777778
100
AcDbArc
 50
82.0267375646
 51
85.1845149383
  0
ARC
  5
2CA
100
AcDbEntity
  8
0
100
AcDbCircle
 62
7
  6
CONTINUOUS
 10
43.3865429344
 20
-36.5514018382
 40
138.7777777778
100
AcDbArc
 50
90.4335070315
 51
93.9459305709
  0
ARC
  5
2CB
100
AcDbEntity
  8
0
100
AcDbCircle
 62
7
  6
CONTINUOUS
 10
43.3865429344
 20
-36.5514018382
 40
138.7777777778
100
AcDbArc
 50
86.0540694291
 51
89.5664929685
  0
ARC
  5
2CC
100
AcDbEntity
  8
0
100
AcDbCircle
 62
7
  6
CONTINUOUS
 10
43.3865429344
 20
-37.2136240604
 40
126.44
100
AcDbArc
 50
79.7956694953
 51
100.2043305047
  0
ARC
  5
2CD
100
AcDbEntity
  8
0
100
AcDbCircle
 62
7
  6
CONTINUOUS
 10
43.3865429344
 20
-37.2136240604
 40
125.356
100
AcDbArc
 50
80.587903092
 51
84.8281505275
  0
ARC
  5
2CE
100
AcDbEntity
  8
0
100
AcDbCircle
 62
7
  6
CONTINUOUS
 10
43.3865429344
 20
-37.2136240604
 40
125.356
100
AcDbArc
 50
85.5620378599
 51
89.6343459048
  0
ARC
  5
2CF
100
AcDbEntity
  8
0
100
AcDbCircle
 62
7
  6
CONTINUOUS
 10
43.3865429344
 20
-37.2136240604
 40
125.356
100
AcDbArc
 50
90.3656540952
 51
94.4379621401
  0
ARC
  5
2D0
100
AcDbEntity
  8
0
100
AcDbCircle
 62
7
  6
CONTINUOUS
 10
43.3865429344
 20
-37.2136240604
 40
125.356
100
AcDbArc
 50
95.1718494725
 51
99.412096908
  0
ARC
  5
2D1
100
AcDbEntity
  8
0
100
AcDbCircle
 62
7
  6
CONTINUOUS
 10
27.6205348524
 20
55.1162690852
 40
16.4090700465
100
AcDbArc
 50
97.2525307074
 51
106.686667154
  0
ARC
  5
2D2
100
AcDbEntity
  8
0
100
AcDbCircle
 62
7
  6
CONTINUOUS
 10
38.1204664125
 20
55.1164370549
 40
16.4088918478
100
AcDbArc
 50
97.252379298
 51
106.6866049092
  0
ARC
  5
2D3
100
AcDbEntity
  8
0
100
AcDbCircle
 62
7
  6
CONTINUOUS
 10
27.6566027039
 20
55.1349549278
 40
16.3899998362
100
AcDbArc
 50
73.3081207085
 51
82.7537276714
  0
ARC
  5
2D4
100
AcDbEntity
  8
0
100
AcDbCircle
 62
7
  6
CONTINUOUS
 10
38.156863784
 20
55.1364246592
 40
16.3885097877
100
AcDbArc
 50
73.3075122662
 51
82.7540106644
  0
ARC
  5
2D5
100
AcDbEntity
  8
0
100
AcDbCircle
 62
7
  6
CONTINUOUS
 10
40.6865429344
 20
95.3797788137
 40
1.0
100
AcDbArc
 50
90.0
 51
180.0
  0
ARC
  5
2D6
100
AcDbEntity
  8
0
100
AcDbCircle
 62
7
  6
CONTINUOUS
 10
35.4865429344
 20
95.3797788137
 40
1.0
100
AcDbArc
 50
0.0
 51
90.0
  0
ARC
  5
2D7
100
AcDbEntity
  8
0
100
AcDbCircle
 62
7
  6
CONTINUOUS
 10
37.1365429347
 20
69.9263759396
 40
0.5
100
AcDbArc
 50
180.0
 51
270.0
  0
ARC
  5
2D8
100
AcDbEntity
  8
0
100
AcDbCircle
 62
7
  6
CONTINUOUS
 10
39.1365429344
 20
69.9263759396
 40
0.5
100
AcDbArc
 50
270.0
 51
360.0
  0
ARC
  5
2D9
100
AcDbEntity
  8
0
100
AcDbCircle
 62
7
  6
CONTINUOUS
 10
37.8865429344
 20
42.5763759396
 40
0.5
100
AcDbArc
 50
180.0000000001
 51
359.9999999999
  0
ARC
  5
2DA
100
AcDbEntity
  8
0
100
AcDbCircle
 62
7
  6
CONTINUOUS
 10
28.636542934
 20
69.9263759396
 40
0.5
100
AcDbArc
 50
270.0
 51
360.0
  0
ARC
  5
2DB
100
AcDbEntity
  8
0
100
AcDbCircle
 62
7
  6
CONTINUOUS
 10
26.6365429344
 20
69.9263759396
 40
0.5
100
AcDbArc
 50
180.0
 51
270.0
  0
ARC
  5
2DC
100
AcDbEntity
  8
0
100
AcDbCircle
 62
7
  6
CONTINUOUS
 10
36.9865429344
 20
94.7263759396
 40
0.5
100
AcDbArc
 50
180.0
 51
270.0
  0
ARC
  5
2DD
100
AcDbEntity
  8
0
100
AcDbCircle
 62
7
  6
CONTINUOUS
 10
39.1865429344
 20
94.7263759396
 40
0.5
100
AcDbArc
 50
270.0
 51
360.0
  0
ARC
  5
2DE
100
AcDbEntity
  8
0
100
AcDbCircle
 62
7
  6
CONTINUOUS
 10
59.120556619
 20
55.1157439726
 40
16.4095890096
100
AcDbArc
 50
97.252389807
 51
106.6862055815
  0
ARC
  5
2DF
100
AcDbEntity
  8
0
100
AcDbCircle
 62
7
  6
CONTINUOUS
 10
48.6204664123
 20
55.1164370571
 40
16.4088918456
100
AcDbArc
 50
97.2523792994
 51
106.6866049106
  0
ARC
  5
2E0
100
AcDbEntity
  8
0
100
AcDbCircle
 62
7
  6
CONTINUOUS
 10
48.6568637836
 20
55.1364246562
 40
16.3885097907
100
AcDbArc
 50
73.3075122678
 51
82.7540106667
  0
ARC
  5
2E1
100
AcDbEntity
  8
0
100
AcDbCircle
 62
7
  6
CONTINUOUS
 10
59.1568801605
 20
55.1366413189
 40
16.3882952809
100
AcDbArc
 50
73.307347238
 51
82.7539983279
  0
ARC
  5
2E2
100
AcDbEntity
  8
0
100
AcDbCircle
 62
7
  6
CONTINUOUS
 10
51.2865429344
 20
95.3797788137
 40
1.0
100
AcDbArc
 50
90.0
 51
180.0
  0
ARC
  5
2E3
100
AcDbEntity
  8
0
100
AcDbCircle
 62
7
  6
CONTINUOUS
 10
46.0865429344
 20
95.3797788137
 40
1.0
100
AcDbArc
 50
0.0
 51
90.0
  0
ARC
  5
2E4
100
AcDbEntity
  8
0
100
AcDbCircle
 62
7
  6
CONTINUOUS
 10
56.6865429344
 20
95.3797788137
 40
1.0
100
AcDbArc
 50
0.0
 51
90.0
  0
ARC
  5
2E5
100
AcDbEntity
  8
0
100
AcDbCircle
 62
7
  6
CONTINUOUS
 10
61.8865429344
 20
95.3797788137
 40
1.0
100
AcDbArc
 50
90.0
 51
180.0
  0
ARC
  5
2E6
100
AcDbEntity
  8
0
100
AcDbCircle
 62
7
  6
CONTINUOUS
 10
47.6365429344
 20
69.9263759396
 40
0.5
100
AcDbArc
 50
180.0
 51
270.0
  0
ARC
  5
2E7
100
AcDbEntity
  8
0
100
AcDbCircle
 62
7
  6
CONTINUOUS
 10
49.6365429341
 20
69.9263759396
 40
0.5
100
AcDbArc
 50
270.0
 51
360.0
  0
ARC
  5
2E8
100
AcDbEntity
  8
0
100
AcDbCircle
 62
7
  6
CONTINUOUS
 10
58.1365429344
 20
69.9263759396
 40
0.5
100
AcDbArc
 50
180.0
 51
270.0
  0
ARC
  5
2E9
100
AcDbEntity
  8
0
100
AcDbCircle
 62
7
  6
CONTINUOUS
 10
60.1365429341
 20
69.9263759396
 40
0.5
100
AcDbArc
 50
270.0
 51
360.0
  0
ARC
  5
2EA
100
AcDbEntity
  8
0
100
AcDbCircle
 62
7
  6
CONTINUOUS
 10
48.8865429344
 20
42.5763759396
 40
0.5
100
AcDbArc
 50
180.0000000014
 51
359.9999999999
  0
ARC
  5
2EB
100
AcDbEntity
  8
0
100
AcDbCircle
 62
7
  6
CONTINUOUS
 10
47.5865429344
 20
94.7263759396
 40
0.5
100
AcDbArc
 50
180.0
 51
270.0
  0
ARC
  5
2EC
100
AcDbEntity
  8
0
100
AcDbCircle
 62
7
  6
CONTINUOUS
 10
49.7865429344
 20
94.7263759396
 40
0.5
100
AcDbArc
 50
270.0
 51
360.0
  0
ARC
  5
2ED
100
AcDbEntity
  8
0
100
AcDbCircle
 62
7
  6
CONTINUOUS
 10
58.1865429344
 20
94.7263759396
 40
0.5
100
AcDbArc
 50
180.0
 51
270.0
  0
ARC
  5
2EE
100
AcDbEntity
  8
0
100
AcDbCircle
 62
7
  6
CONTINUOUS
 10
60.3865429344
 20
94.7263759396
 40
0.5
100
AcDbArc
 50
270.0
 51
360.0
  0
SPLINE
  5
2EF
100
AcDbEntity
  8
0
100
AcDbSpline
 62
7
  6
CONTINUOUS
 70
0
 71
3
 72
12
 73
8
 74
0
 42
0.0000001
 43
0.0000001
 44
0.0000000001
 40
0.0
 40
0.0
 40
0.0
 40
0.0
 40
0.1637109552
 40
0.3510489979
 40
0.5567525892
 40
0.7745535122
 40
1.0
 40
1.0
 40
1.0
 40
1.0
 10
40.2239397824
 20
71.3940599033
 30
0.0
 10
40.1720334793
 20
71.4006549271
 30
0.0
 10
40.0571133961
 20
71.3935457948
 30
0.0
 10
39.892213374
 20
71.3167281402
 30
0.0
 10
39.7520411841
 20
71.1753799976
 30
0.0
 10
39.6586881043
 20
70.9865939783
 30
0.0
 10
39.6365429344
 20
70.843991868
 30
0.0
 10
39.6365429344
 20
70.7719378341
 30
0.0
  0
SPLINE
  5
2F0
100
AcDbEntity
  8
0
100
AcDbSpline
 62
7
  6
CONTINUOUS
 70
0
 71
3
 72
12
 73
8
 74
0
 42
0.0000001
 43
0.0000001
 44
0.0000000001
 40
0.0
 40
0.0
 40
0.0
 40
0.0
 40
0.2358663742
 40
0.4507350327
 40
0.6475510373
 40
0.8295724933
 40
1.0
 40
1.0
 40
1.0
 40
1.0
 10
36.6365429347
 20
70.7719378927
 30
0.0
 10
36.6365429347
 20
70.8473332181
 30
0.0
 10
36.6129496001
 20
70.9924928658
 30
0.0
 10
36.5173439121
 20
71.1795878189
 30
0.0
 10
36.3804862701
 20
71.3159733496
 30
0.0
 10
36.2186489145
 20
71.3928744982
 30
0.0
 10
36.1030470448
 20
71.4009285316
 30
0.0
 10
36.049006592
 20
71.3940422144
 30
0.0
  0
SPLINE
  5
2F1
100
AcDbEntity
  8
0
100
AcDbSpline
 62
7
  6
CONTINUOUS
 70
0
 71
3
 72
12
 73
8
 74
0
 42
0.0000001
 43
0.0000001
 44
0.0000000001
 40
0.0
 40
0.0
 40
0.0
 40
0.0
 40
0.2358663742
 40
0.4507350327
 40
0.6475510372
 40
0.8295724932
 40
1.0
 40
1.0
 40
1.0
 40
1.0
 10
47.1365429344
 20
70.7719378927
 30
0.0
 10
47.1365429344
 20
70.8473332181
 30
0.0
 10
47.1129495998
 20
70.9924928658
 30
0.0
 10
47.0173439118
 20
71.1795878189
 30
0.0
 10
46.8804862698
 20
71.3159733496
 30
0.0
 10
46.7186489141
 20
71.3928744982
 30
0.0
 10
46.6030470444
 20
71.4009285316
 30
0.0
 10
46.5490065917
 20
71.3940422144
 30
0.0
  0
SPLINE
  5
2F2
100
AcDbEntity
  8
0
100
AcDbSpline
 62
7
  6
CONTINUOUS
 70
0
 71
3
 72
12
 73
8
 74
0
 42
0.0000001
 43
0.0000001
 44
0.0000000001
 40
0.0
 40
0.0
 40
0.0
 40
0.0
 40
0.1637109549
 40
0.3510489976
 40
0.556752589
 40
0.7745535121
 40
1.0
 40
1.0
 40
1.0
 40
1.0
 10
50.7239397817
 20
71.3940599033
 30
0.0
 10
50.6720334787
 20
71.4006549271
 30
0.0
 10
50.5571133957
 20
71.3935457947
 30
0.0
 10
50.3922133737
 20
71.3167281403
 30
0.0
 10
50.2520411838
 20
71.1753799976
 30
0.0
 10
50.158688104
 20
70.9865939783
 30
0.0
 10
50.1365429341
 20
70.843991868
 30
0.0
 10
50.1365429341
 20
70.7719378341
 30
0.0
  0
SPLINE
  5
2F3
100
AcDbEntity
  8
0
100
AcDbSpline
 62
7
  6
CONTINUOUS
 70
0
 71
3
 72
12
 73
8
 74
0
 42
0.0000001
 43
0.0000001
 44
0.0000000001
 40
0.0
 40
0.0
 40
0.0
 40
0.0
 40
0.1637080177
 40
0.3510468508
 40
0.5567512024
 40
0.7745528847
 40
1.0
 40
1.0
 40
1.0
 40
1.0
 10
61.2239327254
 20
71.394064285
 30
0.0
 10
61.1720276008
 20
71.4006582551
 30
0.0
 10
61.0571092573
 20
71.3935478845
 30
0.0
 10
60.8922113364
 20
71.3167300398
 30
0.0
 10
60.7520401995
 20
71.175381896
 30
0.0
 10
60.6586879054
 20
70.9865964547
 30
0.0
 10
60.6365429341
 20
70.8439949462
 30
0.0
 10
60.6365429341
 20
70.7719412365
 30
0.0
  0
SPLINE
  5
2F4
100
AcDbEntity
  8
0
100
AcDbSpline
 62
7
  6
CONTINUOUS
 70
0
 71
3
 72
12
 73
8
 74
0
 42
0.0000001
 43
0.0000001
 44
0.0000000001
 40
0.0
 40
0.0
 40
0.0
 40
0.0
 40
0.2358667725
 40
0.4507357181
 40
0.6475519761
 40
0.8295736219
 40
1.0
 40
1.0
 40
1.0
 40
1.0
 10
57.6365429344
 20
70.7719360721
 30
0.0
 10
57.6365429344
 20
70.8473315805
 30
0.0
 10
57.6129494848
 20
70.9924915621
 30
0.0
 10
57.5173433564
 20
71.1795868246
 30
0.0
 10
57.3804851447
 20
71.3159723532
 30
0.0
 10
57.2186476035
 20
71.3928729557
 30
0.0
 10
57.1030459452
 20
71.400926618
 30
0.0
 10
57.0490058144
 20
71.3940402466
 30
0.0
  0
SPLINE
  5
2F5
100
AcDbEntity
  8
0
100
AcDbSpline
 62
7
  6
CONTINUOUS
 70
0
 71
3
 72
12
 73
8
 74
0
 42
0.0000001
 43
0.0000001
 44
0.0000000001
 40
0.0
 40
0.0
 40
0.0
 40
0.0
 40
0.1637153837
 40
0.3510523627
 40
0.5567548443
 40
0.774554617
 40
1.0
 40
1.0
 40
1.0
 40
1.0
 10
29.7239468361
 20
71.3940572292
 30
0.0
 10
29.6720388887
 20
71.4006533718
 30
0.0
 10
29.5571166462
 20
71.3935452423
 30
0.0
 10
29.3922144798
 20
71.3167272238
 30
0.0
 10
29.2520417181
 20
71.175379082
 30
0.0
 10
29.1586882117
 20
70.9865927492
 30
0.0
 10
29.136542934
 20
70.8439903125
 30
0.0
 10
29.136542934
 20
70.7719361028
 30
0.0
  0
SPLINE
  5
2F6
100
AcDbEntity
  8
0
100
AcDbSpline
 62
7
  6
CONTINUOUS
 70
0
 71
3
 72
12
 73
8
 74
0
 42
0.0000001
 43
0.0000001
 44
0.0000000001
 40
0.0
 40
0.0
 40
0.0
 40
0.0
 40
0.235866024
 40
0.4507344997
 40
0.6475503541
 40
0.8295717513
 40
1.0
 40
1.0
 40
1.0
 40
1.0
 10
26.1365429344
 20
70.7719413401
 30
0.0
 10
26.1365429344
 20
70.8473363375
 30
0.0
 10
26.1129498056
 20
70.9924953873
 30
0.0
 10
26.0173449059
 20
71.1795897861
 30
0.0
 10
25.8804882834
 20
71.31597532
 30
0.0
 10
25.7186517136
 20
71.3928772299
 30
0.0
 10
25.6030500224
 20
71.4009320727
 30
0.0
 10
25.5490094485
 20
71.3940461096
 30
0.0
  0
SPLINE
  5
2F7
100
AcDbEntity
  8
0
100
AcDbSpline
 62
7
  6
CONTINUOUS
 70
0
 71
3
 72
10
 73
6
 74
0
 42
0.0000001
 43
0.0000001
 44
0.0000000001
 40
0.0
 40
0.0
 40
0.0
 40
0.0
 40
0.2340578653
 40
0.480425085
 40
1.0
 40
1.0
 40
1.0
 40
1.0
 10
28.7305314593
 20
16.5736904942
 30
0.0
 10
28.6763573839
 20
16.5736904942
 30
0.0
 10
28.565173343
 20
16.5660771028
 30
0.0
 10
28.3359748586
 20
16.5336020993
 30
0.0
 10
28.1616358696
 20
16.501044511
 30
0.0
 10
28.0426519009
 20
16.4835812346
 30
0.0
  0
SPLINE
  5
2F8
100
AcDbEntity
  8
0
100
AcDbSpline
 62
7
  6
CONTINUOUS
 70
0
 71
3
 72
11
 73
7
 74
0
 42
0.0000001
 43
0.0000001
 44
0.0000000001
 40
0.0
 40
0.0
 40
0.0
 40
0.0
 40
0.2539019268
 40
0.5063044633
 40
0.7556116091
 40
1.0
 40
1.0
 40
1.0
 40
1.0
 10
25.9865429343
 20
16.0736904942
 30
0.0
 10
25.7249164894
 20
16.1321919458
 30
0.0
 10
25.2032230963
 20
16.2488615698
 30
0.0
 10
24.4213015319
 20
16.4082323339
 30
0.0
 10
23.6431966632
 20
16.5324272741
 30
0.0
 10
23.1220589776
 20
16.5736904942
 30
0.0
 10
22.864016701
 20
16.5736904942
 30
0.0
  0
SPLINE
  5
2F9
100
AcDbEntity
  8
0
100
AcDbSpline
 62
7
  6
CONTINUOUS
 70
0
 71
3
 72
9
 73
5
 74
0
 42
0.0000001
 43
0.0000001
 44
0.0000000001
 40
0.0
 40
0.0
 40
0.0
 40
0.0
 40
0.4973612791
 40
1.0
 40
1.0
 40
1.0
 40
1.0
 10
28.0426519009
 20
16.4835812346
 30
0.0
 10
27.698697639
 20
16.4330990832
 30
0.0
 10
27.0114566473
 20
16.3029119428
 30
0.0
 10
26.3294038701
 20
16.1503565301
 30
0.0
 10
25.9865429343
 20
16.0736904942
 30
0.0
  0
ENDSEC
  0
SECTION
  2
OBJECTS
  0
DICTIONARY
  5
C
100
AcDbDictionary
280
0
281
1
  3
ACAD_GROUP
350
D
  3
ACAD_MLINESTYLE
350
17
  3
ACAD_LAYOUT
350
1A
  3
ACAD_PLOTSETTINGS
350
19
  3
ACAD_PLOTSTYLENAME
350
E
  0
DICTIONARY
  5
D
102
{ACAD_REACTORS
330
C
102
}
100
AcDbDictionary
280
0
281
1
  0
ACDBDICTIONARYWDFLT
  5
E
102
{ACAD_REACTORS
330
C
102
}
100
AcDbDictionary
281
1
  3
Normal
350
F
100
AcDbDictionaryWithDefault
340
F
  0
DICTIONARY
  5
17
102
{ACAD_REACTORS
330
C
102
}
100
AcDbDictionary
280
0
281
1
  3
Standard
350
18
  0
DICTIONARY
  5
19
102
{ACAD_REACTORS
330
C
102
}
100
AcDbDictionary
281
1
  0
DICTIONARY
  5
1A
102
{ACAD_REACTORS
330
C
102
}
100
AcDbDictionary
281
1
  3
Model
350
2FA
  3
Layout1
350
2FB
  0
ACDBPLACEHOLDER
  5
F
102
{ACAD_REACTORS
330
E
102
}
  0
MLINESTYLE
  5
18
102
{ACAD_REACTORS
330
17
102
}
100
AcDbMlineStyle
  2
STANDARD
 70
0
  3

 62
256
 51
90.0
 52
90.0
 71
2
 49
0.5
 62
256
  6
BYLAYER
 49
-0.5
 62
256
  6
BYLAYER
  0
LAYOUT
  5
2FA
102
{ACAD_REACTORS
330
1A
102
}
100
AcDbPlotSettings
  1

  2
none_device
  4

  6

 40
0.0
 41
0.0
 42
0.0
 43
0.0
 44
210.0
 45
297.0
 46
0.0
 47
0.0
 48
0.0
 49
0.0
140
0.0
141
0.0
142
1.0
143
1.0
 70
1024
 72
1
 73
0
 74
0
  7

 75
0
147
1.0
148
0.0
149
0.0
100
AcDbLayout
  1
Model
 70
0
 71
0
 10
0.0
 20
0.0
 11
210.0
 21
297.0
 12
0.0
 22
0.0
 32
0.0
 14
0.0
 24
0.0
 34
0.0
 15
0.0
 25
0.0
 35
0.0
146
0.0
 13
0.0
 23
0.0
 33
0.0
 16
1.0
 26
0.0
 36
0.0
 17
0.0
 27
1.0
 37
0.0
 76
0
330
213
345
0
346
0
  0
LAYOUT
  5
2FB
102
{ACAD_REACTORS
330
1A
102
}
100
AcDbPlotSettings
  1

  2
none_device
  4

  6

 40
0.0
 41
0.0
 42
0.0
 43
0.0
 44
210.0
 45
297.0
 46
0.0
 47
0.0
 48
0.0
 49
0.0
140
0.0
141
0.0
142
1.0
143
1.0
 70
0
 72
1
 73
0
 74
0
  7

 75
0
147
1.0
148
0.0
149
0.0
100
AcDbLayout
  1
Layout1
 70
0
 71
1
 10
0.0
 20
0.0
 11
210.0
 21
297.0
 12
0.0
 22
0.0
 32
0.0
 14
0.0
 24
0.0
 34
0.0
 15
0.0
 25
0.0
 35
0.0
146
0.0
 13
0.0
 23
0.0
 33
0.0
 16
1.0
 26
0.0
 36
0.0
 17
0.0
 27
1.0
 37
0.0
 76
0
330
214
345
0
346
0
  0
ENDSEC
  0
EOF
