999
DXF file: C:\Users\sesa63760\Dev\_Creo\CAD\MCADID0005853_3D-CAD\mcadid0005853_3d-simplified_7.dxf
999
Pro/ENGINEER 2019471 by Parametric Technology Corporation
  0
SECTION
  2
HEADER
  9
$ACADVER
  1
AC1024
  9
$DWGCODEPAGE
  3
ANSI_1252
  9
$EXTMAX
 10
52.8161616162
 20
74.6971428571
 30
0.0
  9
$EXTMIN
 10
0.0
 20
0.0
 30
0.0
  9
$LIMMIN
 10
0.0
 20
0.0
  9
$LIMMAX
 10
52.8161616162
 20
74.6971428571
  9
$VIEWCTR
 10
26.4080808081
 20
37.3485714286
  9
$VIEWSIZE
 40
74.6971428571
  9
$CLAYER
  8
0
  9
$LTSCALE
 40
4.8691470899
  9
$CELTYPE
  6
BYLAYER
  9
$DIMSCALE
 40
1.0
  9
$DIMASZ
 40
0.6287638288
  9
$DIMEXO
 40
1.0
  9
$DIMDLI
 40
3.3641379894
  9
$DIMEXE
 40
1.0
  9
$DIMCEN
 40
0.7967695238
  9
$DIMLFAC
 40
1.0
  9
$DIMBLK
  1
_FILLED
  9
$DIMALT
 70
0
  9
$DIMALTF
 40
0.0393700787
  9
$DIMTXT
 40
0.8802693603
  9
$DIMTOL
 70
1
  9
$DIMLIM
 70
0
  9
$DIMTFAC
 40
1.0
  9
$DIMTP
 40
0.01
  9
$DIMTM
 40
0.01
  9
$DIMGAP
 40
0.625
  9
$DIMDSEP
 70
46
  9
$AUNITS
 70
0
  9
$PDMODE
 70
3
  9
$PDSIZE
 40
0.3125
  9
$HANDSEED
  5
272
  9
$TILEMODE
 70
1
  9
$MEASUREMENT
 70
1
  9
$INSUNITS
 70
4
  0
ENDSEC
  0
SECTION
  2
CLASSES
  0
CLASS
  1
ACDBDICTIONARYWDFLT
  2
AcDbDictionaryWithDefault
  3
AutoCAD 2000
 90
0
 91
1
280
0
281
0
  0
CLASS
  1
ACDBPLACEHOLDER
  2
AcDbPlaceHolder
  3
AutoCAD 2000
 90
0
 91
1
280
0
281
0
  0
CLASS
  1
LAYOUT
  2
AcDbLayout
  3
AutoCAD 2000
 90
0
 91
0
280
0
281
0
  0
ENDSEC
  0
SECTION
  2
TABLES
  0
TABLE
  2
VPORT
  5
8
100
AcDbSymbolTable
 70
2
  0
VPORT
  5
1F4
100
AcDbSymbolTableRecord
100
AcDbViewportTableRecord
  2
*ACTIVE
 70
0
 10
0.0
 20
0.0
 11
1.0
 21
1.0
 12
26.4080808081
 22
37.3485714286
 13
0.0
 23
0.0
 14
1.0
 24
1.0
 15
0.0
 25
0.0
 16
0.0
 26
0.0
 36
1.0
 17
0.0
 27
0.0
 37
0.0
 40
74.6971428571
 41
0.7070707071
 42
50.0
 43
0.0
 44
0.0
 50
0.0
 51
0.0
 71
0
 72
100
 73
1
 74
1
 75
0
 76
0
 77
0
 78
0
  0
ENDTAB
  0
TABLE
  2
LTYPE
  5
5
100
AcDbSymbolTable
 70
6
  0
LTYPE
  5
14
100
AcDbSymbolTableRecord
100
AcDbLinetypeTableRecord
  2
BYBLOCK
 70
0
  3

 72
65
 73
0
 40
0.0
  0
LTYPE
  5
15
100
AcDbSymbolTableRecord
100
AcDbLinetypeTableRecord
  2
BYLAYER
 70
0
  3

 72
65
 73
0
 40
0.0
  0
LTYPE
  5
16
100
AcDbSymbolTableRecord
100
AcDbLinetypeTableRecord
  2
CONTINUOUS
 70
64
  3
Solid line
 72
65
 73
0
 40
0.0
  0
LTYPE
  5
1F5
100
AcDbSymbolTableRecord
100
AcDbLinetypeTableRecord
  2
CENTER
 70
64
  3
____ _ ____ _ ____ _ ____ _ ____ _ ____ _ ____
 72
65
 73
4
 40
0.6
 49
0.375
 74
0
 49
-0.075
 74
0
 49
0.075
 74
0
 49
-0.075
 74
0
  0
LTYPE
  5
1F6
100
AcDbSymbolTableRecord
100
AcDbLinetypeTableRecord
  2
HIDDEN
 70
64
  3
- - - - - - - - - - - - - - - - - - - -
 72
65
 73
2
 40
0.2
 49
0.1
 74
0
 49
-0.1
 74
0
  0
LTYPE
  5
1F7
100
AcDbSymbolTableRecord
100
AcDbLinetypeTableRecord
  2
PHANTOM
 70
64
  3
_____ _ _ _____ _ _ _____ _ _ _____
 72
65
 73
6
 40
0.8
 49
0.45
 74
0
 49
-0.05
 74
0
 49
0.1
 74
0
 49
-0.05
 74
0
 49
0.1
 74
0
 49
-0.05
 74
0
  0
LTYPE
  5
1F8
100
AcDbSymbolTableRecord
100
AcDbLinetypeTableRecord
  2
DOT
 70
64
  3
. . . . . . . . . . . . . . . . . . . .
 72
65
 73
2
 40
0.2
 49
0.1
 74
0
 49
-0.1
 74
0
  0
LTYPE
  5
1F9
100
AcDbSymbolTableRecord
100
AcDbLinetypeTableRecord
  2
DASHED
 70
64
  3
- - - - - - - - - - - - - - - - - - - -
 72
65
 73
2
 40
0.2
 49
0.1
 74
0
 49
-0.1
 74
0
  0
ENDTAB
  0
TABLE
  2
LAYER
  5
2
100
AcDbSymbolTable
 70
36
  0
LAYER
  5
10
100
AcDbSymbolTableRecord
100
AcDbLayerTableRecord
  2
0
 70
0
 62
7
  6
CONTINUOUS
370
-3
390
F
  0
LAYER
  5
1FA
100
AcDbSymbolTableRecord
100
AcDbLayerTableRecord
  2
DEFAULT_1
 70
0
 62
7
  6
CENTER
370
-3
390
F
  0
LAYER
  5
1FB
100
AcDbSymbolTableRecord
100
AcDbLayerTableRecord
  2
DEFAULT_2
 70
0
 62
7
  6
HIDDEN
370
-3
390
F
  0
LAYER
  5
1FC
100
AcDbSymbolTableRecord
100
AcDbLayerTableRecord
  2
DEFAULT_3
 70
0
 62
7
  6
PHANTOM
370
-3
390
F
  0
LAYER
  5
1FD
100
AcDbSymbolTableRecord
100
AcDbLayerTableRecord
  2
00_COMPONENTS
 70
0
 62
7
  6
CONTINUOUS
370
-3
390
F
  0
LAYER
  5
1FE
100
AcDbSymbolTableRecord
100
AcDbLayerTableRecord
  2
01_1_DEFAULT_DATUMS
 70
0
 62
7
  6
CONTINUOUS
370
-3
390
F
  0
LAYER
  5
1FF
100
AcDbSymbolTableRecord
100
AcDbLayerTableRecord
  2
01_PLANES
 70
0
 62
7
  6
CONTINUOUS
370
-3
390
F
  0
LAYER
  5
200
100
AcDbSymbolTableRecord
100
AcDbLayerTableRecord
  2
02_COORD_SYS
 70
0
 62
7
  6
CONTINUOUS
370
-3
390
F
  0
LAYER
  5
201
100
AcDbSymbolTableRecord
100
AcDbLayerTableRecord
  2
03_AXES
 70
0
 62
7
  6
CONTINUOUS
370
-3
390
F
  0
LAYER
  5
202
100
AcDbSymbolTableRecord
100
AcDbLayerTableRecord
  2
04_POINTS
 70
0
 62
7
  6
CONTINUOUS
370
-3
390
F
  0
LAYER
  5
203
100
AcDbSymbolTableRecord
100
AcDbLayerTableRecord
  2
05_CURVES
 70
0
 62
7
  6
CONTINUOUS
370
-3
390
F
  0
LAYER
  5
204
100
AcDbSymbolTableRecord
100
AcDbLayerTableRecord
  2
06_SURFS
 70
0
 62
7
  6
CONTINUOUS
370
-3
390
F
  0
LAYER
  5
205
100
AcDbSymbolTableRecord
100
AcDbLayerTableRecord
  2
07_COSMETICS
 70
0
 62
7
  6
CONTINUOUS
370
-3
390
F
  0
LAYER
  5
206
100
AcDbSymbolTableRecord
100
AcDbLayerTableRecord
  2
10_NOTES
 70
0
 62
7
  6
CONTINUOUS
370
-3
390
F
  0
LAYER
  5
207
100
AcDbSymbolTableRecord
100
AcDbLayerTableRecord
  2
11_NOTES_PUB
 70
0
 62
7
  6
CONTINUOUS
370
-3
390
F
  0
LAYER
  5
208
100
AcDbSymbolTableRecord
100
AcDbLayerTableRecord
  2
13_REF_GTOL
 70
0
 62
7
  6
CONTINUOUS
370
-3
390
F
  0
LAYER
  5
209
100
AcDbSymbolTableRecord
100
AcDbLayerTableRecord
  2
16_MISC
 70
0
 62
7
  6
CONTINUOUS
370
-3
390
F
  0
LAYER
  5
20A
100
AcDbSymbolTableRecord
100
AcDbLayerTableRecord
  2
17_NO_PRINT
 70
0
 62
7
  6
CONTINUOUS
370
-3
390
F
  0
LAYER
  5
20B
100
AcDbSymbolTableRecord
100
AcDbLayerTableRecord
  2
18_DATUM_CAMS_JOINTS
 70
0
 62
7
  6
CONTINUOUS
370
-3
390
F
  0
LAYER
  5
20C
100
AcDbSymbolTableRecord
100
AcDbLayerTableRecord
  2
19_DATUM_FUNCTIONAL
 70
0
 62
7
  6
CONTINUOUS
370
-3
390
F
  0
LAYER
  5
20D
100
AcDbSymbolTableRecord
100
AcDbLayerTableRecord
  2
20_DATUM_KINEMATIC_SCHEME
 70
0
 62
7
  6
CONTINUOUS
370
-3
390
F
  0
ENDTAB
  0
TABLE
  2
STYLE
  5
3
100
AcDbSymbolTable
 70
1
  0
STYLE
  5
11
100
AcDbSymbolTableRecord
100
AcDbTextStyleTableRecord
  2
STANDARD
 70
0
 40
0.0
 41
1.0
 50
0.0
 71
0
 42
0.2
  3
ARIAL.TTF
  4

  0
STYLE
  5
20E
100
AcDbSymbolTableRecord
100
AcDbTextStyleTableRecord
  2
TEXTSTYLE_1
 70
0
 40
0.0
 41
0.8
 50
0.0
 71
0
 42
0.2
  3
gdt
  4

  0
ENDTAB
  0
TABLE
  2
VIEW
  5
6
100
AcDbSymbolTable
 70
0
  0
ENDTAB
  0
TABLE
  2
UCS
  5
7
100
AcDbSymbolTable
 70
0
  0
ENDTAB
  0
TABLE
  2
APPID
  5
9
100
AcDbSymbolTable
 70
1
  0
APPID
  5
20F
100
AcDbSymbolTableRecord
100
AcDbRegAppTableRecord
  2
ACAD
 70
0
  0
ENDTAB
  0
TABLE
  2
BLOCK_RECORD
  5
1
100
AcDbSymbolTable
 70
0
  0
BLOCK_RECORD
  5
210
100
AcDbSymbolTableRecord
100
AcDbBlockTableRecord
  2
*Model_Space
  0
BLOCK_RECORD
  5
211
100
AcDbSymbolTableRecord
100
AcDbBlockTableRecord
  2
*Paper_Space
  0
BLOCK_RECORD
  5
212
100
AcDbSymbolTableRecord
100
AcDbBlockTableRecord
  2
_FILLED
  0
ENDTAB
  0
TABLE
  2
DIMSTYLE
  5
A
100
AcDbSymbolTable
 70
1
100
AcDbDimStyleTable
 71
0
  0
DIMSTYLE
105
213
100
AcDbSymbolTableRecord
100
AcDbDimStyleTableRecord
  2
STANDARD
 70
0
  3

  4

 40
1.0
 41
0.6287638288
 42
1.0
 43
0.38
 44
1.0
 45
0.0
 46
0.0
 47
0.01
 48
0.01
140
0.8802693603
141
0.09
142
0.0
143
25.4
144
1.0
145
0.0
146
1.0
147
0.625
 71
1
 72
0
 73
0
 74
0
 75
0
 76
0
 77
1
 78
8
 79
2
170
0
171
1
172
0
173
0
174
0
175
0
176
0
177
0
178
0
270
2
179
2
271
2
272
2
273
2
274
2
275
0
280
0
281
0
282
0
283
1
284
8
285
0
286
0
287
3
288
0
340
11
278
46
341
212
342
212
343
212
344
212
  0
ENDTAB
  0
ENDSEC
  0
SECTION
  2
BLOCKS
  0
BLOCK
  5
20
100
AcDbEntity
  8
0
100
AcDbBlockBegin
  2
*Model_Space
 70
0
 10
0.0
 20
0.0
 30
0.0
  3
*Model_Space
  1

  0
ENDBLK
  5
21
100
AcDbEntity
  8
0
100
AcDbBlockEnd
  0
BLOCK
  5
1C
100
AcDbEntity
  8
0
100
AcDbBlockBegin
  2
*Paper_Space
 70
0
 10
0.0
 20
0.0
 30
0.0
  3
*Paper_Space
  1

  0
ENDBLK
  5
1D
100
AcDbEntity
  8
0
100
AcDbBlockEnd
  0
BLOCK
  5
214
100
AcDbEntity
  8
0
100
AcDbBlockBegin
  2
_FILLED
 70
64
 10
0.0
 20
0.0
  3
_FILLED
  1

  0
SOLID
  5
215
100
AcDbEntity
  8
0
  6
BYBLOCK
 62
0
100
AcDbTrace
 10
0.0
 20
0.0
 11
-1.0
 21
0.25
 12
-1.0
 22
-0.25
 13
-1.0
 23
-0.25
  0
ENDBLK
  5
216
100
AcDbEntity
  8
0
  6
BYBLOCK
 62
0
100
AcDbBlockEnd
  0
ENDSEC
  0
SECTION
  2
ENTITIES
  0
LINE
  5
217
100
AcDbEntity
  8
0
100
AcDbLine
 62
7
  6
BYLAYER
 10
25.7317470358
 20
5.5314285714
 11
23.7317470358
 21
5.5314285714
  0
LINE
  5
218
100
AcDbEntity
  8
0
100
AcDbLine
 62
7
  6
BYLAYER
 10
20.6995139887
 20
69.1314285714
 11
20.4995139887
 21
68.9314285714
  0
LINE
  5
219
100
AcDbEntity
  8
0
100
AcDbLine
 62
7
  6
BYLAYER
 10
25.9371385468
 20
15.5314285714
 11
23.5263555076
 21
15.5314285714
  0
LINE
  5
21A
100
AcDbEntity
  8
0
100
AcDbLine
 62
7
  6
BYLAYER
 10
26.1368644708
 20
15.7209613802
 11
23.3266296007
 21
15.7209613802
  0
LINE
  5
21B
100
AcDbEntity
  8
0
100
AcDbLine
 62
7
  6
BYLAYER
 10
31.2993397596
 20
17.5314285714
 11
21.6995139887
 21
17.5314285714
  0
LINE
  5
21C
100
AcDbEntity
  8
0
100
AcDbLine
 62
7
  6
BYLAYER
 10
31.4995139887
 20
17.7314285714
 11
21.4995139887
 21
17.7314285714
  0
LINE
  5
21D
100
AcDbEntity
  8
0
100
AcDbLine
 62
7
  6
BYLAYER
 10
21.4995139887
 20
19.7314285714
 11
31.499287225
 21
19.7314285714
  0
LINE
  5
21E
100
AcDbEntity
  8
0
100
AcDbLine
 62
7
  6
BYLAYER
 10
31.4993391214
 20
19.8314285714
 11
21.499688856
 21
19.8314285714
  0
LINE
  5
21F
100
AcDbEntity
  8
0
100
AcDbLine
 62
7
  6
BYLAYER
 10
21.4995139887
 20
27.5314285714
 11
31.4995139887
 21
27.5314285714
  0
LINE
  5
220
100
AcDbEntity
  8
0
100
AcDbLine
 62
7
  6
BYLAYER
 10
32.4995139887
 20
28.5314285714
 11
20.4995139887
 21
28.5314285714
  0
LINE
  5
221
100
AcDbEntity
  8
0
100
AcDbLine
 62
7
  6
BYLAYER
 10
21.4995139887
 20
27.5314285714
 11
20.4995139887
 21
28.5314285714
  0
LINE
  5
222
100
AcDbEntity
  8
0
100
AcDbLine
 62
7
  6
BYLAYER
 10
17.9995139887
 20
58.5314285714
 11
17.9995139887
 21
54.5314285714
  0
LINE
  5
223
100
AcDbEntity
  8
0
100
AcDbLine
 62
7
  6
BYLAYER
 10
17.9995139887
 20
62.5314285714
 11
17.9995139887
 21
66.5314285714
  0
LINE
  5
224
100
AcDbEntity
  8
0
100
AcDbLine
 62
7
  6
BYLAYER
 10
18.4325266906
 20
57.9109208642
 11
18.4325266906
 21
55.151936281
  0
LINE
  5
225
100
AcDbEntity
  8
0
100
AcDbLine
 62
7
  6
BYLAYER
 10
18.4325266906
 20
63.1519362028
 11
18.4325266906
 21
65.9109209401
  0
LINE
  5
226
100
AcDbEntity
  8
0
100
AcDbLine
 62
7
  6
BYLAYER
 10
23.3266296007
 20
15.7209613802
 11
23.2317470358
 21
17.5314285714
  0
LINE
  5
227
100
AcDbEntity
  8
0
100
AcDbLine
 62
7
  6
BYLAYER
 10
20.4995139887
 20
68.9314285714
 11
20.4995139887
 21
66.5314285714
  0
LINE
  5
228
100
AcDbEntity
  8
0
100
AcDbLine
 62
7
  6
BYLAYER
 10
20.4995139887
 20
62.5314285714
 11
20.4995139887
 21
58.5314285714
  0
LINE
  5
229
100
AcDbEntity
  8
0
100
AcDbLine
 62
7
  6
BYLAYER
 10
20.4995139887
 20
54.5314285714
 11
20.4995139887
 21
28.5314285714
  0
LINE
  5
22A
100
AcDbEntity
  8
0
100
AcDbLine
 62
7
  6
BYLAYER
 10
21.2495139887
 20
69.3314285714
 11
21.2495139887
 21
69.1314285714
  0
LINE
  5
22B
100
AcDbEntity
  8
0
100
AcDbLine
 62
7
  6
BYLAYER
 10
21.4995139887
 20
27.5314285714
 11
21.4995139887
 21
19.8314285714
  0
LINE
  5
22C
100
AcDbEntity
  8
0
100
AcDbLine
 62
7
  6
BYLAYER
 10
21.4995139887
 20
19.7314285714
 11
21.4995139887
 21
17.7314285714
  0
LINE
  5
22D
100
AcDbEntity
  8
0
100
AcDbLine
 62
7
  6
BYLAYER
 10
21.5495139887
 20
19.8314285714
 11
21.5495139887
 21
19.7314285714
  0
LINE
  5
22E
100
AcDbEntity
  8
0
100
AcDbLine
 62
7
  6
BYLAYER
 10
23.7317470358
 20
5.5314285714
 11
23.7317470358
 21
15.5314285714
  0
LINE
  5
22F
100
AcDbEntity
  8
0
100
AcDbLine
 62
7
  6
BYLAYER
 10
25.7317470358
 20
5.5314285714
 11
25.7317470358
 21
15.5314285714
  0
LINE
  5
230
100
AcDbEntity
  8
0
100
AcDbLine
 62
7
  6
BYLAYER
 10
25.776672374
 20
69.1314285714
 11
25.776672374
 21
69.3314285714
  0
LINE
  5
231
100
AcDbEntity
  8
0
100
AcDbLine
 62
7
  6
BYLAYER
 10
26.0665012868
 20
57.9109209368
 11
26.0665012868
 21
55.1519362061
  0
LINE
  5
232
100
AcDbEntity
  8
0
100
AcDbLine
 62
7
  6
BYLAYER
 10
26.0665012868
 20
63.1519362807
 11
26.0665012868
 21
65.9109208598
  0
LINE
  5
233
100
AcDbEntity
  8
0
100
AcDbLine
 62
7
  6
BYLAYER
 10
26.7593216099
 20
57.8568260057
 11
26.7593216099
 21
55.2060311372
  0
LINE
  5
234
100
AcDbEntity
  8
0
100
AcDbLine
 62
7
  6
BYLAYER
 10
26.7593216099
 20
63.2060310973
 11
26.7593216099
 21
65.8568260456
  0
LINE
  5
235
100
AcDbEntity
  8
0
100
AcDbLine
 62
7
  6
BYLAYER
 10
27.2223556035
 20
69.3314285714
 11
27.2223556035
 21
69.1314285714
  0
LINE
  5
236
100
AcDbEntity
  8
0
100
AcDbLine
 62
7
  6
BYLAYER
 10
26.1368644708
 20
15.7209613802
 11
26.2317470358
 21
17.5314285714
  0
LINE
  5
237
100
AcDbEntity
  8
0
100
AcDbLine
 62
7
  6
BYLAYER
 10
31.4495139887
 20
19.8314285714
 11
31.4495139887
 21
19.7314285714
  0
LINE
  5
238
100
AcDbEntity
  8
0
100
AcDbLine
 62
7
  6
BYLAYER
 10
31.4995139887
 20
27.5314285714
 11
31.4995139887
 21
19.8314285714
  0
LINE
  5
239
100
AcDbEntity
  8
0
100
AcDbLine
 62
7
  6
BYLAYER
 10
31.4995139887
 20
19.7314285714
 11
31.4995139887
 21
17.7314285714
  0
LINE
  5
23A
100
AcDbEntity
  8
0
100
AcDbLine
 62
7
  6
BYLAYER
 10
31.7495139887
 20
69.3314285714
 11
31.7495139887
 21
69.1314285714
  0
LINE
  5
23B
100
AcDbEntity
  8
0
100
AcDbLine
 62
7
  6
BYLAYER
 10
32.4995139887
 20
68.9314285714
 11
32.4995139887
 21
66.5314285714
  0
LINE
  5
23C
100
AcDbEntity
  8
0
100
AcDbLine
 62
7
  6
BYLAYER
 10
32.4995139887
 20
62.5314285714
 11
32.4995139887
 21
58.5314285714
  0
LINE
  5
23D
100
AcDbEntity
  8
0
100
AcDbLine
 62
7
  6
BYLAYER
 10
32.4995139887
 20
54.5314285714
 11
32.4995139887
 21
28.5314285714
  0
LINE
  5
23E
100
AcDbEntity
  8
0
100
AcDbLine
 62
7
  6
BYLAYER
 10
34.7397063676
 20
57.8568260444
 11
34.7397063676
 21
55.2060310984
  0
LINE
  5
23F
100
AcDbEntity
  8
0
100
AcDbLine
 62
7
  6
BYLAYER
 10
34.7397063676
 20
63.2060311378
 11
34.7397063676
 21
65.8568260051
  0
LINE
  5
240
100
AcDbEntity
  8
0
100
AcDbLine
 62
7
  6
BYLAYER
 10
34.9995139887
 20
54.5314285714
 11
34.9995139887
 21
58.5314285714
  0
LINE
  5
241
100
AcDbEntity
  8
0
100
AcDbLine
 62
7
  6
BYLAYER
 10
34.9995139887
 20
62.5314285714
 11
34.9995139887
 21
66.5314285714
  0
LINE
  5
242
100
AcDbEntity
  8
0
100
AcDbLine
 62
7
  6
BYLAYER
 10
31.4995139887
 20
27.5314285714
 11
32.4995139887
 21
28.5314285714
  0
LINE
  5
243
100
AcDbEntity
  8
0
100
AcDbLine
 62
7
  6
BYLAYER
 10
34.9995139887
 20
54.5314285714
 11
17.9995139887
 21
54.5314285714
  0
LINE
  5
244
100
AcDbEntity
  8
0
100
AcDbLine
 62
7
  6
BYLAYER
 10
17.9995139887
 20
58.5314285714
 11
34.9995139887
 21
58.5314285714
  0
LINE
  5
245
100
AcDbEntity
  8
0
100
AcDbLine
 62
7
  6
BYLAYER
 10
34.9995139887
 20
62.5314285714
 11
17.9995139887
 21
62.5314285714
  0
LINE
  5
246
100
AcDbEntity
  8
0
100
AcDbLine
 62
7
  6
BYLAYER
 10
32.2995139887
 20
69.1314285714
 11
32.4995139887
 21
68.9314285714
  0
LINE
  5
247
100
AcDbEntity
  8
0
100
AcDbLine
 62
7
  6
BYLAYER
 10
17.9995139887
 20
66.5314285714
 11
34.9995139887
 21
66.5314285714
  0
LINE
  5
248
100
AcDbEntity
  8
0
100
AcDbLine
 62
7
  6
BYLAYER
 10
20.4995139887
 20
68.9314285714
 11
32.4995139887
 21
68.9314285714
  0
LINE
  5
249
100
AcDbEntity
  8
0
100
AcDbLine
 62
7
  6
BYLAYER
 10
20.6995139887
 20
69.1314285714
 11
32.2994109313
 21
69.1314285714
  0
LINE
  5
24A
100
AcDbEntity
  8
0
100
AcDbLine
 62
7
  6
BYLAYER
 10
21.2495139887
 20
69.3314285714
 11
25.776672374
 21
69.3314285714
  0
LINE
  5
24B
100
AcDbEntity
  8
0
100
AcDbLine
 62
7
  6
BYLAYER
 10
27.2223556035
 20
69.3314285714
 11
31.7495139887
 21
69.3314285714
  0
LINE
  5
24C
100
AcDbEntity
  8
0
100
AcDbLine
 62
7
  6
BYLAYER
 10
21.4495139887
 20
69.5314285714
 11
31.5495042917
 21
69.5314285714
  0
ARC
  5
24D
100
AcDbEntity
  8
0
100
AcDbCircle
 62
7
  6
BYLAYER
 10
25.1070185618
 20
41.1586502477
 40
16.779725276
100
AcDbArc
 50
84.3489149109
 51
86.7219777472
  0
ARC
  5
24E
100
AcDbEntity
  8
0
100
AcDbCircle
 62
7
  6
BYLAYER
 10
25.1070185628
 20
49.1586502479
 40
16.7797252758
100
AcDbArc
 50
84.3489149141
 51
86.7219777505
  0
ARC
  5
24F
100
AcDbEntity
  8
0
100
AcDbCircle
 62
7
  6
BYLAYER
 10
25.1070185628
 20
71.9042068816
 40
16.7797252625
100
AcDbArc
 50
273.2780222518
 51
275.6510850901
  0
ARC
  5
250
100
AcDbEntity
  8
0
100
AcDbCircle
 62
7
  6
BYLAYER
 10
25.1070185638
 20
79.9042068815
 40
16.7797252623
100
AcDbArc
 50
273.2780222485
 51
275.6510850868
  0
ARC
  5
251
100
AcDbEntity
  8
0
100
AcDbCircle
 62
7
  6
BYLAYER
 10
19.0427858025
 20
59.2658746882
 40
6.6730095065
100
AcDbArc
 50
95.2471368688
 51
98.994637549
  0
ARC
  5
252
100
AcDbEntity
  8
0
100
AcDbCircle
 62
7
  6
BYLAYER
 10
19.0414946527
 20
61.7866472069
 40
6.6625994992
100
AcDbArc
 50
261.0024337577
 51
264.7557918297
  0
ARC
  5
253
100
AcDbEntity
  8
0
100
AcDbCircle
 62
7
  6
BYLAYER
 10
19.0380018387
 20
51.3041688192
 40
6.6344384646
100
AcDbArc
 50
95.2362394097
 51
99.0055350028
  0
ARC
  5
254
100
AcDbEntity
  8
0
100
AcDbCircle
 62
7
  6
BYLAYER
 10
19.0363436178
 20
69.745414782
 40
6.6210689964
100
AcDbArc
 50
260.9906580779
 51
264.7675675043
  0
ARC
  5
255
100
AcDbEntity
  8
0
100
AcDbCircle
 62
7
  6
BYLAYER
 10
35.3808207284
 20
63.4286252562
 40
2.5114112948
100
AcDbArc
 50
98.7329733303
 51
104.7902074274
  0
ARC
  5
256
100
AcDbEntity
  8
0
100
AcDbCircle
 62
7
  6
BYLAYER
 10
35.3800246003
 20
57.6304082322
 40
2.5075111018
100
AcDbArc
 50
255.2050774446
 51
261.2717417935
  0
ARC
  5
257
100
AcDbEntity
  8
0
100
AcDbCircle
 62
7
  6
BYLAYER
 10
35.3743223283
 20
55.4598358517
 40
2.4795764561
100
AcDbArc
 50
98.6940525014
 51
104.8291282605
  0
ARC
  5
258
100
AcDbEntity
  8
0
100
AcDbCircle
 62
7
  6
BYLAYER
 10
35.3732998614
 20
65.5981105753
 40
2.4745676267
100
AcDbArc
 50
255.1646567101
 51
261.3121625322
  0
ARC
  5
259
100
AcDbEntity
  8
0
100
AcDbCircle
 62
7
  6
BYLAYER
 10
31.5495139887
 20
69.3314285714
 40
0.2
100
AcDbArc
 50
0.0
 51
90.0
  0
ARC
  5
25A
100
AcDbEntity
  8
0
100
AcDbCircle
 62
7
  6
BYLAYER
 10
21.4495139887
 20
69.3314285714
 40
0.2
100
AcDbArc
 50
90.0
 51
180.0
  0
ARC
  5
25B
100
AcDbEntity
  8
0
100
AcDbCircle
 62
7
  6
BYLAYER
 10
25.9371385638
 20
15.7314285714
 40
0.2
100
AcDbArc
 50
269.9999999998
 51
357.0000000139
  0
ARC
  5
25C
100
AcDbEntity
  8
0
100
AcDbCircle
 62
7
  6
BYLAYER
 10
23.5263555077
 20
15.7314285714
 40
0.2
100
AcDbArc
 50
182.9999999861
 51
270.0
  0
ARC
  5
25D
100
AcDbEntity
  8
0
100
AcDbCircle
 62
7
  6
BYLAYER
 10
21.6995139887
 20
17.7314285714
 40
0.2
100
AcDbArc
 50
180.0
 51
270.0
  0
ARC
  5
25E
100
AcDbEntity
  8
0
100
AcDbCircle
 62
7
  6
BYLAYER
 10
31.2995139887
 20
17.7314285714
 40
0.2
100
AcDbArc
 50
270.0
 51
360.0
  0
SPLINE
  5
25F
100
AcDbEntity
  8
0
100
AcDbSpline
 62
7
  6
BYLAYER
 70
0
 71
3
 72
42
 73
38
 74
0
 42
0.0000001
 43
0.0000001
 44
0.0000000001
 40
0.0
 40
0.0
 40
0.0
 40
0.0
 40
0.0078308663
 40
0.0156957327
 40
0.0235253168
 40
0.031344184
 40
0.0391593469
 40
0.0469729328
 40
0.0625958372
 40
0.0938311717
 40
0.1250725786
 40
0.1563155759
 40
0.1875592519
 40
0.2188031535
 40
0.2500472046
 40
0.3125334043
 40
0.3750204298
 40
0.437507953
 40
0.4999955697
 40
0.5624832199
 40
0.6249706639
 40
0.68745778
 40
0.7499439941
 40
0.781188048
 40
0.8124319797
 40
0.8436755792
 40
0.8749186193
 40
0.9061599688
 40
0.9217822853
 40
0.9374059856
 40
0.953027398
 40
0.9608415113
 40
0.9686576979
 40
0.976475427
 40
0.9843043782
 40
0.9921692339
 40
1.0
 40
1.0
 40
1.0
 40
1.0
 10
27.2223556035
 20
69.3314285714
 30
0.0
 10
27.2223556035
 20
69.3353765533
 30
0.0
 10
27.2204556762
 20
69.3433159537
 30
0.0
 10
27.2140966095
 20
69.353478213
 30
0.0
 10
27.2056206257
 20
69.3618573754
 30
0.0
 10
27.1962300977
 20
69.3690778826
 30
0.0
 10
27.1862118872
 20
69.3753791954
 30
0.0
 10
27.1723375345
 20
69.3828626891
 30
0.0
 10
27.147085776
 20
69.39400257
 30
0.0
 10
27.1096285866
 20
69.4063598424
 30
0.0
 10
27.063790492
 20
69.4179032445
 30
0.0
 10
27.0174471855
 20
69.4272080047
 30
0.0
 10
26.9708078996
 20
69.4348541344
 30
0.0
 10
26.923977106
 20
69.441212616
 30
0.0
 10
26.8613617631
 20
69.4482575318
 30
0.0
 10
26.782869272
 20
69.4549130957
 30
0.0
 10
26.6884914757
 20
69.4600881841
 30
0.0
 10
26.5940207234
 20
69.4630710594
 30
0.0
 10
26.4995083624
 20
69.4640352147
 30
0.0
 10
26.4049960156
 20
69.4630832605
 30
0.0
 10
26.3105247295
 20
69.4600963152
 30
0.0
 10
26.2161510574
 20
69.4548605946
 30
0.0
 10
26.1376530116
 20
69.4482703062
 30
0.0
 10
26.0750396311
 20
69.4412059105
 30
0.0
 10
26.0282078176
 20
69.4348562724
 30
0.0
 10
25.9815705027
 20
69.4271945735
 30
0.0
 10
25.9352244292
 20
69.4179189326
 30
0.0
 10
25.8970213792
 20
69.4082587913
 30
0.0
 10
25.8669301448
 20
69.3989054795
 30
0.0
 10
25.8446875799
 20
69.3909071913
 30
0.0
 10
25.8266369017
 20
69.3829549018
 30
0.0
 10
25.8128070559
 20
69.3753894011
 30
0.0
 10
25.8028014025
 20
69.3690705169
 30
0.0
 10
25.793406028
 20
69.3618572116
 30
0.0
 10
25.7849313588
 20
69.3534775091
 30
0.0
 10
25.778572268
 20
69.3433159158
 30
0.0
 10
25.776672374
 20
69.3353765028
 30
0.0
 10
25.776672374
 20
69.3314285714
 30
0.0
  0
SPLINE
  5
260
100
AcDbEntity
  8
0
100
AcDbSpline
 62
7
  6
BYLAYER
 70
0
 71
3
 72
11
 73
7
 74
0
 42
0.0000001
 43
0.0000001
 44
0.0000000001
 40
0.0
 40
0.0
 40
0.0
 40
0.0
 40
0.2512964423
 40
0.501588353
 40
0.7510378001
 40
1.0
 40
1.0
 40
1.0
 40
1.0
 10
34.7397063676
 20
63.2060311378
 30
0.0
 10
34.4154079608
 20
63.1030019972
 30
0.0
 10
33.7623008744
 20
62.9149169917
 30
0.0
 10
32.7676382988
 20
62.6989134081
 30
0.0
 10
31.761888966
 20
62.562644738
 30
0.0
 10
31.0866244341
 20
62.5314285714
 30
0.0
 10
30.7495139876
 20
62.5314285714
 30
0.0
  0
SPLINE
  5
261
100
AcDbEntity
  8
0
100
AcDbSpline
 62
7
  6
BYLAYER
 70
0
 71
3
 72
11
 73
7
 74
0
 42
0.0000001
 43
0.0000001
 44
0.0000000001
 40
0.0
 40
0.0
 40
0.0
 40
0.0
 40
0.248962233
 40
0.4984116828
 40
0.7487035809
 40
1.0
 40
1.0
 40
1.0
 40
1.0
 10
30.7495140006
 20
66.5314285714
 30
0.0
 10
31.0866244907
 20
66.5314285711
 30
0.0
 10
31.7618890694
 20
66.5002124118
 30
0.0
 10
32.7676384287
 20
66.3639437152
 30
0.0
 10
33.7623009442
 20
66.1479400901
 30
0.0
 10
34.4154079919
 20
65.9598551358
 30
0.0
 10
34.7397063676
 20
65.8568260051
 30
0.0
  0
SPLINE
  5
262
100
AcDbEntity
  8
0
100
AcDbSpline
 62
7
  6
BYLAYER
 70
0
 71
3
 72
11
 73
7
 74
0
 42
0.0000001
 43
0.0000001
 44
0.0000000001
 40
0.0
 40
0.0
 40
0.0
 40
0.0
 40
0.248962233
 40
0.4984116828
 40
0.7487035809
 40
1.0
 40
1.0
 40
1.0
 40
1.0
 10
30.7495139876
 20
62.5314285714
 30
0.0
 10
30.4124034965
 20
62.5314285715
 30
0.0
 10
29.7371389155
 20
62.5626447214
 30
0.0
 10
28.7313895536
 20
62.6989134229
 30
0.0
 10
27.7367270351
 20
62.9149170476
 30
0.0
 10
27.0836199865
 20
63.1030020061
 30
0.0
 10
26.7593216099
 20
63.2060311372
 30
0.0
  0
SPLINE
  5
263
100
AcDbEntity
  8
0
100
AcDbSpline
 62
7
  6
BYLAYER
 70
0
 71
3
 72
11
 73
7
 74
0
 42
0.0000001
 43
0.0000001
 44
0.0000000001
 40
0.0
 40
0.0
 40
0.0
 40
0.0
 40
0.2512099323
 40
0.5014743965
 40
0.7509612105
 40
1.0
 40
1.0
 40
1.0
 40
1.0
 10
26.0665012868
 20
63.1519362807
 30
0.0
 10
25.7558322362
 20
63.0565975647
 30
0.0
 10
25.1303339853
 20
62.882960223
 30
0.0
 10
24.1785228897
 20
62.6845900754
 30
0.0
 10
23.216912122
 20
62.5598988493
 30
0.0
 10
22.5716741947
 20
62.5314285718
 30
0.0
 10
22.2495140028
 20
62.5314285714
 30
0.0
  0
SPLINE
  5
264
100
AcDbEntity
  8
0
100
AcDbSpline
 62
7
  6
BYLAYER
 70
0
 71
3
 72
11
 73
7
 74
0
 42
0.0000001
 43
0.0000001
 44
0.0000000001
 40
0.0
 40
0.0
 40
0.0
 40
0.0
 40
0.2490354588
 40
0.4985183711
 40
0.7487843767
 40
1.0
 40
1.0
 40
1.0
 40
1.0
 10
22.2495140028
 20
62.5314285714
 30
0.0
 10
21.9273581894
 20
62.531428571
 30
0.0
 10
21.2821308555
 20
62.5599085047
 30
0.0
 10
20.3205234845
 20
62.6845720418
 30
0.0
 10
19.3687164555
 20
62.8829816579
 30
0.0
 10
18.7432027121
 20
63.0565954258
 30
0.0
 10
18.4325266906
 20
63.151936281
 30
0.0
  0
SPLINE
  5
265
100
AcDbEntity
  8
0
100
AcDbSpline
 62
7
  6
BYLAYER
 70
0
 71
3
 72
11
 73
7
 74
0
 42
0.0000001
 43
0.0000001
 44
0.0000000001
 40
0.0
 40
0.0
 40
0.0
 40
0.0
 40
0.2512099323
 40
0.5014743965
 40
0.7509612104
 40
1.0
 40
1.0
 40
1.0
 40
1.0
 10
18.4325266906
 20
65.9109208642
 30
0.0
 10
18.7431957423
 20
66.0062595804
 30
0.0
 10
19.3686939946
 20
66.1798969252
 30
0.0
 10
20.3205050933
 20
66.3782670738
 30
0.0
 10
21.2821158641
 20
66.5029583036
 30
0.0
 10
21.927353794
 20
66.5314285714
 30
0.0
 10
22.2495139869
 20
66.5314285714
 30
0.0
  0
SPLINE
  5
266
100
AcDbEntity
  8
0
100
AcDbSpline
 62
7
  6
BYLAYER
 70
0
 71
3
 72
11
 73
7
 74
0
 42
0.0000001
 43
0.0000001
 44
0.0000000001
 40
0.0
 40
0.0
 40
0.0
 40
0.0
 40
0.2490354588
 40
0.4985183712
 40
0.7487843768
 40
1.0
 40
1.0
 40
1.0
 40
1.0
 10
22.2495139869
 20
66.5314285714
 30
0.0
 10
22.5716697993
 20
66.5314285715
 30
0.0
 10
23.2168971306
 20
66.5029486273
 30
0.0
 10
24.1785044987
 20
66.3782850956
 30
0.0
 10
25.1303115244
 20
66.1798754789
 30
0.0
 10
25.7558252664
 20
66.0062617147
 30
0.0
 10
26.0665012868
 20
65.9109208598
 30
0.0
  0
SPLINE
  5
267
100
AcDbEntity
  8
0
100
AcDbSpline
 62
7
  6
BYLAYER
 70
0
 71
3
 72
11
 73
7
 74
0
 42
0.0000001
 43
0.0000001
 44
0.0000000001
 40
0.0
 40
0.0
 40
0.0
 40
0.0
 40
0.2512964424
 40
0.501588353
 40
0.7510378001
 40
1.0
 40
1.0
 40
1.0
 40
1.0
 10
26.7593216099
 20
65.8568260057
 30
0.0
 10
27.0836200176
 20
65.9598551466
 30
0.0
 10
27.7367271049
 20
66.1479401562
 30
0.0
 10
28.7313896835
 20
66.3639437395
 30
0.0
 10
29.7371390189
 20
66.5002124146
 30
0.0
 10
30.4124035532
 20
66.5314285718
 30
0.0
 10
30.7495140006
 20
66.5314285714
 30
0.0
  0
SPLINE
  5
268
100
AcDbEntity
  8
0
100
AcDbSpline
 62
7
  6
BYLAYER
 70
0
 71
3
 72
11
 73
7
 74
0
 42
0.0000001
 43
0.0000001
 44
0.0000000001
 40
0.0
 40
0.0
 40
0.0
 40
0.0
 40
0.2512099323
 40
0.5014743965
 40
0.7509612104
 40
1.0
 40
1.0
 40
1.0
 40
1.0
 10
26.0665012868
 20
55.1519362807
 30
0.0
 10
25.7558322349
 20
55.0565975643
 30
0.0
 10
25.1303339815
 20
54.8829602219
 30
0.0
 10
24.1785228819
 20
54.6845900739
 30
0.0
 10
23.2169121101
 20
54.5598988481
 30
0.0
 10
22.5716741801
 20
54.5314285714
 30
0.0
 10
22.2495139869
 20
54.5314285714
 30
0.0
  0
SPLINE
  5
269
100
AcDbEntity
  8
0
100
AcDbSpline
 62
7
  6
BYLAYER
 70
0
 71
3
 72
11
 73
7
 74
0
 42
0.0000001
 43
0.0000001
 44
0.0000000001
 40
0.0
 40
0.0
 40
0.0
 40
0.0
 40
0.248962233
 40
0.4984116828
 40
0.7487035809
 40
1.0
 40
1.0
 40
1.0
 40
1.0
 10
30.7495140006
 20
54.5314285714
 30
0.0
 10
30.4124035085
 20
54.5314285711
 30
0.0
 10
29.7371389253
 20
54.5626447203
 30
0.0
 10
28.7313895601
 20
54.6989134216
 30
0.0
 10
27.7367270383
 20
54.9149170468
 30
0.0
 10
27.0836199875
 20
55.1030020058
 30
0.0
 10
26.7593216099
 20
55.2060311372
 30
0.0
  0
SPLINE
  5
26A
100
AcDbEntity
  8
0
100
AcDbSpline
 62
7
  6
BYLAYER
 70
0
 71
3
 72
11
 73
7
 74
0
 42
0.0000001
 43
0.0000001
 44
0.0000000001
 40
0.0
 40
0.0
 40
0.0
 40
0.0
 40
0.2490354588
 40
0.4985183711
 40
0.7487843767
 40
1.0
 40
1.0
 40
1.0
 40
1.0
 10
22.2495139869
 20
54.5314285714
 30
0.0
 10
21.9273581748
 20
54.5314285715
 30
0.0
 10
21.2821308436
 20
54.5599085059
 30
0.0
 10
20.3205234766
 20
54.6845720432
 30
0.0
 10
19.3687164516
 20
54.8829816589
 30
0.0
 10
18.7432027108
 20
55.0565954262
 30
0.0
 10
18.4325266906
 20
55.151936281
 30
0.0
  0
SPLINE
  5
26B
100
AcDbEntity
  8
0
100
AcDbSpline
 62
7
  6
BYLAYER
 70
0
 71
3
 72
11
 73
7
 74
0
 42
0.0000001
 43
0.0000001
 44
0.0000000001
 40
0.0
 40
0.0
 40
0.0
 40
0.0
 40
0.2512099323
 40
0.5014743965
 40
0.7509612104
 40
1.0
 40
1.0
 40
1.0
 40
1.0
 10
18.4325266906
 20
57.9109208642
 30
0.0
 10
18.7431957436
 20
58.0062595808
 30
0.0
 10
19.3686939985
 20
58.1798969263
 30
0.0
 10
20.3205051011
 20
58.3782670752
 30
0.0
 10
21.282115876
 20
58.5029583047
 30
0.0
 10
21.9273538086
 20
58.5314285718
 30
0.0
 10
22.2495140028
 20
58.5314285714
 30
0.0
  0
SPLINE
  5
26C
100
AcDbEntity
  8
0
100
AcDbSpline
 62
7
  6
BYLAYER
 70
0
 71
3
 72
11
 73
7
 74
0
 42
0.0000001
 43
0.0000001
 44
0.0000000001
 40
0.0
 40
0.0
 40
0.0
 40
0.0
 40
0.2490354588
 40
0.4985183712
 40
0.7487843768
 40
1.0
 40
1.0
 40
1.0
 40
1.0
 10
22.2495140028
 20
58.5314285714
 30
0.0
 10
22.5716698139
 20
58.531428571
 30
0.0
 10
23.2168971425
 20
58.5029486261
 30
0.0
 10
24.1785045065
 20
58.3782850941
 30
0.0
 10
25.1303115282
 20
58.1798754778
 30
0.0
 10
25.7558252677
 20
58.0062617144
 30
0.0
 10
26.0665012868
 20
57.9109208599
 30
0.0
  0
SPLINE
  5
26D
100
AcDbEntity
  8
0
100
AcDbSpline
 62
7
  6
BYLAYER
 70
0
 71
3
 72
11
 73
7
 74
0
 42
0.0000001
 43
0.0000001
 44
0.0000000001
 40
0.0
 40
0.0
 40
0.0
 40
0.0
 40
0.2512964424
 40
0.501588353
 40
0.7510378001
 40
1.0
 40
1.0
 40
1.0
 40
1.0
 10
26.7593216099
 20
57.8568260057
 30
0.0
 10
27.0836200165
 20
57.9598551463
 30
0.0
 10
27.7367271018
 20
58.1479401554
 30
0.0
 10
28.731389677
 20
58.3639437383
 30
0.0
 10
29.7371390091
 20
58.5002124136
 30
0.0
 10
30.4124035412
 20
58.5314285714
 30
0.0
 10
30.7495139876
 20
58.5314285714
 30
0.0
  0
SPLINE
  5
26E
100
AcDbEntity
  8
0
100
AcDbSpline
 62
7
  6
BYLAYER
 70
0
 71
3
 72
11
 73
7
 74
0
 42
0.0000001
 43
0.0000001
 44
0.0000000001
 40
0.0
 40
0.0
 40
0.0
 40
0.0
 40
0.2512964423
 40
0.501588353
 40
0.7510378001
 40
1.0
 40
1.0
 40
1.0
 40
1.0
 10
34.7397063676
 20
55.2060311378
 30
0.0
 10
34.4154079619
 20
55.1030019975
 30
0.0
 10
33.7623008776
 20
54.9149169926
 30
0.0
 10
32.7676383053
 20
54.6989134093
 30
0.0
 10
31.7618889758
 20
54.562644739
 30
0.0
 10
31.086624446
 20
54.5314285718
 30
0.0
 10
30.7495140006
 20
54.5314285714
 30
0.0
  0
SPLINE
  5
26F
100
AcDbEntity
  8
0
100
AcDbSpline
 62
7
  6
BYLAYER
 70
0
 71
3
 72
11
 73
7
 74
0
 42
0.0000001
 43
0.0000001
 44
0.0000000001
 40
0.0
 40
0.0
 40
0.0
 40
0.0
 40
0.248962233
 40
0.4984116828
 40
0.7487035809
 40
1.0
 40
1.0
 40
1.0
 40
1.0
 10
30.7495139876
 20
58.5314285714
 30
0.0
 10
31.0866244787
 20
58.5314285715
 30
0.0
 10
31.7618890596
 20
58.5002124128
 30
0.0
 10
32.7676384222
 20
58.3639437165
 30
0.0
 10
33.7623009411
 20
58.147940091
 30
0.0
 10
34.4154079909
 20
57.9598551361
 30
0.0
 10
34.7397063676
 20
57.856826005
 30
0.0
  0
ENDSEC
  0
SECTION
  2
OBJECTS
  0
DICTIONARY
  5
C
100
AcDbDictionary
280
0
281
1
  3
ACAD_GROUP
350
D
  3
ACAD_MLINESTYLE
350
17
  3
ACAD_LAYOUT
350
1A
  3
ACAD_PLOTSETTINGS
350
19
  3
ACAD_PLOTSTYLENAME
350
E
  0
DICTIONARY
  5
D
102
{ACAD_REACTORS
330
C
102
}
100
AcDbDictionary
280
0
281
1
  0
ACDBDICTIONARYWDFLT
  5
E
102
{ACAD_REACTORS
330
C
102
}
100
AcDbDictionary
281
1
  3
Normal
350
F
100
AcDbDictionaryWithDefault
340
F
  0
DICTIONARY
  5
17
102
{ACAD_REACTORS
330
C
102
}
100
AcDbDictionary
280
0
281
1
  3
Standard
350
18
  0
DICTIONARY
  5
19
102
{ACAD_REACTORS
330
C
102
}
100
AcDbDictionary
281
1
  0
DICTIONARY
  5
1A
102
{ACAD_REACTORS
330
C
102
}
100
AcDbDictionary
281
1
  3
Model
350
270
  3
Layout1
350
271
  0
ACDBPLACEHOLDER
  5
F
102
{ACAD_REACTORS
330
E
102
}
  0
MLINESTYLE
  5
18
102
{ACAD_REACTORS
330
17
102
}
100
AcDbMlineStyle
  2
STANDARD
 70
0
  3

 62
256
 51
90.0
 52
90.0
 71
2
 49
0.5
 62
256
  6
BYLAYER
 49
-0.5
 62
256
  6
BYLAYER
  0
LAYOUT
  5
270
102
{ACAD_REACTORS
330
1A
102
}
100
AcDbPlotSettings
  1

  2
none_device
  4

  6

 40
0.0
 41
0.0
 42
0.0
 43
0.0
 44
210.0
 45
297.0
 46
0.0
 47
0.0
 48
0.0
 49
0.0
140
0.0
141
0.0
142
1.0
143
1.0
 70
1024
 72
1
 73
0
 74
0
  7

 75
0
147
1.0
148
0.0
149
0.0
100
AcDbLayout
  1
Model
 70
0
 71
0
 10
0.0
 20
0.0
 11
210.0
 21
297.0
 12
0.0
 22
0.0
 32
0.0
 14
0.0
 24
0.0
 34
0.0
 15
0.0
 25
0.0
 35
0.0
146
0.0
 13
0.0
 23
0.0
 33
0.0
 16
1.0
 26
0.0
 36
0.0
 17
0.0
 27
1.0
 37
0.0
 76
0
330
210
345
0
346
0
  0
LAYOUT
  5
271
102
{ACAD_REACTORS
330
1A
102
}
100
AcDbPlotSettings
  1

  2
none_device
  4

  6

 40
0.0
 41
0.0
 42
0.0
 43
0.0
 44
210.0
 45
297.0
 46
0.0
 47
0.0
 48
0.0
 49
0.0
140
0.0
141
0.0
142
1.0
143
1.0
 70
0
 72
1
 73
0
 74
0
  7

 75
0
147
1.0
148
0.0
149
0.0
100
AcDbLayout
  1
Layout1
 70
0
 71
1
 10
0.0
 20
0.0
 11
210.0
 21
297.0
 12
0.0
 22
0.0
 32
0.0
 14
0.0
 24
0.0
 34
0.0
 15
0.0
 25
0.0
 35
0.0
146
0.0
 13
0.0
 23
0.0
 33
0.0
 16
1.0
 26
0.0
 36
0.0
 17
0.0
 27
1.0
 37
0.0
 76
0
330
211
345
0
346
0
  0
ENDSEC
  0
EOF
