999
DXF file: C:\Users\sesa63760\Dev\_Creo\CAD\MCADID0004813_3D-CAD\drw0001_4.dxf
999
Pro/ENGINEER 2019471 by Parametric Technology Corporation
  0
SECTION
  2
HEADER
  9
$ACADVER
  1
AC1024
  9
$DWGCODEPAGE
  3
ANSI_1252
  9
$EXTMAX
 10
66.4942808348
 20
94.0419114663
 30
0.0
  9
$EXTMIN
 10
0.0
 20
0.0
 30
0.0
  9
$LIMMIN
 10
0.0
 20
0.0
  9
$LIMMAX
 10
66.4942808348
 20
94.0419114663
  9
$VIEWCTR
 10
33.2471404174
 20
47.0209557331
  9
$VIEWSIZE
 40
94.0419114663
  9
$CLAYER
  8
0
  9
$LTSCALE
 40
6.1301394141
  9
$CELTYPE
  6
BYLAYER
  9
$DIMSCALE
 40
1.0
  9
$DIMASZ
 40
0.7915985814
  9
$DIMEXO
 40
1.0
  9
$DIMDLI
 40
4.2353690497
  9
$DIMEXE
 40
1.0
  9
$DIMCEN
 40
1.0031137223
  9
$DIMLFAC
 40
1.0
  9
$DIMBLK
  1
_FILLED
  9
$DIMALT
 70
0
  9
$DIMALTF
 40
0.0393700787
  9
$DIMTXT
 40
1.1082380139
  9
$DIMTOL
 70
1
  9
$DIMLIM
 70
0
  9
$DIMTFAC
 40
1.0
  9
$DIMTP
 40
0.01
  9
$DIMTM
 40
0.01
  9
$DIMGAP
 40
0.625
  9
$DIMDSEP
 70
46
  9
$AUNITS
 70
0
  9
$PDMODE
 70
3
  9
$PDSIZE
 40
0.3125
  9
$HANDSEED
  5
34E
  9
$TILEMODE
 70
1
  9
$MEASUREMENT
 70
1
  9
$INSUNITS
 70
4
  0
ENDSEC
  0
SECTION
  2
CLASSES
  0
CLASS
  1
ACDBDICTIONARYWDFLT
  2
AcDbDictionaryWithDefault
  3
AutoCAD 2000
 90
0
 91
1
280
0
281
0
  0
CLASS
  1
ACDBPLACEHOLDER
  2
AcDbPlaceHolder
  3
AutoCAD 2000
 90
0
 91
1
280
0
281
0
  0
CLASS
  1
LAYOUT
  2
AcDbLayout
  3
AutoCAD 2000
 90
0
 91
0
280
0
281
0
  0
ENDSEC
  0
SECTION
  2
TABLES
  0
TABLE
  2
VPORT
  5
8
100
AcDbSymbolTable
 70
2
  0
VPORT
  5
1F4
100
AcDbSymbolTableRecord
100
AcDbViewportTableRecord
  2
*ACTIVE
 70
0
 10
0.0
 20
0.0
 11
1.0
 21
1.0
 12
33.2471404174
 22
47.0209557331
 13
0.0
 23
0.0
 14
1.0
 24
1.0
 15
0.0
 25
0.0
 16
0.0
 26
0.0
 36
1.0
 17
0.0
 27
0.0
 37
0.0
 40
94.0419114663
 41
0.7070707071
 42
50.0
 43
0.0
 44
0.0
 50
0.0
 51
0.0
 71
0
 72
100
 73
1
 74
1
 75
0
 76
0
 77
0
 78
0
  0
ENDTAB
  0
TABLE
  2
LTYPE
  5
5
100
AcDbSymbolTable
 70
6
  0
LTYPE
  5
14
100
AcDbSymbolTableRecord
100
AcDbLinetypeTableRecord
  2
BYBLOCK
 70
0
  3

 72
65
 73
0
 40
0.0
  0
LTYPE
  5
15
100
AcDbSymbolTableRecord
100
AcDbLinetypeTableRecord
  2
BYLAYER
 70
0
  3

 72
65
 73
0
 40
0.0
  0
LTYPE
  5
16
100
AcDbSymbolTableRecord
100
AcDbLinetypeTableRecord
  2
CONTINUOUS
 70
64
  3
Solid line
 72
65
 73
0
 40
0.0
  0
LTYPE
  5
1F5
100
AcDbSymbolTableRecord
100
AcDbLinetypeTableRecord
  2
CENTER
 70
64
  3
____ _ ____ _ ____ _ ____ _ ____ _ ____ _ ____
 72
65
 73
4
 40
0.6
 49
0.375
 74
0
 49
-0.075
 74
0
 49
0.075
 74
0
 49
-0.075
 74
0
  0
LTYPE
  5
1F6
100
AcDbSymbolTableRecord
100
AcDbLinetypeTableRecord
  2
HIDDEN
 70
64
  3
- - - - - - - - - - - - - - - - - - - -
 72
65
 73
2
 40
0.2
 49
0.1
 74
0
 49
-0.1
 74
0
  0
LTYPE
  5
1F7
100
AcDbSymbolTableRecord
100
AcDbLinetypeTableRecord
  2
PHANTOM
 70
64
  3
_____ _ _ _____ _ _ _____ _ _ _____
 72
65
 73
6
 40
0.8
 49
0.45
 74
0
 49
-0.05
 74
0
 49
0.1
 74
0
 49
-0.05
 74
0
 49
0.1
 74
0
 49
-0.05
 74
0
  0
LTYPE
  5
1F8
100
AcDbSymbolTableRecord
100
AcDbLinetypeTableRecord
  2
DOT
 70
64
  3
. . . . . . . . . . . . . . . . . . . .
 72
65
 73
2
 40
0.2
 49
0.1
 74
0
 49
-0.1
 74
0
  0
LTYPE
  5
1F9
100
AcDbSymbolTableRecord
100
AcDbLinetypeTableRecord
  2
DASHED
 70
64
  3
- - - - - - - - - - - - - - - - - - - -
 72
65
 73
2
 40
0.2
 49
0.1
 74
0
 49
-0.1
 74
0
  0
ENDTAB
  0
TABLE
  2
LAYER
  5
2
100
AcDbSymbolTable
 70
36
  0
LAYER
  5
10
100
AcDbSymbolTableRecord
100
AcDbLayerTableRecord
  2
0
 70
0
 62
7
  6
CONTINUOUS
370
-3
390
F
  0
LAYER
  5
1FA
100
AcDbSymbolTableRecord
100
AcDbLayerTableRecord
  2
DEFAULT_1
 70
0
 62
7
  6
CENTER
370
-3
390
F
  0
LAYER
  5
1FB
100
AcDbSymbolTableRecord
100
AcDbLayerTableRecord
  2
DEFAULT_2
 70
0
 62
7
  6
HIDDEN
370
-3
390
F
  0
LAYER
  5
1FC
100
AcDbSymbolTableRecord
100
AcDbLayerTableRecord
  2
DEFAULT_3
 70
0
 62
7
  6
PHANTOM
370
-3
390
F
  0
LAYER
  5
1FD
100
AcDbSymbolTableRecord
100
AcDbLayerTableRecord
  2
00_COMPONENTS
 70
0
 62
7
  6
CONTINUOUS
370
-3
390
F
  0
LAYER
  5
1FE
100
AcDbSymbolTableRecord
100
AcDbLayerTableRecord
  2
01_1_DEFAULT_DATUMS
 70
0
 62
7
  6
CONTINUOUS
370
-3
390
F
  0
LAYER
  5
1FF
100
AcDbSymbolTableRecord
100
AcDbLayerTableRecord
  2
01_PLANES
 70
0
 62
7
  6
CONTINUOUS
370
-3
390
F
  0
LAYER
  5
200
100
AcDbSymbolTableRecord
100
AcDbLayerTableRecord
  2
02_COORD_SYS
 70
0
 62
7
  6
CONTINUOUS
370
-3
390
F
  0
LAYER
  5
201
100
AcDbSymbolTableRecord
100
AcDbLayerTableRecord
  2
03_AXES
 70
0
 62
7
  6
CONTINUOUS
370
-3
390
F
  0
LAYER
  5
202
100
AcDbSymbolTableRecord
100
AcDbLayerTableRecord
  2
04_POINTS
 70
0
 62
7
  6
CONTINUOUS
370
-3
390
F
  0
LAYER
  5
203
100
AcDbSymbolTableRecord
100
AcDbLayerTableRecord
  2
05_CURVES
 70
0
 62
7
  6
CONTINUOUS
370
-3
390
F
  0
LAYER
  5
204
100
AcDbSymbolTableRecord
100
AcDbLayerTableRecord
  2
06_SURFS
 70
0
 62
7
  6
CONTINUOUS
370
-3
390
F
  0
LAYER
  5
205
100
AcDbSymbolTableRecord
100
AcDbLayerTableRecord
  2
07_COSMETICS
 70
0
 62
7
  6
CONTINUOUS
370
-3
390
F
  0
LAYER
  5
206
100
AcDbSymbolTableRecord
100
AcDbLayerTableRecord
  2
10_NOTES
 70
0
 62
7
  6
CONTINUOUS
370
-3
390
F
  0
LAYER
  5
207
100
AcDbSymbolTableRecord
100
AcDbLayerTableRecord
  2
11_NOTES_PUB
 70
0
 62
7
  6
CONTINUOUS
370
-3
390
F
  0
LAYER
  5
208
100
AcDbSymbolTableRecord
100
AcDbLayerTableRecord
  2
13_REF_GTOL
 70
0
 62
7
  6
CONTINUOUS
370
-3
390
F
  0
LAYER
  5
209
100
AcDbSymbolTableRecord
100
AcDbLayerTableRecord
  2
16_MISC
 70
0
 62
7
  6
CONTINUOUS
370
-3
390
F
  0
LAYER
  5
20A
100
AcDbSymbolTableRecord
100
AcDbLayerTableRecord
  2
17_NO_PRINT
 70
0
 62
7
  6
CONTINUOUS
370
-3
390
F
  0
LAYER
  5
20B
100
AcDbSymbolTableRecord
100
AcDbLayerTableRecord
  2
18_DATUM_CAMS_JOINTS
 70
0
 62
7
  6
CONTINUOUS
370
-3
390
F
  0
LAYER
  5
20C
100
AcDbSymbolTableRecord
100
AcDbLayerTableRecord
  2
19_DATUM_FUNCTIONAL
 70
0
 62
7
  6
CONTINUOUS
370
-3
390
F
  0
LAYER
  5
20D
100
AcDbSymbolTableRecord
100
AcDbLayerTableRecord
  2
20_DATUM_KINEMATIC_SCHEME
 70
0
 62
7
  6
CONTINUOUS
370
-3
390
F
  0
ENDTAB
  0
TABLE
  2
STYLE
  5
3
100
AcDbSymbolTable
 70
1
  0
STYLE
  5
11
100
AcDbSymbolTableRecord
100
AcDbTextStyleTableRecord
  2
STANDARD
 70
0
 40
0.0
 41
1.0
 50
0.0
 71
0
 42
0.2
  3
ARIAL.TTF
  4

  0
STYLE
  5
20E
100
AcDbSymbolTableRecord
100
AcDbTextStyleTableRecord
  2
TEXTSTYLE_1
 70
0
 40
0.0
 41
0.8
 50
0.0
 71
0
 42
0.2
  3
gdt
  4

  0
ENDTAB
  0
TABLE
  2
VIEW
  5
6
100
AcDbSymbolTable
 70
0
  0
ENDTAB
  0
TABLE
  2
UCS
  5
7
100
AcDbSymbolTable
 70
0
  0
ENDTAB
  0
TABLE
  2
APPID
  5
9
100
AcDbSymbolTable
 70
1
  0
APPID
  5
20F
100
AcDbSymbolTableRecord
100
AcDbRegAppTableRecord
  2
ACAD
 70
0
  0
ENDTAB
  0
TABLE
  2
BLOCK_RECORD
  5
1
100
AcDbSymbolTable
 70
0
  0
BLOCK_RECORD
  5
210
100
AcDbSymbolTableRecord
100
AcDbBlockTableRecord
  2
*Model_Space
  0
BLOCK_RECORD
  5
211
100
AcDbSymbolTableRecord
100
AcDbBlockTableRecord
  2
*Paper_Space
  0
BLOCK_RECORD
  5
212
100
AcDbSymbolTableRecord
100
AcDbBlockTableRecord
  2
_FILLED
  0
ENDTAB
  0
TABLE
  2
DIMSTYLE
  5
A
100
AcDbSymbolTable
 70
1
100
AcDbDimStyleTable
 71
0
  0
DIMSTYLE
105
213
100
AcDbSymbolTableRecord
100
AcDbDimStyleTableRecord
  2
STANDARD
 70
0
  3

  4

 40
1.0
 41
0.7915985814
 42
1.0
 43
0.38
 44
1.0
 45
0.0
 46
0.0
 47
0.01
 48
0.01
140
1.1082380139
141
0.09
142
0.0
143
25.4
144
1.0
145
0.0
146
1.0
147
0.625
 71
1
 72
0
 73
0
 74
0
 75
0
 76
0
 77
1
 78
8
 79
2
170
0
171
1
172
0
173
0
174
0
175
0
176
0
177
0
178
0
270
2
179
2
271
2
272
2
273
2
274
2
275
0
280
0
281
0
282
0
283
1
284
8
285
0
286
0
287
3
288
0
340
11
278
46
341
212
342
212
343
212
344
212
  0
ENDTAB
  0
ENDSEC
  0
SECTION
  2
BLOCKS
  0
BLOCK
  5
20
100
AcDbEntity
  8
0
100
AcDbBlockBegin
  2
*Model_Space
 70
0
 10
0.0
 20
0.0
 30
0.0
  3
*Model_Space
  1

  0
ENDBLK
  5
21
100
AcDbEntity
  8
0
100
AcDbBlockEnd
  0
BLOCK
  5
1C
100
AcDbEntity
  8
0
100
AcDbBlockBegin
  2
*Paper_Space
 70
0
 10
0.0
 20
0.0
 30
0.0
  3
*Paper_Space
  1

  0
ENDBLK
  5
1D
100
AcDbEntity
  8
0
100
AcDbBlockEnd
  0
BLOCK
  5
214
100
AcDbEntity
  8
0
100
AcDbBlockBegin
  2
_FILLED
 70
64
 10
0.0
 20
0.0
  3
_FILLED
  1

  0
SOLID
  5
215
100
AcDbEntity
  8
0
  6
BYBLOCK
 62
0
100
AcDbTrace
 10
0.0
 20
0.0
 11
-1.0
 21
0.25
 12
-1.0
 22
-0.25
 13
-1.0
 23
-0.25
  0
ENDBLK
  5
216
100
AcDbEntity
  8
0
  6
BYBLOCK
 62
0
100
AcDbBlockEnd
  0
ENDSEC
  0
SECTION
  2
ENTITIES
  0
LINE
  5
217
100
AcDbEntity
  8
0
100
AcDbLine
 62
7
  6
BYLAYER
 10
7.4057583804
 20
53.6331897862
 11
7.4057583804
 21
39.8331897862
  0
LINE
  5
218
100
AcDbEntity
  8
0
100
AcDbLine
 62
7
  6
BYLAYER
 10
8.6057583804
 20
39.8331897862
 11
8.6057583804
 21
53.6331897862
  0
LWPOLYLINE
  5
219
100
AcDbEntity
  8
0
100
AcDbPolyline
 62
7
  6
BYLAYER
 90
5
 70
0
 10
11.1970154331
 20
48.6725920193
 10
11.2292722251
 20
48.2530850262
 10
11.450463091
 20
47.8923269995
 10
11.8121852619
 20
47.6724747958
 10
12.232351232
 20
47.6419346721
  0
LWPOLYLINE
  5
21A
100
AcDbEntity
  8
0
100
AcDbPolyline
 62
7
  6
BYLAYER
 90
5
 70
0
 10
11.1832914261
 20
44.7139524633
 10
11.2764828453
 20
44.4941373259
 10
11.4140409261
 20
44.3165238207
 10
11.5789863849
 20
44.1859301656
 10
11.7562687598
 20
44.1018543024
  0
LWPOLYLINE
  5
21B
100
AcDbEntity
  8
0
100
AcDbPolyline
 62
7
  6
BYLAYER
 90
6
 70
0
 10
12.9191518986
 20
45.1902325802
 10
12.939022972
 20
44.8044851479
 10
12.7945952118
 20
44.4448228275
 10
12.5115907164
 20
44.1788213679
 10
12.1424884673
 20
44.0567997339
 10
11.7562687598
 20
44.1018543024
  0
LWPOLYLINE
  5
21C
100
AcDbEntity
  8
0
100
AcDbPolyline
 62
7
  6
BYLAYER
 90
4
 70
0
 10
12.9742504916
 20
48.3871584829
 10
12.8418863161
 20
48.0419382383
 10
12.5802475061
 20
47.7779830969
 10
12.232351232
 20
47.6419346721
  0
LWPOLYLINE
  5
21D
100
AcDbEntity
  8
0
100
AcDbPolyline
 62
7
  6
BYLAYER
 90
5
 70
0
 10
15.2761042758
 20
43.0878811484
 10
15.3799785079
 20
42.8648881046
 10
15.529380197
 20
42.6881650376
 10
15.7057095719
 20
42.5623621074
 10
15.8929219949
 20
42.4862724532
  0
LWPOLYLINE
  5
21E
100
AcDbEntity
  8
0
100
AcDbPolyline
 62
7
  6
BYLAYER
 90
6
 70
0
 10
16.9965661736
 20
43.6174578691
 10
17.028982977
 20
43.2373659707
 10
16.9000495327
 20
42.8764355403
 10
16.6320674181
 20
42.6015230859
 10
16.2744067075
 20
42.4633793534
 10
15.8929219949
 20
42.4862724532
  0
LWPOLYLINE
  5
21F
100
AcDbEntity
  8
0
100
AcDbPolyline
 62
7
  6
BYLAYER
 90
12
 70
0
 10
17.0333432787
 20
49.9867481012
 10
16.9014862244
 20
49.7601062019
 10
16.7170504227
 20
49.5172760075
 10
16.4626495953
 20
49.3329130971
 10
16.1678636014
 20
49.2656140756
 10
15.9091374506
 20
49.3086600377
 10
15.6937693684
 20
49.4277997136
 10
15.5259288177
 20
49.6024664978
 10
15.417413847
 20
49.7873332161
 10
15.3606692228
 20
49.9239056728
 10
15.3380383656
 20
49.9968088189
 10
15.3278171572
 20
50.0527339035
  0
LWPOLYLINE
  5
220
100
AcDbEntity
  8
0
100
AcDbPolyline
 62
7
  6
BYLAYER
 90
30
 70
0
 10
15.2441856745
 20
50.2458365459
 10
15.2944901162
 20
50.082366337
 10
15.3176500708
 20
50.0021423528
 10
15.3571178158
 20
49.87115501
 10
15.4302598827
 20
49.7056093149
 10
15.5271845044
 20
49.5618040552
 10
15.6423361438
 20
49.4447588365
 10
15.7717063869
 20
49.3540270929
 10
15.9095665529
 20
49.2903505977
 10
16.0460061512
 20
49.2530168827
 10
16.1772172064
 20
49.2375957336
 10
16.3029360918
 20
49.2400546886
 10
16.417230582
 20
49.2568549491
 10
16.5142951023
 20
49.2826926878
 10
16.5832723302
 20
49.3081009966
 10
16.5987076937
 20
49.3146038517
 10
16.5778677119
 20
49.3065523353
 10
16.5514953117
 20
49.2981495102
 10
16.546694635
 20
49.2968275328
 10
16.5684603631
 20
49.3007443962
 10
16.6101866612
 20
49.306850516
 10
16.6686859234
 20
49.3141054888
 10
16.746773592
 20
49.3234085649
 10
16.8407663613
 20
49.3363198555
 10
16.9453755224
 20
49.3550947698
 10
17.0427297459
 20
49.3774842516
 10
17.1254617979
 20
49.3971826478
 10
17.2062777977
 20
49.4126268838
 10
17.3112391321
 20
49.4261319452
 10
17.5830338817
 20
49.4536709825
  0
LINE
  5
221
100
AcDbEntity
  8
0
100
AcDbLine
 62
7
  6
BYLAYER
 10
18.4557583804
 20
45.4331850238
 11
18.4557583804
 21
47.6331945486
  0
LINE
  5
222
100
AcDbEntity
  8
0
100
AcDbLine
 62
7
  6
BYLAYER
 10
19.4057583804
 20
46.7331897862
 11
19.4057583804
 21
39.8331897862
  0
LINE
  5
223
100
AcDbEntity
  8
0
100
AcDbLine
 62
7
  6
BYLAYER
 10
21.4557583797
 20
45.4331850238
 11
21.4557583811
 21
47.6331945486
  0
LWPOLYLINE
  5
224
100
AcDbEntity
  8
0
100
AcDbPolyline
 62
7
  6
BYLAYER
 90
4
 70
0
 10
15.9539500536
 20
50.9999578814
 10
15.6228409417
 20
50.8563883068
 10
15.372925907
 20
50.5913171247
 10
15.2480664683
 20
50.2453998149
  0
LWPOLYLINE
  5
225
100
AcDbEntity
  8
0
100
AcDbPolyline
 62
7
  6
BYLAYER
 90
13
 70
0
 10
23.0018112621
 20
43.0290579611
 10
23.1019122311
 20
42.8471316713
 10
23.2331709111
 20
42.6998276286
 10
23.3789243255
 20
42.5929938363
 10
23.5165623946
 20
42.5267151558
 10
23.617638855
 20
42.4941852911
 10
23.6972452794
 20
42.4750792852
 10
23.7870261054
 20
42.4573893948
 10
23.8962496948
 20
42.4395835984
 10
24.0279086129
 20
42.4224339168
 10
24.1841946536
 20
42.4075473095
 10
24.3659673604
 20
42.3974300056
 10
24.5740148555
 20
42.3951713779
  0
LWPOLYLINE
  5
226
100
AcDbEntity
  8
0
100
AcDbPolyline
 62
7
  6
BYLAYER
 90
3
 70
0
 10
24.7546425291
 20
50.3683832681
 10
24.7540547087
 20
50.3751373002
 10
24.7535451623
 20
50.3821443044
  0
LWPOLYLINE
  5
227
100
AcDbEntity
  8
0
100
AcDbPolyline
 62
7
  6
BYLAYER
 90
53
 70
0
 10
24.7535370669
 20
50.3822961451
 10
24.75366376
 20
50.3765969804
 10
24.7535908907
 20
50.3691125285
 10
24.753259063
 20
50.3605391468
 10
24.7526981632
 20
50.351965028
 10
24.7519736102
 20
50.343831512
 10
24.7511463199
 20
50.3362870246
 10
24.7502593707
 20
50.3293310362
 10
24.7493307557
 20
50.322845587
 10
24.7483508191
 20
50.3166167346
 10
24.7472807227
 20
50.3103452741
 10
24.7460498733
 20
50.3036509511
 10
24.7445549015
 20
50.2960930043
 10
24.7428268932
 20
50.2879608427
 10
24.7409491546
 20
50.2796982362
 10
24.7389167187
 20
50.2712899953
 10
24.7367252033
 20
50.2627259801
 10
24.7343693091
 20
50.2539942831
 10
24.731842684
 20
50.2450811045
 10
24.7291391086
 20
50.2359750016
 10
24.7262566839
 20
50.2266795518
 10
24.7231947184
 20
50.2172009226
 10
24.7199527636
 20
50.2075446311
 10
24.7165305612
 20
50.1977155824
 10
24.7129279715
 20
50.1877180471
 10
24.7091449129
 20
50.1775556647
 10
24.7051813129
 20
50.1672314724
 10
24.7010370745
 20
50.1567479597
 10
24.6967120585
 20
50.1461071483
 10
24.6922061244
 20
50.1353107919
 10
24.687518186
 20
50.1243582694
 10
24.682641869
 20
50.11323711
 10
24.6775690278
 20
50.1019320372
 10
24.6722912011
 20
50.0904277649
 10
24.6667995215
 20
50.0787089772
 10
24.6610844017
 20
50.0667600753
 10
24.6551355548
 20
50.0545652407
 10
24.6489420287
 20
50.0421085226
 10
24.6424922475
 20
50.0293739405
 10
24.6357763522
 20
50.0163500081
 10
24.6287902315
 20
50.0030370013
 10
24.6215308571
 20
49.9894373616
 10
24.6139952495
 20
49.9755537045
 10
24.6061805128
 20
49.9613889533
 10
24.5980838551
 20
49.9469464398
 10
24.5897042813
 20
49.9322329199
 10
24.5810432231
 20
49.917259498
 10
24.5721024327
 20
49.9020378501
 10
24.5628838398
 20
49.8865800599
 10
24.5533895575
 20
49.8708987181
 10
24.5436219019
 20
49.8550070441
 10
24.5335834302
 20
49.8389190337
 10
24.5140613053
 20
49.8097324904
  0
LINE
  5
228
100
AcDbEntity
  8
0
100
AcDbLine
 62
7
  6
BYLAYER
 10
24.5232769995
 20
49.8226496337
 11
24.5048315375
 21
49.7953360721
  0
LINE
  5
229
100
AcDbEntity
  8
0
100
AcDbLine
 62
7
  6
BYLAYER
 10
24.5127061441
 20
49.8062147748
 11
24.4956071535
 21
49.7811578476
  0
LINE
  5
22A
100
AcDbEntity
  8
0
100
AcDbLine
 62
7
  6
BYLAYER
 10
24.5018752807
 20
49.7896309143
 11
24.4863939014
 21
49.7671991891
  0
LINE
  5
22B
100
AcDbEntity
  8
0
100
AcDbLine
 62
7
  6
BYLAYER
 10
24.4907840908
 20
49.7729078048
 11
24.4771971084
 21
49.7534614666
  0
LINE
  5
22C
100
AcDbEntity
  8
0
100
AcDbLine
 62
7
  6
BYLAYER
 10
24.4794259344
 20
49.7560470022
 11
24.4588729095
 21
49.7266551012
  0
LINE
  5
22D
100
AcDbEntity
  8
0
100
AcDbLine
 62
7
  6
BYLAYER
 10
24.4677933097
 20
49.7390506339
 11
24.4497525648
 21
49.7135865314
  0
LINE
  5
22E
100
AcDbEntity
  8
0
100
AcDbLine
 62
7
  6
BYLAYER
 10
24.4558782129
 20
49.7219221516
 11
24.4406628317
 21
49.7007391566
  0
LINE
  5
22F
100
AcDbEntity
  8
0
100
AcDbLine
 62
7
  6
BYLAYER
 10
24.4436722619
 20
49.7046667377
 11
24.4311668484
 21
49.6872917677
  0
LWPOLYLINE
  5
230
100
AcDbEntity
  8
0
100
AcDbPolyline
 62
7
  6
BYLAYER
 90
3
 70
0
 10
24.4316050391
 20
49.6881111428
 10
24.4183533352
 20
49.669807353
 10
24.4052233216
 20
49.6522269877
  0
LINE
  5
231
100
AcDbEntity
  8
0
100
AcDbLine
 62
7
  6
BYLAYER
 10
24.4225800424
 20
49.6757004812
 11
24.4135883103
 21
49.6635050929
  0
LWPOLYLINE
  5
232
100
AcDbEntity
  8
0
100
AcDbPolyline
 62
7
  6
BYLAYER
 90
3
 70
0
 10
24.4046300039
 20
49.6515229175
 10
24.3917690333
 20
49.6345683618
 10
24.3779808763
 20
49.6168505497
  0
LINE
  5
233
100
AcDbEntity
  8
0
100
AcDbLine
 62
7
  6
BYLAYER
 10
24.3957050477
 20
49.6397519908
 11
24.3868131945
 21
49.6281905098
  0
LWPOLYLINE
  5
234
100
AcDbEntity
  8
0
100
AcDbPolyline
 62
7
  6
BYLAYER
 90
4
 70
0
 10
24.3779540844
 20
49.6168368883
 10
24.3638456692
 20
49.5990925154
 10
24.3493486892
 20
49.5813166561
 10
24.3344741696
 20
49.5635502784
  0
LINE
  5
235
100
AcDbEntity
  8
0
100
AcDbLine
 62
7
  6
BYLAYER
 10
24.3691272978
 20
49.6056898033
 11
24.3603324048
 21
49.5947482332
  0
LINE
  5
236
100
AcDbEntity
  8
0
100
AcDbLine
 62
7
  6
BYLAYER
 10
24.3515690086
 20
49.5840114865
 11
24.3428367848
 21
49.573479224
  0
LINE
  5
237
100
AcDbEntity
  8
0
100
AcDbLine
 62
7
  6
BYLAYER
 10
24.3341355158
 20
49.563151471
 11
24.3192059403
 21
49.5458272592
  0
LWPOLYLINE
  5
238
100
AcDbEntity
  8
0
100
AcDbPolyline
 62
7
  6
BYLAYER
 90
36
 70
0
 10
24.3254651591
 20
49.5530286673
 10
24.3168269618
 20
49.5431129
 10
24.3082234829
 20
49.5334077816
 10
24.2996572512
 20
49.5239168237
 10
24.2911308276
 20
49.5146434837
 10
24.2826469014
 20
49.505591238
 10
24.2742083773
 20
49.4967636349
 10
24.2658184514
 20
49.4881643226
 10
24.2574806742
 20
49.479797055
 10
24.2491989968
 20
49.4716656705
 10
24.2409778003
 20
49.463774048
 10
24.2328219085
 20
49.4561260431
 10
24.2247365818
 20
49.4487254036
 10
24.216727493
 20
49.4415756719
 10
24.2088007105
 20
49.4346800961
 10
24.2009615351
 20
49.4280405897
 10
24.1932199233
 20
49.4216622038
 10
24.1855937732
 20
49.4155551668
 10
24.1781020885
 20
49.409728718
 10
24.1707638531
 20
49.4041901525
 10
24.1635898906
 20
49.3989390888
 10
24.1566019072
 20
49.3939825873
 10
24.1497826448
 20
49.3892999035
 10
24.1431227076
 20
49.3848769914
 10
24.1366245612
 20
49.3807081637
 10
24.1303006431
 20
49.3767936525
 10
24.1241397474
 20
49.3731188806
 10
24.1181223559
 20
49.3696658409
 10
24.1124316014
 20
49.3665280627
 10
24.107449938
 20
49.3638869017
 10
24.1023504265
 20
49.3612896827
 10
24.09666153
 20
49.3585265778
 10
24.0905872553
 20
49.3557470809
 10
24.0852369075
 20
49.3534718401
 10
24.0861043831
 20
49.3537207163
 10
24.0925585674
 20
49.3559385566
  0
LWPOLYLINE
  5
239
100
AcDbEntity
  8
0
100
AcDbPolyline
 62
7
  6
BYLAYER
 90
30
 70
0
 10
23.4121277146
 20
50.8793383273
 10
23.230493043
 20
50.6990385862
 10
23.1154303092
 20
50.4827563734
 10
23.0684792411
 20
50.2543053801
 10
23.0836791605
 20
50.0342954946
 10
23.1496741765
 20
49.8383971665
 10
23.2501298366
 20
49.6784581402
 10
23.3496546135
 20
49.5735450273
 10
23.4086276692
 20
49.5249254822
 10
23.4605823213
 20
49.4863864589
 10
23.5362083225
 20
49.4327943821
 10
23.6496969813
 20
49.3545134437
 10
23.8013861248
 20
49.2519821197
 10
23.9811752251
 20
49.1325329546
 10
24.1796531939
 20
49.0027227239
 10
24.3926293652
 20
48.8655077868
 10
24.6191389889
 20
48.7217473661
 10
24.8592293667
 20
48.5717122396
 10
25.1140047983
 20
48.415102855
 10
25.3851533535
 20
48.2513962757
 10
25.6746816395
 20
48.0800635731
 10
25.9855256432
 20
47.900289729
 10
26.3212878797
 20
47.7112740398
 10
26.6869748052
 20
47.5120514903
 10
27.0893891367
 20
47.3017244637
 10
27.5383768796
 20
47.0797059431
 10
28.0481484819
 20
46.8470263077
 10
28.6389608091
 20
46.6103581621
 10
29.3299503031
 20
46.3971249865
 10
30.1000118511
 20
46.2906298012
  0
LWPOLYLINE
  5
23A
100
AcDbEntity
  8
0
100
AcDbPolyline
 62
7
  6
BYLAYER
 90
4
 70
0
 10
11.9389097367
 20
49.4178149295
 10
11.591013363
 20
49.2817641495
 10
11.329377366
 20
49.0178087807
 10
11.1970154338
 20
48.6725920238
  0
LWPOLYLINE
  5
23B
100
AcDbEntity
  8
0
100
AcDbPolyline
 62
7
  6
BYLAYER
 90
31
 70
0
 10
15.8929219949
 20
42.4862724532
 10
15.9147977228
 20
42.4798607642
 10
16.0107830952
 20
42.4537549027
 10
16.190665915
 20
42.4074855098
 10
16.4703480669
 20
42.3399611656
 10
16.8538743697
 20
42.2542114741
 10
17.3310223611
 20
42.1571230171
 10
17.8895935508
 20
42.0559933465
 10
18.5383698078
 20
41.9550221318
 10
19.2410126245
 20
41.8658470156
 10
19.9301053923
 20
41.7995713435
 10
20.5744883933
 20
41.7577290453
 10
21.1675023974
 20
41.7376787105
 10
21.7204589679
 20
41.7362098473
 10
22.2412098092
 20
41.7513232763
 10
22.7321157147
 20
41.7815311772
 10
23.1954541313
 20
41.8255694185
 10
23.6334485076
 20
41.8823656216
 10
24.0484400592
 20
41.9511349617
 10
24.4424015704
 20
42.0312269314
 10
24.8163505827
 20
42.1219455134
 10
25.1712365322
 20
42.2226766632
 10
25.5080790419
 20
42.3329018324
 10
25.8277907841
 20
42.4521386781
 10
26.1311931383
 20
42.5799498673
 10
26.4192582771
 20
42.7160607347
 10
26.6914991205
 20
42.8594994755
 10
26.9503070043
 20
43.0108335438
 10
27.193287699
 20
43.1662568971
 10
27.4220462416
 20
43.3218959708
 10
27.8421236208
 20
43.618528368
  0
LINE
  5
23C
100
AcDbEntity
  8
0
100
AcDbLine
 62
7
  6
BYLAYER
 10
11.7562687598
 20
44.1018543024
 11
11.7680847149
 21
44.0979105888
  0
LWPOLYLINE
  5
23D
100
AcDbEntity
  8
0
100
AcDbPolyline
 62
7
  6
BYLAYER
 90
50
 70
0
 10
11.7562687598
 20
44.1018543024
 10
11.8225338094
 20
44.0789626212
 10
12.0724151372
 20
43.9975724619
 10
12.5646663256
 20
43.8480148577
 10
13.2447305833
 20
43.6585546713
 10
13.9155729007
 20
43.4885343709
 10
14.5555362419
 20
43.3410858222
 10
15.1625854622
 20
43.2143672929
 10
15.7325233827
 20
43.1071639147
 10
16.2697639418
 20
43.0167919604
 10
16.7788247341
 20
42.9410218856
 10
17.2620176964
 20
42.8783027875
 10
17.7219397446
 20
42.8272650797
 10
18.1605246128
 20
42.7867958028
 10
18.579761155
 20
42.7559329958
 10
18.9815640514
 20
42.7338635732
 10
19.3671288723
 20
42.719921059
 10
19.7376109917
 20
42.7135203752
 10
20.0942159664
 20
42.7141614009
 10
20.4378386141
 20
42.7214079221
 10
20.7691841293
 20
42.7348640817
 10
21.0889891978
 20
42.7541805484
 10
21.3980032843
 20
42.7790657434
 10
21.696791192
 20
42.8092501521
 10
21.9857753209
 20
42.8444727133
 10
22.2653943047
 20
42.8844925322
 10
22.5361010899
 20
42.929100163
 10
22.7983314795
 20
42.9781148
 10
23.0523890668
 20
43.0313489758
 10
23.298531818
 20
43.0886206726
 10
23.5370320609
 20
43.1497618107
 10
23.768174356
 20
43.2146190813
 10
23.9922441128
 20
43.2830588704
 10
24.2094556481
 20
43.3549386264
 10
24.4199499155
 20
43.4300964058
 10
24.6238692066
 20
43.5083761089
 10
24.8213662719
 20
43.5896290161
 10
25.0126058732
 20
43.6737144299
 10
25.1977602262
 20
43.760502272
 10
25.3770417146
 20
43.8498920346
 10
25.5505888443
 20
43.9417553744
 10
25.7185117354
 20
44.0359511875
 10
25.8809238786
 20
44.132340784
 10
26.037964715
 20
44.2308082365
 10
26.1897559506
 20
44.3312261695
 10
26.3364715672
 20
44.4335151949
 10
26.4773966412
 20
44.5369234872
 10
26.6115817532
 20
44.6400110957
 10
26.7413881859
 20
44.7431635791
 10
27.1233850283
 20
45.0541080672
  0
LINE
  5
23E
100
AcDbEntity
  8
0
100
AcDbLine
 62
7
  6
BYLAYER
 10
11.7782942307
 20
44.0943874429
 11
11.8047995037
 21
44.0850614642
  0
LWPOLYLINE
  5
23F
100
AcDbEntity
  8
0
100
AcDbPolyline
 62
7
  6
BYLAYER
 90
5
 70
0
 10
16.3795810542
 20
44.2191186233
 10
16.5668261447
 20
44.1430402252
 10
16.7432260968
 20
44.0172297981
 10
16.8926723134
 20
43.8404809693
 10
16.9965661661
 20
43.6174578933
  0
LWPOLYLINE
  5
240
100
AcDbEntity
  8
0
100
AcDbPolyline
 62
7
  6
BYLAYER
 90
5
 70
0
 10
12.3453447074
 20
45.8027151886
 10
12.523452059
 20
45.718245934
 10
12.6884084659
 20
45.5876479298
 10
12.8259643411
 20
45.4100367091
 10
12.9191518947
 20
45.1902325945
  0
LWPOLYLINE
  5
241
100
AcDbEntity
  8
0
100
AcDbPolyline
 62
7
  6
BYLAYER
 90
16
 70
0
 10
24.6685573021
 20
43.7087019843
 10
24.7223574953
 20
43.5198774171
 10
24.7343510304
 20
43.330950783
 10
24.7080910269
 20
43.150123737
 10
24.6486136334
 20
42.9839296117
 10
24.561223473
 20
42.8372877598
 10
24.451776115
 20
42.7134631742
 10
24.3256818758
 20
42.6145564912
 10
24.1883449551
 20
42.5413008086
 10
24.0451085491
 20
42.4940476268
 10
23.906208446
 20
42.472107691
 10
23.7847494224
 20
42.4709513274
 10
23.7112388174
 20
42.4787150158
 10
23.7009573095
 20
42.4803990126
 10
23.7292914295
 20
42.4741702296
 10
23.7869870088
 20
42.4602391198
  0
LINE
  5
242
100
AcDbEntity
  8
0
100
AcDbLine
 62
7
  6
BYLAYER
 10
25.4057583804
 20
46.7331897862
 11
25.4057583804
 21
39.8331897862
  0
LINE
  5
243
100
AcDbEntity
  8
0
100
AcDbLine
 62
7
  6
BYLAYER
 10
24.4526446388
 20
49.5506466516
 11
24.4643642789
 21
49.5609813888
  0
LWPOLYLINE
  5
244
100
AcDbEntity
  8
0
100
AcDbPolyline
 62
7
  6
BYLAYER
 90
71
 70
0
 10
24.4467189013
 20
49.5455471483
 10
24.4583042067
 20
49.5555592734
 10
24.4696874967
 20
49.565740669
 10
24.4808648496
 20
49.5760850251
 10
24.491833042
 20
49.5865864032
 10
24.5025894244
 20
49.5972392025
 10
24.5131318081
 20
49.608038122
 10
24.5234583673
 20
49.6189781186
 10
24.5335675543
 20
49.630054365
 10
24.5434580279
 20
49.6412622067
 10
24.5531285929
 20
49.6525971191
 10
24.5625781496
 20
49.6640546652
 10
24.5718056536
 20
49.6756304534
 10
24.5808100823
 20
49.6873200972
 10
24.58959041
 20
49.6991191736
 10
24.5981455884
 20
49.7110231832
 10
24.6064745329
 20
49.7230275096
 10
24.6145761144
 20
49.7351273797
 10
24.6224491554
 20
49.7473178218
 10
24.6300924554
 20
49.7595936646
 10
24.6375052698
 20
49.771949482
 10
24.6446874824
 20
49.7843787246
 10
24.6516391773
 20
49.7968746513
 10
24.6583604369
 20
49.8094302473
 10
24.6648513558
 20
49.8220381976
 10
24.6711120566
 20
49.834690862
 10
24.6771427086
 20
49.8473802519
 10
24.6829435491
 20
49.860098011
 10
24.6885149081
 20
49.8728353999
 10
24.6938572264
 20
49.8855832664
 10
24.6989715435
 20
49.8983332069
 10
24.7038613398
 20
49.9110826691
 10
24.7085291522
 20
49.9238268926
 10
24.7129773433
 20
49.9365605731
 10
24.717208395
 20
49.9492785992
 10
24.7212248838
 20
49.9619759976
 10
24.7250294641
 20
49.9746478905
 10
24.728624857
 20
49.9872894514
 10
24.7320138424
 20
49.9998958633
 10
24.7351992558
 20
50.0124622756
 10
24.7381839877
 20
50.0249837638
 10
24.7409709886
 20
50.0374552917
 10
24.7435632761
 20
50.049871676
 10
24.7459639431
 20
50.0622275437
 10
24.7481763945
 20
50.0745178364
 10
24.750204846
 20
50.0867376127
 10
24.7520537135
 20
50.0988812943
 10
24.7537274765
 20
50.1109430755
 10
24.7552306963
 20
50.1229169242
 10
24.7565680334
 20
50.1347965775
 10
24.7577442632
 20
50.1465755438
 10
24.7587642484
 20
50.158246566
 10
24.7596314022
 20
50.1697787309
 10
24.760351173
 20
50.181153928
 10
24.7609310314
 20
50.1923840784
 10
24.7613776801
 20
50.2034802804
 10
24.7616971493
 20
50.2144529814
 10
24.7618948684
 20
50.2253116442
 10
24.7619757539
 20
50.2360644459
 10
24.7619443121
 20
50.2467180078
 10
24.7618047513
 20
50.257277183
 10
24.7615611016
 20
50.2677448781
 10
24.7612172802
 20
50.2781234675
 10
24.7607810003
 20
50.2883353191
 10
24.7602740926
 20
50.2981215525
 10
24.7597096118
 20
50.3075055557
 10
24.7590856711
 20
50.3167028796
 10
24.7584006241
 20
50.3258481335
 10
24.7576599609
 20
50.3349628169
 10
24.7568816469
 20
50.34394711
 10
24.7546425291
 20
50.3683832681
  0
LWPOLYLINE
  5
245
100
AcDbEntity
  8
0
100
AcDbPolyline
 62
7
  6
BYLAYER
 90
3
 70
0
 10
24.4108035785
 20
49.5165955446
 10
24.4229622679
 20
49.5260579533
 10
24.4349363395
 20
49.5357110011
  0
LWPOLYLINE
  5
246
100
AcDbEntity
  8
0
100
AcDbPolyline
 62
7
  6
BYLAYER
 90
6
 70
0
 10
24.3583885692
 20
49.4793944307
 10
24.3769768029
 20
49.4919555037
 10
24.3957624346
 20
49.5053429713
 10
24.4146793117
 20
49.5195755471
 10
24.4336618234
 20
49.5346711174
 10
24.4526446388
 20
49.5506466516
  0
LWPOLYLINE
  5
247
100
AcDbEntity
  8
0
100
AcDbPolyline
 62
7
  6
BYLAYER
 90
12
 70
0
 10
24.3966929077
 20
49.5241875388
 10
24.2501848649
 20
49.4390095445
 10
24.0951158162
 20
49.3862565682
 10
23.9391810783
 20
49.3650576776
 10
23.7904681938
 20
49.3721193911
 10
23.654548762
 20
49.4026246557
 10
23.5475483006
 20
49.4445755226
 10
23.5012966293
 20
49.4685398833
 10
23.4930490615
 20
49.4733221195
 10
23.5030104587
 20
49.4671161406
 10
23.5232839742
 20
49.4541840152
 10
23.5503348289
 20
49.4366482007
  0
LWPOLYLINE
  5
248
100
AcDbEntity
  8
0
100
AcDbPolyline
 62
7
  6
BYLAYER
 90
4
 70
0
 10
15.8929219949
 20
42.4862724532
 10
15.9079984818
 20
42.4822728038
 10
15.9213805144
 20
42.4785393341
 10
15.9548326334
 20
42.4689373005
  0
LWPOLYLINE
  5
249
100
AcDbEntity
  8
0
100
AcDbPolyline
 62
7
  6
BYLAYER
 90
4
 70
0
 10
16.456685588
 20
44.1974418477
 10
16.4107662139
 20
44.2106165487
 10
16.3790828529
 20
44.219419391
 10
16.3795810542
 20
44.2191186233
  0
LINE
  5
24A
100
AcDbEntity
  8
0
100
AcDbLine
 62
7
  6
BYLAYER
 10
16.3959159715
 20
44.2142764151
 11
16.3795810542
 21
44.2191186233
  0
LINE
  5
24B
100
AcDbEntity
  8
0
100
AcDbLine
 62
7
  6
BYLAYER
 10
12.4067180328
 20
45.7813178331
 11
12.3701813546
 21
45.7941695583
  0
LINE
  5
24C
100
AcDbEntity
  8
0
100
AcDbLine
 62
7
  6
BYLAYER
 10
26.8894439993
 20
45.9746010827
 11
26.9044165766
 21
45.9273043444
  0
LINE
  5
24D
100
AcDbEntity
  8
0
100
AcDbLine
 62
7
  6
BYLAYER
 10
28.4941950173
 20
48.7110911149
 11
28.4947992018
 21
48.7159188088
  0
LINE
  5
24E
100
AcDbEntity
  8
0
100
AcDbLine
 62
7
  6
BYLAYER
 10
28.4947992018
 20
48.7159188088
 11
28.4970681536
 21
48.7320878121
  0
LINE
  5
24F
100
AcDbEntity
  8
0
100
AcDbLine
 62
7
  6
BYLAYER
 10
28.4967967554
 20
48.7302607933
 11
28.5001341948
 21
48.7514908569
  0
LWPOLYLINE
  5
250
100
AcDbEntity
  8
0
100
AcDbPolyline
 62
7
  6
BYLAYER
 90
3
 70
0
 10
28.4994911367
 20
48.7475769356
 10
28.503882212
 20
48.7731568282
 10
28.5081662038
 20
48.7961920704
  0
LWPOLYLINE
  5
251
100
AcDbEntity
  8
0
100
AcDbPolyline
 62
7
  6
BYLAYER
 90
3
 70
0
 10
28.5026396255
 20
48.7661620221
 10
28.5059632502
 20
48.7845351925
 10
28.5095172756
 20
48.8031708469
  0
LINE
  5
252
100
AcDbEntity
  8
0
100
AcDbLine
 62
7
  6
BYLAYER
 10
28.5081662038
 20
48.7961920704
 11
28.5135127452
 21
48.8231594015
  0
LINE
  5
253
100
AcDbEntity
  8
0
100
AcDbLine
 62
7
  6
BYLAYER
 10
28.5126821204
 20
48.8190778963
 11
28.5179148335
 21
48.8442040542
  0
LWPOLYLINE
  5
254
100
AcDbEntity
  8
0
100
AcDbPolyline
 62
7
  6
BYLAYER
 90
4
 70
0
 10
28.517560054
 20
48.8425432075
 10
28.5233417404
 20
48.86885144
 10
28.5298149453
 20
48.8962226234
 10
28.5370768054
 20
48.9236434958
  0
LINE
  5
255
100
AcDbEntity
  8
0
100
AcDbLine
 62
7
  6
BYLAYER
 10
28.5231297776
 20
48.8679160965
 11
28.5338870929
 21
48.9120782479
  0
LWPOLYLINE
  5
256
100
AcDbEntity
  8
0
100
AcDbPolyline
 62
7
  6
BYLAYER
 90
18
 70
0
 10
24.125741793
 20
49.3671125897
 10
24.1342435577
 20
49.3700613556
 10
24.1435570673
 20
49.3733605392
 10
24.1535695616
 20
49.3769971744
 10
24.1641926945
 20
49.3809664444
 10
24.1754158446
 20
49.3852925506
 10
24.1870862965
 20
49.3899428577
 10
24.1993076057
 20
49.3949840557
 10
24.2122185112
 20
49.4005063352
 10
24.2258950943
 20
49.4065838343
 10
24.2402851922
 20
49.4132401632
 10
24.2553244901
 20
49.4204941421
 10
24.2710056378
 20
49.4283938171
 10
24.2873396495
 20
49.4370021111
 10
24.3043303387
 20
49.4463854961
 10
24.3219167246
 20
49.4565800761
 10
24.3399762631
 20
49.467585037
 10
24.3583885692
 20
49.4793944307
  0
LINE
  5
257
100
AcDbEntity
  8
0
100
AcDbLine
 62
7
  6
BYLAYER
 10
24.1107704358
 20
49.3620362946
 11
24.125741793
 21
49.3671125897
  0
LINE
  5
258
100
AcDbEntity
  8
0
100
AcDbLine
 62
7
  6
BYLAYER
 10
24.0925585674
 20
49.3559385566
 11
24.1107704358
 21
49.3620362946
  0
LWPOLYLINE
  5
259
100
AcDbEntity
  8
0
100
AcDbPolyline
 62
7
  6
BYLAYER
 90
3
 70
0
 10
12.232351232
 20
47.6419346721
 10
12.2322552067
 20
47.6419070558
 10
12.2546380121
 20
47.6456079779
  0
LINE
  5
25A
100
AcDbEntity
  8
0
100
AcDbLine
 62
7
  6
BYLAYER
 10
7.4057583804
 20
39.8331897862
 11
37.4057583804
 21
39.8331897862
  0
LINE
  5
25B
100
AcDbEntity
  8
0
100
AcDbLine
 62
7
  6
BYLAYER
 10
37.3565158982
 20
41.4331897862
 11
37.4057583804
 21
41.4331897862
  0
LWPOLYLINE
  5
25C
100
AcDbEntity
  8
0
100
AcDbPolyline
 62
7
  6
BYLAYER
 90
6
 70
0
 10
27.1546111599
 20
45.5590156387
 10
27.0891849552
 20
45.6389473717
 10
27.0265553789
 20
45.7257987143
 10
26.9698609731
 20
45.8151896057
 10
26.9213674511
 20
45.9042136204
 10
26.8861987114
 20
45.9845654633
  0
LWPOLYLINE
  5
25D
100
AcDbEntity
  8
0
100
AcDbPolyline
 62
7
  6
BYLAYER
 90
12
 70
0
 10
26.9194839115
 20
45.8817682738
 10
26.9221911998
 20
45.8739535584
 10
26.9249738338
 20
45.8660476774
 10
26.927841979
 20
45.8580341473
 10
26.9307935855
 20
45.8499312222
 10
26.9338252727
 20
45.8417598327
 10
26.9369385228
 20
45.8335269666
 10
26.9401351873
 20
45.8252384199
 10
26.9434174899
 20
45.8168988877
 10
26.9467879727
 20
45.8085121614
 10
26.9502492769
 20
45.8000813017
 10
26.9538041394
 20
45.7916088048
  0
LINE
  5
25E
100
AcDbEntity
  8
0
100
AcDbLine
 62
7
  6
BYLAYER
 10
26.9142598522
 20
45.8971815003
 11
26.9194839115
 21
45.8817682738
  0
LWPOLYLINE
  5
25F
100
AcDbEntity
  8
0
100
AcDbPolyline
 62
7
  6
BYLAYER
 90
3
 70
0
 10
26.8860835755
 20
45.9848954447
 10
26.8882371216
 20
45.9783568705
 10
26.8894439993
 20
45.9746010827
  0
LINE
  5
260
100
AcDbEntity
  8
0
100
AcDbLine
 62
7
  6
BYLAYER
 10
26.9092461982
 20
45.9123632457
 11
26.9142598522
 21
45.8971815003
  0
LINE
  5
261
100
AcDbEntity
  8
0
100
AcDbLine
 62
7
  6
BYLAYER
 10
26.9044165766
 20
45.9273043444
 11
26.9092461982
 21
45.9123632457
  0
LINE
  5
262
100
AcDbEntity
  8
0
100
AcDbLine
 62
7
  6
BYLAYER
 10
25.4057583804
 20
42.5831897862
 11
19.4057583804
 21
42.5831897862
  0
LINE
  5
263
100
AcDbEntity
  8
0
100
AcDbLine
 62
7
  6
BYLAYER
 10
28.8704770062
 20
43.0331897862
 11
32.9057583804
 21
43.0331897862
  0
LINE
  5
264
100
AcDbEntity
  8
0
100
AcDbLine
 62
7
  6
BYLAYER
 10
32.9057583804
 20
43.0331897862
 11
37.3565158982
 21
43.0331897862
  0
LINE
  5
265
100
AcDbEntity
  8
0
100
AcDbLine
 62
7
  6
BYLAYER
 10
37.3565158982
 20
43.0331897862
 11
57.6231779917
 21
43.0331897862
  0
LWPOLYLINE
  5
266
100
AcDbEntity
  8
0
100
AcDbPolyline
 62
7
  6
BYLAYER
 90
6
 70
0
 10
16.3795810542
 20
44.2191186233
 10
15.998201706
 20
44.2419611325
 10
15.6405414195
 20
44.1037824829
 10
15.3725896203
 20
43.8288592932
 10
15.2436816802
 20
43.4679369419
 10
15.2761042471
 20
43.0878812417
  0
LWPOLYLINE
  5
267
100
AcDbEntity
  8
0
100
AcDbPolyline
 62
7
  6
BYLAYER
 90
6
 70
0
 10
12.3461645945
 20
45.8023297682
 10
11.9599726714
 20
45.8473847463
 10
11.5908538139
 20
45.7253589749
 10
11.3078466622
 20
45.4593521013
 10
11.1634206833
 20
45.099684657
 10
11.1832941957
 20
44.7139423681
  0
LWPOLYLINE
  5
268
100
AcDbEntity
  8
0
100
AcDbPolyline
 62
7
  6
BYLAYER
 90
14
 70
0
 10
24.2245446858
 20
44.206136713
 10
24.1226798297
 20
44.2305563401
 10
24.0409454191
 20
44.247893769
 10
23.9594098069
 20
44.2612959958
 10
23.8409673359
 20
44.2693773645
 10
23.6932399609
 20
44.2578981496
 10
23.529846152
 20
44.2157527721
 10
23.3662318982
 20
44.1372023729
 10
23.2153450527
 20
44.0216009096
 10
23.0873950913
 20
43.8697611917
 10
22.9927413318
 20
43.6857151793
 10
22.941663723
 20
43.4765843381
 10
22.9427058503
 20
43.2531001981
 10
23.0018087822
 20
43.0290652314
  0
LWPOLYLINE
  5
269
100
AcDbEntity
  8
0
100
AcDbPolyline
 62
7
  6
BYLAYER
 90
8
 70
0
 10
27.3101809981
 20
45.3951803849
 10
27.327747662
 20
45.3878031959
 10
27.3461040615
 20
45.3808872846
 10
27.3649721025
 20
45.3745973614
 10
27.3837228053
 20
45.3691426066
 10
27.4012471316
 20
45.3647367894
 10
27.4163918077
 20
45.361444157
 10
27.4294588297
 20
45.3589529967
  0
LWPOLYLINE
  5
26A
100
AcDbEntity
  8
0
100
AcDbPolyline
 62
7
  6
BYLAYER
 90
4
 70
0
 10
27.2662830671
 20
45.4169912333
 10
27.2794816001
 20
45.4099131363
 10
27.2942312717
 20
45.4025375029
 10
27.3101824901
 20
45.3951797263
  0
LINE
  5
26B
100
AcDbEntity
  8
0
100
AcDbLine
 62
7
  6
BYLAYER
 10
32.4057583804
 20
53.6331897862
 11
32.4057583804
 21
50.3992503422
  0
LINE
  5
26C
100
AcDbEntity
  8
0
100
AcDbLine
 62
7
  6
BYLAYER
 10
32.4057583804
 20
43.0671292302
 11
32.4057583804
 21
39.8331897862
  0
LWPOLYLINE
  5
26D
100
AcDbEntity
  8
0
100
AcDbPolyline
 62
7
  6
BYLAYER
 90
7
 70
0
 10
27.1233850283
 20
45.0541080672
 10
27.2475150817
 20
45.1519579725
 10
27.3667828555
 20
45.240523219
 10
27.4767921787
 20
45.31366095
 10
27.5563050582
 20
45.3569119324
 10
27.5645910259
 20
45.36111907
 10
27.5094741319
 20
45.3545171316
  0
LWPOLYLINE
  5
26E
100
AcDbEntity
  8
0
100
AcDbPolyline
 62
7
  6
BYLAYER
 90
12
 70
0
 10
24.6694685728
 20
45.5114248712
 10
23.738243038
 20
45.0972381223
 10
22.6108340006
 20
44.7772458048
 10
21.2562250704
 20
44.5735441565
 10
19.6249873598
 20
44.5148217627
 10
17.5943228557
 20
44.6515213606
 10
15.7998845702
 20
44.9245372912
 10
14.4092792123
 20
45.2210407217
 10
13.3817332245
 20
45.4865569923
 10
12.7262987589
 20
45.6788682818
 10
12.41703762
 20
45.7779794382
 10
12.3461645945
 20
45.8023297682
  0
LINE
  5
26F
100
AcDbEntity
  8
0
100
AcDbLine
 62
7
  6
BYLAYER
 10
28.4611928296
 20
43.9695120079
 11
28.5319035077
 21
43.9695120079
  0
LINE
  5
270
100
AcDbEntity
  8
0
100
AcDbLine
 62
7
  6
BYLAYER
 10
29.7497663281
 20
44.4646869019
 11
29.8204770062
 21
44.4646869019
  0
LWPOLYLINE
  5
271
100
AcDbEntity
  8
0
100
AcDbPolyline
 62
7
  6
BYLAYER
 90
5
 70
0
 10
27.4375811278
 20
45.358718854
 10
27.3892825026
 20
45.3707515084
 10
27.3231163579
 20
45.4053173661
 10
27.2470197131
 20
45.4645871437
 10
27.1546359237
 20
45.5589873622
  0
LINE
  5
272
100
AcDbEntity
  8
0
100
AcDbLine
 62
7
  6
BYLAYER
 10
25.1167398404
 20
50.4295498184
 11
24.787640103
 21
50.6355850695
  0
LINE
  5
273
100
AcDbEntity
  8
0
100
AcDbLine
 62
7
  6
BYLAYER
 10
24.787640103
 20
50.6355850695
 11
24.3963853561
 21
50.8835686635
  0
LWPOLYLINE
  5
274
100
AcDbEntity
  8
0
100
AcDbPolyline
 62
7
  6
BYLAYER
 90
15
 70
0
 10
24.4883768442
 20
50.8111560259
 10
24.4374158552
 20
50.8478022914
 10
24.4243627742
 20
50.857365015
 10
24.4267450771
 20
50.8554975527
 10
24.4634793337
 20
50.8247440339
 10
24.5375704658
 20
50.7495848873
 10
24.6122067697
 20
50.6491605325
 10
24.6755082644
 20
50.5282041807
 10
24.7200133024
 20
50.3917295534
 10
24.7407124446
 20
50.2447604404
 10
24.7345323432
 20
50.0909994973
 10
24.6982805557
 20
49.9351355512
 10
24.6297111099
 20
49.7829992062
 10
24.5272224211
 20
49.6418868157
 10
24.3910786469
 20
49.5201444247
  0
LWPOLYLINE
  5
275
100
AcDbEntity
  8
0
100
AcDbPolyline
 62
7
  6
BYLAYER
 90
6
 70
0
 10
27.8421236208
 20
43.618528368
 10
28.0318396119
 20
43.7494340441
 10
28.212987599
 20
43.8656415003
 10
28.3791050492
 20
43.956581309
 10
28.4749362267
 20
43.9942907835
 10
28.4630509339
 20
43.994541568
  0
LWPOLYLINE
  5
276
100
AcDbEntity
  8
0
100
AcDbPolyline
 62
7
  6
BYLAYER
 90
7
 70
0
 10
28.2458351986
 20
43.8457858198
 10
28.5575076959
 20
44.0200790857
 10
28.8542733508
 20
44.1764342495
 10
29.1386043354
 20
44.3112773159
 10
29.409188528
 20
44.4174684761
 10
29.632875741
 20
44.4774745062
 10
29.7506001457
 20
44.4897256
  0
LWPOLYLINE
  5
277
100
AcDbEntity
  8
0
100
AcDbPolyline
 62
7
  6
BYLAYER
 90
3
 70
0
 10
27.1551613344
 20
43.224881177
 10
27.5282032059
 20
43.4331196303
 10
28.2458351986
 20
43.8457858198
  0
LWPOLYLINE
  5
278
100
AcDbEntity
  8
0
100
AcDbPolyline
 62
7
  6
BYLAYER
 90
4
 70
0
 10
28.1427132216
 20
45.7636055046
 10
27.57497112
 20
45.5670235195
 10
26.9972277814
 20
45.2226236547
 10
26.3654799341
 20
44.7795095698
  0
LWPOLYLINE
  5
279
100
AcDbEntity
  8
0
100
AcDbPolyline
 62
7
  6
BYLAYER
 90
22
 70
0
 10
24.3013457443
 20
43.8478288837
 10
23.4986721208
 20
43.6827355065
 10
22.7679680083
 20
43.5910316079
 10
22.097292045
 20
43.5467195189
 10
21.4794449172
 20
43.5346511625
 10
20.9082308417
 20
43.5451256925
 10
20.3783025672
 20
43.5716769151
 10
19.8857489882
 20
43.6097756782
 10
19.4275468615
 20
43.6561388774
 10
19.0014381368
 20
43.7082719674
 10
18.6059537308
 20
43.7641881046
 10
18.2404034674
 20
43.8221976311
 10
17.9047887897
 20
43.8807852293
 10
17.6000262923
 20
43.9384564172
 10
17.3274980531
 20
43.993730418
 10
17.0895380718
 20
44.0449932655
 10
16.8885818078
 20
44.0906266685
 10
16.725293988
 20
44.129456357
 10
16.5985610686
 20
44.1608400268
 10
16.5055255755
 20
44.1847222871
 10
16.4428015298
 20
44.2013583038
 10
16.4066457151
 20
44.2112527942
  0
LWPOLYLINE
  5
27A
100
AcDbEntity
  8
0
100
AcDbPolyline
 62
7
  6
BYLAYER
 90
26
 70
0
 10
29.7494540164
 20
46.2896485267
 10
28.9961049815
 20
46.1738725154
 10
28.2771342987
 20
45.896995426
 10
27.6978967279
 20
45.6015538106
 10
27.2270814227
 20
45.3366940809
 10
26.8199841574
 20
45.1018329214
 10
26.4550457093
 20
44.8943722098
 10
26.1182405857
 20
44.711409132
 10
25.8009996082
 20
44.551863757
 10
25.4970502162
 20
44.4161578315
 10
25.2047839797
 20
44.3079042209
 10
24.9325322967
 20
44.2347850428
 10
24.7109859518
 20
44.2028413131
 10
24.5351014461
 20
44.1948489678
 10
24.3937482453
 20
44.1977724782
 10
24.2809868711
 20
44.2057221093
 10
24.1930958282
 20
44.2154789684
 10
24.1286459874
 20
44.2249024776
 10
24.0880485324
 20
44.2321669031
 10
24.0756675338
 20
44.2347411935
 10
24.1100805596
 20
44.2250791549
 10
24.2120282995
 20
44.1858879482
 10
24.3400834506
 20
44.1137186829
 10
24.4679998817
 20
44.0087799038
 10
24.5811949629
 20
43.8722100923
 10
24.668557358
 20
43.7087006577
  0
LWPOLYLINE
  5
27B
100
AcDbEntity
  8
0
100
AcDbPolyline
 62
7
  6
BYLAYER
 90
4
 70
0
 10
26.5273110879
 20
45.5739464875
 10
27.1585742334
 20
45.5967708881
 10
27.733627854
 20
45.6147186861
 10
28.2297626989
 20
45.6264877017
  0
LWPOLYLINE
  5
27C
100
AcDbEntity
  8
0
100
AcDbPolyline
 62
7
  6
BYLAYER
 90
4
 70
0
 10
21.4557583797
 20
45.4331914963
 10
22.3757684403
 20
45.4403993983
 10
23.4491464706
 20
45.4635622503
 10
24.6838108234
 20
45.5034169985
  0
LINE
  5
27D
100
AcDbEntity
  8
0
100
AcDbLine
 62
7
  6
BYLAYER
 10
27.4996248027
 20
45.3293745528
 11
27.5703354808
 21
45.3293745528
  0
LINE
  5
27E
100
AcDbEntity
  8
0
100
AcDbLine
 62
7
  6
BYLAYER
 10
21.4557583797
 20
45.4331850238
 11
18.4557583804
 21
45.4331850238
  0
LINE
  5
27F
100
AcDbEntity
  8
0
100
AcDbLine
 62
7
  6
BYLAYER
 10
30.103756121
 20
46.3067307635
 11
30.1744667991
 21
46.3067307635
  0
LINE
  5
280
100
AcDbEntity
  8
0
100
AcDbLine
 62
7
  6
BYLAYER
 10
29.7497663281
 20
46.3146869019
 11
29.8204770062
 21
46.3146869019
  0
LINE
  5
281
100
AcDbEntity
  8
0
100
AcDbLine
 62
7
  6
BYLAYER
 10
27.3806415006
 20
47.2185676237
 11
27.8501335581
 21
47.1767160517
  0
LWPOLYLINE
  5
282
100
AcDbEntity
  8
0
100
AcDbPolyline
 62
7
  6
BYLAYER
 90
4
 70
0
 10
27.8959114521
 20
47.9920262424
 10
28.0720878092
 20
47.9197906557
 10
28.2570790542
 20
47.8478526349
 10
28.450756071
 20
47.7813776541
  0
LWPOLYLINE
  5
283
100
AcDbEntity
  8
0
100
AcDbPolyline
 62
7
  6
BYLAYER
 90
27
 70
0
 10
28.1607221231
 20
49.864273646
 10
27.6741853266
 20
50.1200424113
 10
27.4186811551
 20
50.2514519036
 10
27.153468311
 20
50.3820577392
 10
26.8746034306
 20
50.5107161519
 10
26.5776442436
 20
50.6358948284
 10
26.2652143658
 20
50.7543953973
 10
25.9360530757
 20
50.8660768749
 10
25.5880479022
 20
50.9709283146
 10
25.2203522981
 20
51.0683990697
 10
24.8319333547
 20
51.1579488812
 10
24.4212904455
 20
51.2390578326
 10
23.9868591092
 20
51.3111026531
 10
23.5265185473
 20
51.3734192648
 10
23.0380548103
 20
51.4251811196
 10
22.5188052397
 20
51.4654030671
 10
21.9644830589
 20
51.4929583052
 10
21.3708446024
 20
51.5063140646
 10
20.7340796861
 20
51.5035499908
 10
20.0499612468
 20
51.4823506255
 10
19.3011248998
 20
51.4389795149
 10
18.4876086983
 20
51.3693276574
 10
17.6792158429
 20
51.2776396862
 10
17.0020112769
 20
51.1834148012
 10
16.5016885662
 20
51.1027607783
 10
16.1722262967
 20
51.0435111535
 10
15.9995674097
 20
51.0096772861
  0
LWPOLYLINE
  5
284
100
AcDbEntity
  8
0
100
AcDbPolyline
 62
7
  6
BYLAYER
 90
9
 70
0
 10
26.9155088202
 20
49.3727765787
 10
26.6390518504
 20
49.5265145146
 10
26.3809585018
 20
49.6731745985
 10
26.1388674991
 20
49.8133112497
 10
25.9110396553
 20
49.9473358518
 10
25.6957800369
 20
50.0757870599
 10
25.4921702571
 20
50.1988471282
 10
25.2991782093
 20
50.3168407527
 10
25.1167398404
 20
50.4295498184
  0
LWPOLYLINE
  5
285
100
AcDbEntity
  8
0
100
AcDbPolyline
 62
7
  6
BYLAYER
 90
10
 70
0
 10
24.3963853561
 20
50.8835686635
 10
24.3557939003
 20
50.9086023446
 10
24.3116493351
 20
50.9341079476
 10
24.2300836868
 20
50.9734894914
 10
24.1169708397
 20
51.0118882101
 10
23.9824121243
 20
51.035641778
 10
23.8370863245
 20
51.0365206976
 10
23.6893910088
 20
51.0112010613
 10
23.5453162259
 20
50.9583317882
 10
23.4121276981
 20
50.8793383153
  0
LINE
  5
286
100
AcDbEntity
  8
0
100
AcDbLine
 62
7
  6
BYLAYER
 10
35.7057583804
 20
50.4331897862
 11
35.7057583804
 21
43.0331897862
  0
LWPOLYLINE
  5
287
100
AcDbEntity
  8
0
100
AcDbPolyline
 62
7
  6
BYLAYER
 90
3
 70
0
 10
27.4993398518
 20
47.1543334231
 10
27.1780352138
 20
47.1190557765
 10
26.8451175964
 20
47.0103957978
  0
LWPOLYLINE
  5
288
100
AcDbEntity
  8
0
100
AcDbPolyline
 62
7
  6
BYLAYER
 90
5
 70
0
 10
25.4485142508
 20
47.7338301414
 10
24.3925307283
 20
47.6944215325
 10
23.2573812862
 20
47.6592091786
 10
22.293398673
 20
47.6394278122
 10
21.4557583812
 20
47.633188076
  0
LWPOLYLINE
  5
289
100
AcDbEntity
  8
0
100
AcDbPolyline
 62
7
  6
BYLAYER
 90
4
 70
0
 10
28.5733703055
 20
47.8316945647
 10
28.1543700498
 20
47.8254304115
 10
27.6738494159
 20
47.813897811
 10
27.1265676105
 20
47.7969400395
  0
LINE
  5
28A
100
AcDbEntity
  8
0
100
AcDbLine
 62
7
  6
BYLAYER
 10
27.8497663281
 20
47.1516926704
 11
27.9204770062
 21
47.1516926704
  0
LINE
  5
28B
100
AcDbEntity
  8
0
100
AcDbLine
 62
7
  6
BYLAYER
 10
27.4996248027
 20
47.1793745528
 11
27.5703354808
 21
47.1793745528
  0
LINE
  5
28C
100
AcDbEntity
  8
0
100
AcDbLine
 62
7
  6
BYLAYER
 10
21.4557583811
 20
47.6331945486
 11
18.4557583804
 21
47.6331945486
  0
LINE
  5
28D
100
AcDbEntity
  8
0
100
AcDbLine
 62
7
  6
BYLAYER
 10
30.103756121
 20
48.074462976
 11
30.1744667991
 21
48.074462976
  0
LWPOLYLINE
  5
28E
100
AcDbEntity
  8
0
100
AcDbPolyline
 62
7
  6
BYLAYER
 90
5
 70
0
 10
11.9389097367
 20
49.4178149295
 10
12.3591169286
 20
49.3872639327
 10
12.720820139
 20
49.1674061462
 10
12.9419929246
 20
48.8066677596
 10
12.9742504912
 20
48.3871584805
  0
LWPOLYLINE
  5
28F
100
AcDbEntity
  8
0
100
AcDbPolyline
 62
7
  6
BYLAYER
 90
4
 70
0
 10
27.850275974
 20
48.9766697731
 10
27.7283241401
 20
48.9864089507
 10
27.5205170128
 20
49.0241790919
 10
27.2699195056
 20
49.0853705225
  0
LWPOLYLINE
  5
290
100
AcDbEntity
  8
0
100
AcDbPolyline
 62
7
  6
BYLAYER
 90
7
 70
0
 10
30.0966067032
 20
48.0905150704
 10
29.8796978494
 20
48.1102778292
 10
29.515954341
 20
48.1953080394
 10
29.0806460085
 20
48.3403801681
 10
28.5870319157
 20
48.5397768101
 10
28.1348737397
 20
48.7451368306
 10
27.7447826953
 20
48.9356892542
  0
LINE
  5
291
100
AcDbEntity
  8
0
100
AcDbLine
 62
7
  6
BYLAYER
 10
37.3565158982
 20
41.4331897862
 11
37.3565158982
 21
43.0331897862
  0
LINE
  5
292
100
AcDbEntity
  8
0
100
AcDbLine
 62
7
  6
BYLAYER
 10
37.3565158982
 20
50.4331897862
 11
37.3565158982
 21
52.0331897862
  0
LINE
  5
293
100
AcDbEntity
  8
0
100
AcDbLine
 62
7
  6
BYLAYER
 10
37.4057583804
 20
39.8331897862
 11
37.4057583804
 21
41.4331897862
  0
LINE
  5
294
100
AcDbEntity
  8
0
100
AcDbLine
 62
7
  6
BYLAYER
 10
37.4057583804
 20
52.0331897862
 11
37.4057583804
 21
53.6331897862
  0
LINE
  5
295
100
AcDbEntity
  8
0
100
AcDbLine
 62
7
  6
BYLAYER
 10
27.8497663281
 20
49.0016926704
 11
27.9204770062
 21
49.0016926704
  0
LINE
  5
296
100
AcDbEntity
  8
0
100
AcDbLine
 62
7
  6
BYLAYER
 10
29.1232019786
 20
49.5023098365
 11
29.1939126568
 21
49.5023098365
  0
LINE
  5
297
100
AcDbEntity
  8
0
100
AcDbLine
 62
7
  6
BYLAYER
 10
37.3565158982
 20
50.4331897862
 11
32.9057583804
 21
50.4331897862
  0
LINE
  5
298
100
AcDbEntity
  8
0
100
AcDbLine
 62
7
  6
BYLAYER
 10
28.8704770062
 20
50.4331897862
 11
32.9057583804
 21
50.4331897862
  0
LINE
  5
299
100
AcDbEntity
  8
0
100
AcDbLine
 62
7
  6
BYLAYER
 10
37.3565158982
 20
50.4331897862
 11
57.6231779917
 21
50.4331897862
  0
LWPOLYLINE
  5
29A
100
AcDbEntity
  8
0
100
AcDbPolyline
 62
7
  6
BYLAYER
 90
6
 70
0
 10
29.1241400693
 20
49.4772521275
 10
29.0477563883
 20
49.4860341011
 10
28.8641115679
 20
49.5381523234
 10
28.6337741808
 20
49.6313596137
 10
28.3960696946
 20
49.7441148878
 10
28.1607221231
 20
49.864273646
  0
LWPOLYLINE
  5
29B
100
AcDbEntity
  8
0
100
AcDbPolyline
 62
7
  6
BYLAYER
 90
12
 70
0
 10
12.232351232
 20
47.6419346721
 10
12.3662885856
 20
47.6631714473
 10
12.76344251
 20
47.721840991
 10
13.4356272954
 20
47.8123345769
 10
14.3903116268
 20
47.9257583715
 10
15.5664206879
 20
48.0432893068
 10
16.9657879387
 20
48.1512870014
 10
18.6234438686
 20
48.2311141284
 10
20.6458743841
 20
48.2462537511
 10
22.538571285
 20
48.1567628972
 10
24.1059323278
 20
47.979288991
 10
25.4297436608
 20
47.7246356137
  0
LINE
  5
29C
100
AcDbEntity
  8
0
100
AcDbLine
 62
7
  6
BYLAYER
 10
18.2232417169
 20
49.5327711321
 11
18.4023366725
 21
49.5548111755
  0
LWPOLYLINE
  5
29D
100
AcDbEntity
  8
0
100
AcDbPolyline
 62
7
  6
BYLAYER
 90
3
 70
0
 10
17.5830338817
 20
49.4536709825
 10
17.7324633236
 20
49.4708848516
 10
18.2232417169
 20
49.5327711321
  0
LWPOLYLINE
  5
29E
100
AcDbEntity
  8
0
100
AcDbPolyline
 62
7
  6
BYLAYER
 90
9
 70
0
 10
18.2868468891
 20
50.0206290814
 10
17.3783395695
 20
49.9789501149
 10
16.3813764236
 20
49.9153344324
 10
15.2190081271
 20
49.8189932216
 10
14.091931809
 20
49.7036127117
 10
13.1647984351
 20
49.5922836951
 10
12.4955177639
 20
49.5017907006
 10
12.0852182775
 20
49.441053739
 10
11.9389097367
 20
49.4178149295
  0
LINE
  5
29F
100
AcDbEntity
  8
0
100
AcDbLine
 62
7
  6
BYLAYER
 10
37.4057583804
 20
52.0331897862
 11
37.3565158982
 21
52.0331897862
  0
LWPOLYLINE
  5
2A0
100
AcDbEntity
  8
0
100
AcDbPolyline
 62
7
  6
BYLAYER
 90
5
 70
0
 10
15.9539500536
 20
50.9999578814
 10
16.351696115
 20
50.9937457204
 10
16.7386803317
 20
50.7904210038
 10
16.9882780749
 20
50.4175571507
 10
17.0294763786
 20
49.987303625
  0
LINE
  5
2A1
100
AcDbEntity
  8
0
100
AcDbLine
 62
7
  6
BYLAYER
 10
11.9568790839
 20
49.4207716506
 11
11.9429729811
 21
49.4184674797
  0
LINE
  5
2A2
100
AcDbEntity
  8
0
100
AcDbLine
 62
7
  6
BYLAYER
 10
7.4057583804
 20
53.6331897862
 11
37.4057583804
 21
53.6331897862
  0
LINE
  5
2A3
100
AcDbEntity
  8
0
100
AcDbLine
 62
7
  6
BYLAYER
 10
16.0141394032
 20
51.0125490314
 11
15.9539500536
 21
50.9999578814
  0
LWPOLYLINE
  5
2A4
100
AcDbEntity
  8
0
100
AcDbPolyline
 62
7
  6
BYLAYER
 90
3
 70
0
 10
15.9810621511
 20
51.0054436602
 10
15.9674405106
 20
51.0026090607
 10
15.9539500536
 20
50.9999578814
  0
ARC
  5
2A5
100
AcDbEntity
  8
0
100
AcDbCircle
 62
7
  6
BYLAYER
 10
28.8089275757
 20
72.7884911627
 40
24.9587822587
100
AcDbArc
 50
269.8370168876
 51
269.9995665778
  0
ARC
  5
2A6
100
AcDbEntity
  8
0
100
AcDbCircle
 62
7
  6
BYLAYER
 10
29.2881119526
 20
36.8501674656
 40
10.8116266581
100
AcDbArc
 50
90.0041195023
 51
90.3852311691
  0
ARC
  5
2A7
100
AcDbEntity
  8
0
100
AcDbCircle
 62
7
  6
BYLAYER
 10
28.4459129469
 20
40.2160001201
 40
5.5955022648
100
AcDbArc
 50
89.9989845682
 51
90.7487669811
  0
ARC
  5
2A8
100
AcDbEntity
  8
0
100
AcDbCircle
 62
7
  6
BYLAYER
 10
32.9057583804
 20
46.7331897862
 40
3.7
100
AcDbArc
 50
90.0
 51
270.0
  0
ARC
  5
2A9
100
AcDbEntity
  8
0
100
AcDbCircle
 62
7
  6
BYLAYER
 10
22.4057583804
 20
46.7331897862
 40
3.0
100
AcDbArc
 50
0.0
 51
180.0
  0
ARC
  5
2AA
100
AcDbEntity
  8
0
100
AcDbCircle
 62
7
  6
BYLAYER
 10
29.5666396736
 20
43.3701392145
 40
2.8719223693
100
AcDbArc
 50
90.0042268633
 51
91.4455377295
  0
ARC
  5
2AB
100
AcDbEntity
  8
0
100
AcDbCircle
 62
7
  6
BYLAYER
 10
29.2170531514
 20
47.7017931907
 40
1.9528801861
100
AcDbArc
 50
267.9560404318
 51
270.0201760166
  0
ARC
  5
2AC
100
AcDbEntity
  8
0
100
AcDbCircle
 62
7
  6
BYLAYER
 10
28.0247363232
 20
46.7336204744
 40
1.5516707595
100
AcDbArc
 50
358.3242202195
 51
359.3655993745
  0
ARC
  5
2AD
100
AcDbEntity
  8
0
100
AcDbCircle
 62
7
  6
BYLAYER
 10
29.5531940303
 20
46.731865986
 40
1.5362412203
100
AcDbArc
 50
176.8556190282
 51
178.3108159165
  0
ARC
  5
2AE
100
AcDbEntity
  8
0
100
AcDbCircle
 62
7
  6
BYLAYER
 10
29.3456572552
 20
46.7804222076
 40
1.3225616867
100
AcDbArc
 50
158.9009082382
 51
160.5259891341
  0
ARC
  5
2AF
100
AcDbEntity
  8
0
100
AcDbCircle
 62
7
  6
BYLAYER
 10
28.2519644285
 20
46.681159047
 40
1.3178523713
100
AcDbArc
 50
338.8397170958
 51
340.4952802987
  0
ARC
  5
2B0
100
AcDbEntity
  8
0
100
AcDbCircle
 62
7
  6
BYLAYER
 10
28.2848692478
 20
46.797597632
 40
1.2826951277
100
AcDbArc
 50
21.1974779318
 51
22.380176121
  0
ARC
  5
2B1
100
AcDbEntity
  8
0
100
AcDbCircle
 62
7
  6
BYLAYER
 10
29.26501316
 20
46.6528751454
 40
1.2357624387
100
AcDbArc
 50
203.5742300303
 51
205.2519287425
  0
ARC
  5
2B2
100
AcDbEntity
  8
0
100
AcDbCircle
 62
7
  6
BYLAYER
 10
28.5221881395
 20
48.8947667059
 40
1.1772992442
100
AcDbArc
 50
266.6359958724
 51
270.0498856294
  0
ARC
  5
2B3
100
AcDbEntity
  8
0
100
AcDbCircle
 62
7
  6
BYLAYER
 10
29.6486157875
 20
47.7481714222
 40
1.03426226
100
AcDbArc
 50
265.991260265
 51
269.9749432129
  0
ARC
  5
2B4
100
AcDbEntity
  8
0
100
AcDbCircle
 62
7
  6
BYLAYER
 10
28.1748164691
 20
46.2531288635
 40
0.9711882301
100
AcDbArc
 50
90.0171240874
 51
94.491837083
  0
ARC
  5
2B5
100
AcDbEntity
  8
0
100
AcDbCircle
 62
7
  6
BYLAYER
 10
29.5513834999
 20
46.3671368005
 40
0.8970448369
100
AcDbArc
 50
89.9830559623
 51
94.514434022
  0
ARC
  5
2B6
100
AcDbEntity
  8
0
100
AcDbCircle
 62
7
  6
BYLAYER
 10
28.9164059719
 20
46.4040941347
 40
0.8045179027
100
AcDbArc
 50
227.4912188783
 51
229.768450539
  0
ARC
  5
2B7
100
AcDbEntity
  8
0
100
AcDbCircle
 62
7
  6
BYLAYER
 10
28.6865548378
 20
47.0724791361
 40
0.7916451278
100
AcDbArc
 50
48.0826341272
 51
50.4030486941
  0
ARC
  5
2B8
100
AcDbEntity
  8
0
100
AcDbCircle
 62
7
  6
BYLAYER
 10
28.7205040619
 20
46.3508499858
 40
0.7369365601
100
AcDbArc
 50
305.4003642853
 51
307.8477301981
  0
ARC
  5
2B9
100
AcDbEntity
  8
0
100
AcDbCircle
 62
7
  6
BYLAYER
 10
28.8724894324
 20
47.1177637236
 40
0.7334609926
100
AcDbArc
 50
124.8750263629
 51
127.2855831379
  0
ARC
  5
2BA
100
AcDbEntity
  8
0
100
AcDbCircle
 62
7
  6
BYLAYER
 10
28.3217365683
 20
45.1222700773
 40
0.7169583962
100
AcDbArc
 50
40.0165339214
 51
45.5089274289
  0
ARC
  5
2BB
100
AcDbEntity
  8
0
100
AcDbCircle
 62
7
  6
BYLAYER
 10
28.7979227563
 20
47.2833728267
 40
0.5497204546
100
AcDbArc
 50
93.299293875
 51
96.2653386774
  0
ARC
  5
2BC
100
AcDbEntity
  8
0
100
AcDbCircle
 62
7
  6
BYLAYER
 10
28.7979979546
 20
46.1813720456
 40
0.5482782972
100
AcDbArc
 50
272.7370632467
 51
275.6964081228
  0
ARC
  5
2BD
100
AcDbEntity
  8
0
100
AcDbCircle
 62
7
  6
BYLAYER
 10
29.194189679
 20
49.0348161361
 40
0.4674966379
100
AcDbArc
 50
90.0339516979
 51
101.5619507698
  0
ARC
  5
2BE
100
AcDbEntity
  8
0
100
AcDbCircle
 62
7
  6
BYLAYER
 10
28.5316884293
 20
44.4362313359
 40
0.4667214167
100
AcDbArc
 50
270.0264036242
 51
280.6315410091
  0
SPLINE
  5
2BF
100
AcDbEntity
  8
0
100
AcDbSpline
 62
7
  6
BYLAYER
 70
0
 71
3
 72
23
 73
19
 74
0
 42
0.0000001
 43
0.0000001
 44
0.0000000001
 40
0.0
 40
0.0
 40
0.0
 40
0.0
 40
0.0725417103
 40
0.1437823549
 40
0.2123614819
 40
0.2769531289
 40
0.3378776999
 40
0.3948311113
 40
0.4483641929
 40
0.4998845019
 40
0.5513356585
 40
0.6046586842
 40
0.6613364448
 40
0.7220819669
 40
0.7867066896
 40
0.8555054638
 40
0.9270941379
 40
1.0
 40
1.0
 40
1.0
 40
1.0
 10
26.2541819158
 20
46.7331897862
 30
0.0
 10
26.2541819158
 20
46.9744810321
 30
0.0
 10
26.2872090457
 20
47.4534199697
 30
0.0
 10
26.4345500093
 20
48.1466330816
 30
0.0
 10
26.6738343845
 20
48.7860054319
 30
0.0
 10
26.9965206895
 20
49.3488159008
 30
0.0
 10
27.391807619
 20
49.8145348189
 30
0.0
 10
27.8477393322
 20
50.1650136917
 30
0.0
 10
28.347026726
 20
50.3831845194
 30
0.0
 10
28.8690790674
 20
50.4575096447
 30
0.0
 10
29.3905217504
 20
50.384033806
 30
0.0
 10
29.8884982702
 20
50.1676148106
 30
0.0
 10
30.3435630888
 20
49.8197123179
 30
0.0
 10
30.739263861
 20
49.3561962258
 30
0.0
 10
31.0634967152
 20
48.7939658526
 30
0.0
 10
31.3046743442
 20
48.1531318236
 30
0.0
 10
31.4534152757
 20
47.4570105124
 30
0.0
 10
31.4867720966
 20
46.9756922886
 30
0.0
 10
31.4867720966
 20
46.7331897862
 30
0.0
  0
SPLINE
  5
2C0
100
AcDbEntity
  8
0
100
AcDbSpline
 62
7
  6
BYLAYER
 70
0
 71
3
 72
23
 73
19
 74
0
 42
0.0000001
 43
0.0000001
 44
0.0000000001
 40
0.0
 40
0.0
 40
0.0
 40
0.0
 40
0.0725417103
 40
0.1437823549
 40
0.2123614819
 40
0.2769531289
 40
0.3378776999
 40
0.3948311113
 40
0.4483641929
 40
0.4998845019
 40
0.5513356585
 40
0.6046586842
 40
0.6613364448
 40
0.7220819669
 40
0.7867066896
 40
0.8555054638
 40
0.9270941379
 40
1.0
 40
1.0
 40
1.0
 40
1.0
 10
31.4867720966
 20
46.7331897862
 30
0.0
 10
31.4867720966
 20
46.4918985403
 30
0.0
 10
31.4537449667
 20
46.0129596027
 30
0.0
 10
31.3064040031
 20
45.3197464908
 30
0.0
 10
31.0671196279
 20
44.6803741405
 30
0.0
 10
30.7444333229
 20
44.1175636716
 30
0.0
 10
30.3491463934
 20
43.6518447535
 30
0.0
 10
29.8932146802
 20
43.3013658807
 30
0.0
 10
29.3939272864
 20
43.083195053
 30
0.0
 10
28.871874945
 20
43.0088699277
 30
0.0
 10
28.350432262
 20
43.0823457663
 30
0.0
 10
27.8524557421
 20
43.2987647618
 30
0.0
 10
27.3973909236
 20
43.6466672545
 30
0.0
 10
27.0016901514
 20
44.1101833466
 30
0.0
 10
26.6774572972
 20
44.6724137198
 30
0.0
 10
26.4362796682
 20
45.3132477488
 30
0.0
 10
26.2875387367
 20
46.00936906
 30
0.0
 10
26.2541819158
 20
46.4906872837
 30
0.0
 10
26.2541819158
 20
46.7331897862
 30
0.0
  0
SPLINE
  5
2C1
100
AcDbEntity
  8
0
100
AcDbSpline
 62
7
  6
BYLAYER
 70
0
 71
3
 72
11
 73
7
 74
0
 42
0.0000001
 43
0.0000001
 44
0.0000000001
 40
0.0
 40
0.0
 40
0.0
 40
0.0
 40
0.2783662878
 40
0.5352886908
 40
0.7732945588
 40
1.0
 40
1.0
 40
1.0
 40
1.0
 10
28.0944771071
 20
46.8077063801
 30
0.0
 10
28.0653097677
 20
46.8629636992
 30
0.0
 10
27.9987871387
 20
46.9642870948
 30
0.0
 10
27.8715166285
 20
47.0849416753
 30
0.0
 10
27.7262400503
 20
47.1615974629
 30
0.0
 10
27.6212223874
 20
47.1793745528
 30
0.0
 10
27.5703354808
 20
47.1793745528
 30
0.0
  0
SPLINE
  5
2C2
100
AcDbEntity
  8
0
100
AcDbSpline
 62
7
  6
BYLAYER
 70
0
 71
3
 72
12
 73
8
 74
0
 42
0.0000001
 43
0.0000001
 44
0.0000000001
 40
0.0
 40
0.0
 40
0.0
 40
0.0
 40
0.1326161015
 40
0.2666507966
 40
0.6304932048
 40
0.8147893225
 40
1.0
 40
1.0
 40
1.0
 40
1.0
 10
28.1745262082
 20
47.2243177494
 30
0.0
 10
28.1682581792
 20
47.2065728636
 30
0.0
 10
28.1564118959
 20
47.1706360374
 30
0.0
 10
28.1319481659
 20
47.0845745538
 30
0.0
 10
28.1125391538
 20
46.9895315289
 30
0.0
 10
28.0996048122
 20
46.8862600401
 30
0.0
 10
28.0957491736
 20
46.8339603206
 30
0.0
 10
28.0944771071
 20
46.8077063801
 30
0.0
  0
SPLINE
  5
2C3
100
AcDbEntity
  8
0
100
AcDbSpline
 62
7
  6
BYLAYER
 70
0
 71
3
 72
10
 73
6
 74
0
 42
0.0000001
 43
0.0000001
 44
0.0000000001
 40
0.0
 40
0.0
 40
0.0
 40
0.0
 40
0.3260690103
 40
0.6577625133
 40
1.0
 40
1.0
 40
1.0
 40
1.0
 10
27.9204770062
 20
47.1516926704
 30
0.0
 10
27.9495094642
 20
47.1516926704
 30
0.0
 10
28.0082232303
 20
47.1572672942
 30
0.0
 10
28.0942049275
 20
47.1820639455
 30
0.0
 10
28.148351671
 20
47.208715178
 30
0.0
 10
28.1745262082
 20
47.2243177494
 30
0.0
  0
SPLINE
  5
2C4
100
AcDbEntity
  8
0
100
AcDbSpline
 62
7
  6
BYLAYER
 70
0
 71
3
 72
14
 73
10
 74
0
 42
0.0000001
 43
0.0000001
 44
0.0000000001
 40
0.0
 40
0.0
 40
0.0
 40
0.0
 40
0.1598408615
 40
0.3210720032
 40
0.4779000051
 40
0.6254054664
 40
0.7606536424
 40
0.883962099
 40
1.0
 40
1.0
 40
1.0
 40
1.0
 10
27.3177408347
 20
48.4359185257
 30
0.0
 10
27.2932624165
 20
48.3537750616
 30
0.0
 10
27.2621379917
 20
48.1829557147
 30
0.0
 10
27.2667072596
 20
47.9251820824
 30
0.0
 10
27.3204698008
 20
47.6795787928
 30
0.0
 10
27.4195681487
 20
47.4634357355
 30
0.0
 10
27.5581864752
 20
47.2919306595
 30
0.0
 10
27.7287291153
 20
47.1788581942
 30
0.0
 10
27.8582527897
 20
47.1516926704
 30
0.0
 10
27.9204770062
 20
47.1516926704
 30
0.0
  0
SPLINE
  5
2C5
100
AcDbEntity
  8
0
100
AcDbSpline
 62
7
  6
BYLAYER
 70
0
 71
3
 72
12
 73
8
 74
0
 42
0.0000001
 43
0.0000001
 44
0.0000000001
 40
0.0
 40
0.0
 40
0.0
 40
0.0
 40
0.1747731766
 40
0.3578791112
 40
0.5555258707
 40
0.7699676015
 40
1.0
 40
1.0
 40
1.0
 40
1.0
 10
27.9204770062
 20
49.0016926704
 30
0.0
 10
27.86904783
 20
49.0016926704
 30
0.0
 10
27.7630088347
 20
48.9835381713
 30
0.0
 10
27.6167274196
 20
48.9055288994
 30
0.0
 10
27.4889476957
 20
48.7830021263
 30
0.0
 10
27.3854511454
 20
48.6232718896
 30
0.0
 10
27.3370720769
 20
48.5007893513
 30
0.0
 10
27.3177408347
 20
48.4359185257
 30
0.0
  0
SPLINE
  5
2C6
100
AcDbEntity
  8
0
100
AcDbSpline
 62
7
  6
BYLAYER
 70
0
 71
3
 72
14
 73
10
 74
0
 42
0.0000001
 43
0.0000001
 44
0.0000000001
 40
0.0
 40
0.0
 40
0.0
 40
0.0
 40
0.1598408615
 40
0.3210720032
 40
0.4779000051
 40
0.6254054664
 40
0.7606536424
 40
0.883962099
 40
1.0
 40
1.0
 40
1.0
 40
1.0
 10
28.5232131777
 20
47.7174668151
 30
0.0
 10
28.5476915959
 20
47.7996102793
 30
0.0
 10
28.5788160207
 20
47.9704296262
 30
0.0
 10
28.5742467528
 20
48.2282032585
 30
0.0
 10
28.5204842116
 20
48.4738065481
 30
0.0
 10
28.4213858637
 20
48.6899496054
 30
0.0
 10
28.2827675371
 20
48.8614546814
 30
0.0
 10
28.1122248971
 20
48.9745271467
 30
0.0
 10
27.9827012227
 20
49.0016926704
 30
0.0
 10
27.9204770062
 20
49.0016926704
 30
0.0
  0
SPLINE
  5
2C7
100
AcDbEntity
  8
0
100
AcDbSpline
 62
7
  6
BYLAYER
 70
0
 71
3
 72
13
 73
9
 74
0
 42
0.0000001
 43
0.0000001
 44
0.0000000001
 40
0.0
 40
0.0
 40
0.0
 40
0.0
 40
0.2216091638
 40
0.44634619
 40
0.6755990709
 40
0.9105913894
 40
0.9551742966
 40
1.0
 40
1.0
 40
1.0
 40
1.0
 10
28.8087387713
 20
47.8297089028
 30
0.0
 10
28.7859670213
 20
47.8271426207
 30
0.0
 10
28.7404662781
 20
47.8190816646
 30
0.0
 10
28.6735356319
 20
47.7987281053
 30
0.0
 10
28.6081648423
 20
47.7702144387
 30
0.0
 10
28.5625204275
 20
47.743912125
 30
0.0
 10
28.5345915488
 20
47.7253928409
 30
0.0
 10
28.5269959798
 20
47.720138176
 30
0.0
 10
28.5232131777
 20
47.7174668151
 30
0.0
  0
SPLINE
  5
2C8
100
AcDbEntity
  8
0
100
AcDbSpline
 62
7
  6
BYLAYER
 70
0
 71
3
 72
16
 73
12
 74
0
 42
0.0000001
 43
0.0000001
 44
0.0000000001
 40
0.0
 40
0.0
 40
0.0
 40
0.0
 40
0.0908865531
 40
0.1892064468
 40
0.2967230393
 40
0.4125635759
 40
0.5340163369
 40
0.6573067307
 40
0.7783497422
 40
0.8934311308
 40
1.0
 40
1.0
 40
1.0
 40
1.0
 10
29.1004907047
 20
49.4928259083
 30
0.0
 10
29.0421863596
 20
49.4809268147
 30
0.0
 10
28.9248818775
 20
49.4325563676
 30
0.0
 10
28.7764529778
 20
49.303166782
 30
0.0
 10
28.6582795004
 20
49.1263250753
 30
0.0
 10
28.5767965134
 20
48.9140603166
 30
0.0
 10
28.5364577337
 20
48.6800213235
 30
0.0
 10
28.539685023
 20
48.4392152686
 30
0.0
 10
28.5864301279
 20
48.207089214
 30
0.0
 10
28.673911546
 20
47.9988053606
 30
0.0
 10
28.7601459904
 20
47.8797801892
 30
0.0
 10
28.8087387713
 20
47.8297089028
 30
0.0
  0
SPLINE
  5
2C9
100
AcDbEntity
  8
0
100
AcDbSpline
 62
7
  6
BYLAYER
 70
0
 71
3
 72
18
 73
14
 74
0
 42
0.0000001
 43
0.0000001
 44
0.0000000001
 40
0.0
 40
0.0
 40
0.0
 40
0.0
 40
0.077247696
 40
0.161146615
 40
0.2531429873
 40
0.3522419989
 40
0.4557752349
 40
0.560181801
 40
0.6617437745
 40
0.7572809646
 40
0.8449147416
 40
0.92486101
 40
1.0
 40
1.0
 40
1.0
 40
1.0
 10
29.2873346088
 20
47.6617937647
 30
0.0
 10
29.347820563
 20
47.6741380939
 30
0.0
 10
29.4695969885
 20
47.7253899805
 30
0.0
 10
29.6219313551
 20
47.8628467663
 30
0.0
 10
29.7410806225
 20
48.0501803681
 30
0.0
 10
29.8201530949
 20
48.273811468
 30
0.0
 10
29.8545740855
 20
48.5183044669
 30
0.0
 10
29.8421870196
 20
48.7668280759
 30
0.0
 10
29.7837922897
 20
49.0022657557
 30
0.0
 10
29.6830020126
 20
49.2084429116
 30
0.0
 10
29.5454955065
 20
49.3709744178
 30
0.0
 10
29.3789791092
 20
49.4770759906
 30
0.0
 10
29.2539602329
 20
49.5023098365
 30
0.0
 10
29.1939126568
 20
49.5023098365
 30
0.0
  0
SPLINE
  5
2CA
100
AcDbEntity
  8
0
100
AcDbSpline
 62
7
  6
BYLAYER
 70
0
 71
3
 72
13
 73
9
 74
0
 42
0.0000001
 43
0.0000001
 44
0.0000000001
 40
0.0
 40
0.0
 40
0.0
 40
0.0
 40
0.1694631266
 40
0.3353312619
 40
0.4973020684
 40
0.6551366765
 40
0.8303221158
 40
1.0
 40
1.0
 40
1.0
 40
1.0
 10
29.5516487823
 20
47.2641817169
 30
0.0
 10
29.5417539114
 20
47.2895265054
 30
0.0
 10
29.5205967091
 20
47.3390797269
 30
0.0
 10
29.4844336569
 20
47.4103273282
 30
0.0
 10
29.4443987028
 20
47.4773174217
 30
0.0
 10
29.3987225508
 20
47.5424378359
 30
0.0
 10
29.3469585902
 20
47.6045167039
 30
0.0
 10
29.3076190036
 20
47.6435790021
 30
0.0
 10
29.2873346088
 20
47.6617937647
 30
0.0
  0
SPLINE
  5
2CB
100
AcDbEntity
  8
0
100
AcDbSpline
 62
7
  6
BYLAYER
 70
0
 71
3
 72
13
 73
9
 74
0
 42
0.0000001
 43
0.0000001
 44
0.0000000001
 40
0.0
 40
0.0
 40
0.0
 40
0.0
 40
0.1397275437
 40
0.2868621153
 40
0.4465249629
 40
0.620144734
 40
0.8059771953
 40
1.0
 40
1.0
 40
1.0
 40
1.0
 10
30.1744667991
 20
48.074462976
 30
0.0
 10
30.1224323898
 20
48.074462976
 30
0.0
 10
30.0147966774
 20
48.0548878109
 30
0.0
 10
29.8680339366
 20
47.9713778204
 30
0.0
 10
29.7422006359
 20
47.8413593455
 30
0.0
 10
29.6434369746
 20
47.6733846961
 30
0.0
 10
29.5765461966
 20
47.4771482703
 30
0.0
 10
29.5559096902
 20
47.3363098866
 30
0.0
 10
29.5516487823
 20
47.2641817169
 30
0.0
  0
SPLINE
  5
2CC
100
AcDbEntity
  8
0
100
AcDbSpline
 62
7
  6
BYLAYER
 70
0
 71
3
 72
11
 73
7
 74
0
 42
0.0000001
 43
0.0000001
 44
0.0000000001
 40
0.0
 40
0.0
 40
0.0
 40
0.0
 40
0.2806509372
 40
0.538619848
 40
0.7757115793
 40
1.0
 40
1.0
 40
1.0
 40
1.0
 10
30.7007701168
 20
47.6672822264
 30
0.0
 10
30.6737181201
 20
47.7270178799
 30
0.0
 10
30.6101965105
 20
47.8370295119
 30
0.0
 10
30.4835485232
 20
47.9695112118
 30
0.0
 10
30.3354997688
 20
48.0545599123
 30
0.0
 10
30.2268729912
 20
48.074462976
 30
0.0
 10
30.1744667991
 20
48.074462976
 30
0.0
  0
SPLINE
  5
2CD
100
AcDbEntity
  8
0
100
AcDbSpline
 62
7
  6
BYLAYER
 70
0
 71
3
 72
15
 73
11
 74
0
 42
0.0000001
 43
0.0000001
 44
0.0000000001
 40
0.0
 40
0.0
 40
0.0
 40
0.0
 40
0.1004876812
 40
0.2071266962
 40
0.3237680547
 40
0.4509038259
 40
0.5863285398
 40
0.7261196145
 40
0.8655636066
 40
1.0
 40
1.0
 40
1.0
 40
1.0
 10
30.1744667991
 20
46.3067307635
 30
0.0
 10
30.2307341649
 20
46.3067307635
 30
0.0
 10
30.3476986488
 20
46.329850319
 30
0.0
 10
30.5042717488
 20
46.4273457991
 30
0.0
 10
30.6346367089
 20
46.5771915485
 30
0.0
 10
30.7317086173
 20
46.7680453777
 30
0.0
 10
30.7901723542
 20
46.9871549999
 30
0.0
 10
30.8064137545
 20
47.2201609897
 30
0.0
 10
30.779318476
 20
47.451501434
 30
0.0
 10
30.7318241269
 20
47.5987094107
 30
0.0
 10
30.7007701168
 20
47.6672822264
 30
0.0
  0
SPLINE
  5
2CE
100
AcDbEntity
  8
0
100
AcDbSpline
 62
7
  6
BYLAYER
 70
0
 71
3
 72
11
 73
7
 74
0
 42
0.0000001
 43
0.0000001
 44
0.0000000001
 40
0.0
 40
0.0
 40
0.0
 40
0.0
 40
0.2806509372
 40
0.538619848
 40
0.7757115793
 40
1.0
 40
1.0
 40
1.0
 40
1.0
 10
29.6481634813
 20
46.7139115132
 30
0.0
 10
29.6752154781
 20
46.6541758597
 30
0.0
 10
29.7387370877
 20
46.5441642276
 30
0.0
 10
29.865385075
 20
46.4116825278
 30
0.0
 10
30.0134338294
 20
46.3266338273
 30
0.0
 10
30.122060607
 20
46.3067307635
 30
0.0
 10
30.1744667991
 20
46.3067307635
 30
0.0
  0
SPLINE
  5
2CF
100
AcDbEntity
  8
0
100
AcDbSpline
 62
7
  6
BYLAYER
 70
0
 71
3
 72
13
 73
9
 74
0
 42
0.0000001
 43
0.0000001
 44
0.0000000001
 40
0.0
 40
0.0
 40
0.0
 40
0.0
 40
0.1173671248
 40
0.2359897249
 40
0.4244236447
 40
0.6150157349
 40
0.8071027544
 40
1.0
 40
1.0
 40
1.0
 40
1.0
 10
29.5664278042
 20
46.2420618229
 30
0.0
 10
29.5726950399
 20
46.2598049377
 30
0.0
 10
29.5845421165
 20
46.2957435349
 30
0.0
 10
29.603151228
 20
46.3612070569
 30
0.0
 10
29.6209023853
 20
46.4390424059
 30
0.0
 10
29.6357186471
 20
46.5294461629
 30
0.0
 10
29.6451418465
 20
46.621289014
 30
0.0
 10
29.6477655487
 20
46.6829871898
 30
0.0
 10
29.6481634813
 20
46.7139115132
 30
0.0
  0
SPLINE
  5
2D0
100
AcDbEntity
  8
0
100
AcDbSpline
 62
7
  6
BYLAYER
 70
0
 71
3
 72
10
 73
6
 74
0
 42
0.0000001
 43
0.0000001
 44
0.0000000001
 40
0.0
 40
0.0
 40
0.0
 40
0.0
 40
0.3260690103
 40
0.6577625133
 40
1.0
 40
1.0
 40
1.0
 40
1.0
 10
29.8204770062
 20
46.3146869019
 30
0.0
 10
29.7914445482
 20
46.3146869019
 30
0.0
 10
29.732730782
 20
46.3091122782
 30
0.0
 10
29.6467490848
 20
46.2843156268
 30
0.0
 10
29.5926023414
 20
46.2576643943
 30
0.0
 10
29.5664278042
 20
46.2420618229
 30
0.0
  0
SPLINE
  5
2D1
100
AcDbEntity
  8
0
100
AcDbSpline
 62
7
  6
BYLAYER
 70
0
 71
3
 72
14
 73
10
 74
0
 42
0.0000001
 43
0.0000001
 44
0.0000000001
 40
0.0
 40
0.0
 40
0.0
 40
0.0
 40
0.1598408615
 40
0.3210720032
 40
0.4779000051
 40
0.6254054664
 40
0.7606536424
 40
0.883962099
 40
1.0
 40
1.0
 40
1.0
 40
1.0
 10
30.4232131777
 20
45.0304610466
 30
0.0
 10
30.4476915959
 20
45.1126045108
 30
0.0
 10
30.4788160207
 20
45.2834238577
 30
0.0
 10
30.4742467528
 20
45.54119749
 30
0.0
 10
30.4204842116
 20
45.7868007796
 30
0.0
 10
30.3213858637
 20
46.0029438368
 30
0.0
 10
30.1827675371
 20
46.1744489129
 30
0.0
 10
30.0122248971
 20
46.2875213782
 30
0.0
 10
29.8827012227
 20
46.3146869019
 30
0.0
 10
29.8204770062
 20
46.3146869019
 30
0.0
  0
SPLINE
  5
2D2
100
AcDbEntity
  8
0
100
AcDbSpline
 62
7
  6
BYLAYER
 70
0
 71
3
 72
12
 73
8
 74
0
 42
0.0000001
 43
0.0000001
 44
0.0000000001
 40
0.0
 40
0.0
 40
0.0
 40
0.0
 40
0.1747731766
 40
0.3578791112
 40
0.5555258707
 40
0.7699676015
 40
1.0
 40
1.0
 40
1.0
 40
1.0
 10
29.8204770062
 20
44.4646869019
 30
0.0
 10
29.8719061823
 20
44.4646869019
 30
0.0
 10
29.9779451777
 20
44.482841401
 30
0.0
 10
30.1242265928
 20
44.560850673
 30
0.0
 10
30.2520063167
 20
44.6833774461
 30
0.0
 10
30.355502867
 20
44.8431076828
 30
0.0
 10
30.4038819355
 20
44.9655902211
 30
0.0
 10
30.4232131777
 20
45.0304610466
 30
0.0
  0
SPLINE
  5
2D3
100
AcDbEntity
  8
0
100
AcDbSpline
 62
7
  6
BYLAYER
 70
0
 71
3
 72
14
 73
10
 74
0
 42
0.0000001
 43
0.0000001
 44
0.0000000001
 40
0.0
 40
0.0
 40
0.0
 40
0.0
 40
0.1598408615
 40
0.3210720032
 40
0.4779000051
 40
0.6254054664
 40
0.7606536424
 40
0.883962099
 40
1.0
 40
1.0
 40
1.0
 40
1.0
 10
29.2177408347
 20
45.7489127572
 30
0.0
 10
29.1932624165
 20
45.6667692931
 30
0.0
 10
29.1621379917
 20
45.4959499462
 30
0.0
 10
29.1667072596
 20
45.2381763139
 30
0.0
 10
29.2204698008
 20
44.9925730243
 30
0.0
 10
29.3195681487
 20
44.776429967
 30
0.0
 10
29.4581864752
 20
44.604924891
 30
0.0
 10
29.6287291153
 20
44.4918524257
 30
0.0
 10
29.7582527897
 20
44.4646869019
 30
0.0
 10
29.8204770062
 20
44.4646869019
 30
0.0
  0
SPLINE
  5
2D4
100
AcDbEntity
  8
0
100
AcDbSpline
 62
7
  6
BYLAYER
 70
0
 71
3
 72
13
 73
9
 74
0
 42
0.0000001
 43
0.0000001
 44
0.0000000001
 40
0.0
 40
0.0
 40
0.0
 40
0.0
 40
0.2221898756
 40
0.44746947
 40
0.6773422435
 40
0.9131274771
 40
0.9564457839
 40
1.0
 40
1.0
 40
1.0
 40
1.0
 10
28.9232010136
 20
45.6357255559
 30
0.0
 10
28.9467415337
 20
45.6379854144
 30
0.0
 10
28.9938088277
 20
45.6456400962
 30
0.0
 10
29.0630849955
 20
45.6659709988
 30
0.0
 10
29.1307281958
 20
45.6950279846
 30
0.0
 10
29.1777727791
 20
45.7220292574
 30
0.0
 10
29.2063624636
 20
45.7409867315
 30
0.0
 10
29.2139580134
 20
45.7462413886
 30
0.0
 10
29.2177408347
 20
45.7489127572
 30
0.0
  0
SPLINE
  5
2D5
100
AcDbEntity
  8
0
100
AcDbSpline
 62
7
  6
BYLAYER
 70
0
 71
3
 72
16
 73
12
 74
0
 42
0.0000001
 43
0.0000001
 44
0.0000000001
 40
0.0
 40
0.0
 40
0.0
 40
0.0
 40
0.0906882364
 40
0.1886702744
 40
0.2958386476
 40
0.4114225896
 40
0.5327745416
 40
0.6561488445
 40
0.7774568335
 40
0.892947985
 40
1.0
 40
1.0
 40
1.0
 40
1.0
 10
28.6177949015
 20
43.9775221841
 30
0.0
 10
28.6761206466
 20
43.9884485421
 30
0.0
 10
28.7937932254
 20
44.034830635
 30
0.0
 10
28.9433913717
 20
44.1618559674
 30
0.0
 10
29.0630434801
 20
44.3368292728
 30
0.0
 10
29.146254564
 20
44.5477941339
 30
0.0
 10
29.1884853637
 20
44.7811778564
 30
0.0
 10
29.1872043773
 20
45.0220191093
 30
0.0
 10
29.1423435
 20
45.2548698583
 30
0.0
 10
29.056570317
 20
45.4645203674
 30
0.0
 10
28.9713693772
 20
45.5848679844
 30
0.0
 10
28.9232010136
 20
45.6357255559
 30
0.0
  0
SPLINE
  5
2D6
100
AcDbEntity
  8
0
100
AcDbSpline
 62
7
  6
BYLAYER
 70
0
 71
3
 72
18
 73
14
 74
0
 42
0.0000001
 43
0.0000001
 44
0.0000000001
 40
0.0
 40
0.0
 40
0.0
 40
0.0
 40
0.07709557
 40
0.1607598542
 40
0.2525523027
 40
0.3515402768
 40
0.4550713551
 40
0.559568773
 40
0.6612799176
 40
0.7569821925
 40
0.8447580913
 40
0.9248012083
 40
1.0
 40
1.0
 40
1.0
 40
1.0
 10
28.4460121139
 20
45.8115018317
 30
0.0
 10
28.3852631263
 20
45.8001215196
 30
0.0
 10
28.2625906592
 20
45.7506174439
 30
0.0
 10
28.1085829549
 20
45.6146763537
 30
0.0
 10
27.9877747452
 20
45.4280522338
 30
0.0
 10
27.9071696694
 20
45.2044174044
 30
0.0
 10
27.8714541318
 20
44.9593245564
 30
0.0
 10
27.8828797851
 20
44.7097660536
 30
0.0
 10
27.9407032017
 20
44.4730547914
 30
0.0
 10
28.041322743
 20
44.2655707443
 30
0.0
 10
28.1790311528
 20
44.1018887539
 30
0.0
 10
28.3460720785
 20
43.9949599229
 30
0.0
 10
28.4716183592
 20
43.9695120079
 30
0.0
 10
28.5319035077
 20
43.9695120079
 30
0.0
  0
SPLINE
  5
2D7
100
AcDbEntity
  8
0
100
AcDbSpline
 62
7
  6
BYLAYER
 70
0
 71
3
 72
12
 73
8
 74
0
 42
0.0000001
 43
0.0000001
 44
0.0000000001
 40
0.0
 40
0.0
 40
0.0
 40
0.0
 40
0.1559235997
 40
0.3091027502
 40
0.6065402335
 40
0.806210442
 40
1.0
 40
1.0
 40
1.0
 40
1.0
 10
28.2187443136
 20
46.1328962788
 30
0.0
 10
28.2273637643
 20
46.1141971575
 30
0.0
 10
28.2453740194
 20
46.0775612695
 30
0.0
 10
28.2844339843
 20
46.007626688
 30
0.0
 10
28.3323212443
 20
45.9361166072
 30
0.0
 10
28.3906125069
 20
45.865818157
 30
0.0
 10
28.4271784284
 20
45.8288482044
 30
0.0
 10
28.4460121139
 20
45.8115018317
 30
0.0
  0
SPLINE
  5
2D8
100
AcDbEntity
  8
0
100
AcDbSpline
 62
7
  6
BYLAYER
 70
0
 71
3
 72
12
 73
8
 74
0
 42
0.0000001
 43
0.0000001
 44
0.0000000001
 40
0.0
 40
0.0
 40
0.0
 40
0.0
 40
0.1691524514
 40
0.3499400392
 40
0.5493783898
 40
0.767680266
 40
1.0
 40
1.0
 40
1.0
 40
1.0
 10
27.5703354808
 20
45.3293745528
 30
0.0
 10
27.6336880369
 20
45.3293745528
 30
0.0
 10
27.7659794469
 20
45.3576653614
 30
0.0
 10
27.9395403646
 20
45.4753976268
 30
0.0
 10
28.0796448702
 20
45.6541474732
 30
0.0
 10
28.1779080996
 20
45.8792090688
 30
0.0
 10
28.2106292015
 20
46.0462649798
 30
0.0
 10
28.2187443136
 20
46.1328962788
 30
0.0
  0
SPLINE
  5
2D9
100
AcDbEntity
  8
0
100
AcDbSpline
 62
7
  6
BYLAYER
 70
0
 71
3
 72
11
 73
7
 74
0
 42
0.0000001
 43
0.0000001
 44
0.0000000001
 40
0.0
 40
0.0
 40
0.0
 40
0.0
 40
0.2783662878
 40
0.5352886908
 40
0.7732945588
 40
1.0
 40
1.0
 40
1.0
 40
1.0
 10
27.0461938545
 20
45.7010427254
 30
0.0
 10
27.0753611938
 20
45.6457854063
 30
0.0
 10
27.1418838228
 20
45.5444620107
 30
0.0
 10
27.269154333
 20
45.4238074302
 30
0.0
 10
27.4144309112
 20
45.3471516426
 30
0.0
 10
27.5194485742
 20
45.3293745528
 30
0.0
 10
27.5703354808
 20
45.3293745528
 30
0.0
  0
SPLINE
  5
2DA
100
AcDbEntity
  8
0
100
AcDbSpline
 62
7
  6
BYLAYER
 70
0
 71
3
 72
15
 73
11
 74
0
 42
0.0000001
 43
0.0000001
 44
0.0000000001
 40
0.0
 40
0.0
 40
0.0
 40
0.0
 40
0.1004753989
 40
0.2074713127
 40
0.3249101093
 40
0.4530389642
 40
0.5892387887
 40
0.7291409235
 40
0.8676689041
 40
1.0
 40
1.0
 40
1.0
 40
1.0
 10
27.5703354808
 20
47.1793745528
 30
0.0
 10
27.5094406643
 20
47.1793745528
 30
0.0
 10
27.3825801106
 20
47.1533801975
 30
0.0
 10
27.2142735391
 20
47.0443895916
 30
0.0
 10
27.0760979456
 20
46.8778799404
 30
0.0
 10
26.9758906357
 20
46.6671042729
 30
0.0
 10
26.9194604709
 20
46.4269842493
 30
0.0
 10
26.9105366908
 20
46.1742584212
 30
0.0
 10
26.9498151911
 20
45.9269062182
 30
0.0
 10
27.0087553437
 20
45.7719697207
 30
0.0
 10
27.0461938545
 20
45.7010427254
 30
0.0
  0
SPLINE
  5
2DB
100
AcDbEntity
  8
0
100
AcDbSpline
 62
7
  6
BYLAYER
 70
0
 71
3
 72
23
 73
19
 74
0
 42
0.0000001
 43
0.0000001
 44
0.0000000001
 40
0.0
 40
0.0
 40
0.0
 40
0.0
 40
0.0725125904
 40
0.1436522423
 40
0.2121827066
 40
0.2771463858
 40
0.338014309
 40
0.3948364803
 40
0.4483559497
 40
0.5
 40
0.5516440503
 40
0.6051635197
 40
0.661985691
 40
0.7228536142
 40
0.7878172934
 40
0.8563477577
 40
0.9274874096
 40
1.0
 40
1.0
 40
1.0
 40
1.0
 10
29.6752457854
 20
46.7331897862
 30
0.0
 10
29.6752457854
 20
46.4919955788
 30
0.0
 10
29.708229428
 20
46.013490792
 30
0.0
 10
29.855335994
 20
45.3208445651
 30
0.0
 10
30.0946536147
 20
44.6807052644
 30
0.0
 10
30.4177898456
 20
44.1170742325
 30
0.0
 10
30.813724547
 20
43.651102017
 30
0.0
 10
31.2692094747
 20
43.3011882862
 30
0.0
 10
31.7684234608
 20
43.0830409443
 30
0.0
 10
32.2915408758
 20
43.008708714
 30
0.0
 10
32.8146582908
 20
43.0830409443
 30
0.0
 10
33.3138722769
 20
43.3011882862
 30
0.0
 10
33.7693572046
 20
43.651102017
 30
0.0
 10
34.165291906
 20
44.1170742325
 30
0.0
 10
34.488428137
 20
44.6807052644
 30
0.0
 10
34.7277457577
 20
45.3208445651
 30
0.0
 10
34.8748523236
 20
46.013490792
 30
0.0
 10
34.9078359662
 20
46.4919955788
 30
0.0
 10
34.9078359662
 20
46.7331897862
 30
0.0
  0
SPLINE
  5
2DC
100
AcDbEntity
  8
0
100
AcDbSpline
 62
7
  6
BYLAYER
 70
0
 71
3
 72
23
 73
19
 74
0
 42
0.0000001
 43
0.0000001
 44
0.0000000001
 40
0.0
 40
0.0
 40
0.0
 40
0.0
 40
0.0805340126
 40
0.1587821378
 40
0.2326205425
 40
0.3002655841
 40
0.3604934552
 40
0.4129447479
 40
0.4585570161
 40
0.5
 40
0.5414429839
 40
0.5870552521
 40
0.6395065448
 40
0.6997344159
 40
0.7673794575
 40
0.8412178622
 40
0.9194659874
 40
1.0
 40
1.0
 40
1.0
 40
1.0
 10
48.6129935462
 20
46.7331897862
 30
0.0
 10
48.6129935462
 20
46.4922800798
 30
0.0
 10
48.6363260248
 20
46.0169466075
 30
0.0
 10
48.740482044
 20
45.3276994451
 30
0.0
 10
48.9096918604
 20
44.6909828489
 30
0.0
 10
49.1377427243
 20
44.1302668113
 30
0.0
 10
49.4168839823
 20
43.6655169965
 30
0.0
 10
49.7391347421
 20
43.3130060086
 30
0.0
 10
50.098130298
 20
43.0871614858
 30
0.0
 10
50.4842279289
 20
43.0074963533
 30
0.0
 10
50.8703255598
 20
43.0871614858
 30
0.0
 10
51.2293211157
 20
43.3130060086
 30
0.0
 10
51.5515718755
 20
43.6655169965
 30
0.0
 10
51.8307131335
 20
44.1302668113
 30
0.0
 10
52.0587639974
 20
44.6909828489
 30
0.0
 10
52.2279738138
 20
45.3276994451
 30
0.0
 10
52.332129833
 20
46.0169466075
 30
0.0
 10
52.3554623116
 20
46.4922800798
 30
0.0
 10
52.3554623116
 20
46.7331897862
 30
0.0
  0
SPLINE
  5
2DD
100
AcDbEntity
  8
0
100
AcDbSpline
 62
7
  6
BYLAYER
 70
0
 71
3
 72
23
 73
19
 74
0
 42
0.0000001
 43
0.0000001
 44
0.0000000001
 40
0.0
 40
0.0
 40
0.0
 40
0.0
 40
0.0725125904
 40
0.1436522423
 40
0.2121827066
 40
0.2771463858
 40
0.338014309
 40
0.3948364803
 40
0.4483559497
 40
0.5
 40
0.5516440503
 40
0.6051635197
 40
0.661985691
 40
0.7228536142
 40
0.7878172934
 40
0.8563477577
 40
0.9274874096
 40
1.0
 40
1.0
 40
1.0
 40
1.0
 10
34.9078359662
 20
46.7331897862
 30
0.0
 10
34.9078359662
 20
46.9743839936
 30
0.0
 10
34.8748523236
 20
47.4528887804
 30
0.0
 10
34.7277457577
 20
48.1455350073
 30
0.0
 10
34.488428137
 20
48.785674308
 30
0.0
 10
34.165291906
 20
49.3493053399
 30
0.0
 10
33.7693572046
 20
49.8152775553
 30
0.0
 10
33.3138722769
 20
50.1651912862
 30
0.0
 10
32.8146582908
 20
50.383338628
 30
0.0
 10
32.2915408758
 20
50.4576708584
 30
0.0
 10
31.7684234608
 20
50.383338628
 30
0.0
 10
31.2692094747
 20
50.1651912862
 30
0.0
 10
30.813724547
 20
49.8152775553
 30
0.0
 10
30.4177898456
 20
49.3493053399
 30
0.0
 10
30.0946536147
 20
48.785674308
 30
0.0
 10
29.855335994
 20
48.1455350073
 30
0.0
 10
29.708229428
 20
47.4528887804
 30
0.0
 10
29.6752457854
 20
46.9743839936
 30
0.0
 10
29.6752457854
 20
46.7331897862
 30
0.0
  0
SPLINE
  5
2DE
100
AcDbEntity
  8
0
100
AcDbSpline
 62
7
  6
BYLAYER
 70
0
 71
3
 72
23
 73
19
 74
0
 42
0.0000001
 43
0.0000001
 44
0.0000000001
 40
0.0
 40
0.0
 40
0.0
 40
0.0
 40
0.0805340126
 40
0.1587821378
 40
0.2326205425
 40
0.3002655841
 40
0.3604934552
 40
0.4129447479
 40
0.4585570161
 40
0.5
 40
0.5414429839
 40
0.5870552521
 40
0.6395065448
 40
0.6997344159
 40
0.7673794575
 40
0.8412178622
 40
0.9194659874
 40
1.0
 40
1.0
 40
1.0
 40
1.0
 10
52.3554623116
 20
46.7331897862
 30
0.0
 10
52.3554623116
 20
46.9740994925
 30
0.0
 10
52.332129833
 20
47.4494329649
 30
0.0
 10
52.2279738138
 20
48.1386801273
 30
0.0
 10
52.0587639974
 20
48.7753967234
 30
0.0
 10
51.8307131335
 20
49.3361127611
 30
0.0
 10
51.5515718755
 20
49.8008625759
 30
0.0
 10
51.2293211157
 20
50.1533735638
 30
0.0
 10
50.8703255598
 20
50.3792180866
 30
0.0
 10
50.4842279289
 20
50.4588832191
 30
0.0
 10
50.098130298
 20
50.3792180866
 30
0.0
 10
49.7391347421
 20
50.1533735638
 30
0.0
 10
49.4168839823
 20
49.8008625759
 30
0.0
 10
49.1377427243
 20
49.3361127611
 30
0.0
 10
48.9096918604
 20
48.7753967234
 30
0.0
 10
48.740482044
 20
48.1386801273
 30
0.0
 10
48.6363260248
 20
47.4494329649
 30
0.0
 10
48.6129935462
 20
46.9740994925
 30
0.0
 10
48.6129935462
 20
46.7331897862
 30
0.0
  0
SPLINE
  5
2DF
100
AcDbEntity
  8
0
100
AcDbSpline
 62
7
  6
BYLAYER
 70
0
 71
3
 72
23
 73
19
 74
0
 42
0.0000001
 43
0.0000001
 44
0.0000000001
 40
0.0
 40
0.0
 40
0.0
 40
0.0
 40
0.0669609182
 40
0.1333463432
 40
0.1984801182
 40
0.2615897276
 40
0.3233234662
 40
0.3834401971
 40
0.442100492
 40
0.4998704792
 40
0.5575665726
 40
0.6160107539
 40
0.6758641625
 40
0.7374515429
 40
0.8006239219
 40
0.865985146
 40
0.9327021397
 40
1.0
 40
1.0
 40
1.0
 40
1.0
 10
54.4312378474
 20
46.7331897862
 30
0.0
 10
54.4312378474
 20
46.9747655464
 30
0.0
 10
54.4719762304
 20
47.4568501502
 30
0.0
 10
54.6534311596
 20
48.1530568429
 30
0.0
 10
54.94801183
 20
48.7946395589
 30
0.0
 10
55.3448813097
 20
49.3583268104
 30
0.0
 10
55.8299529777
 20
49.8230285175
 30
0.0
 10
56.3866385814
 20
50.1703247855
 30
0.0
 10
56.9920214069
 20
50.3845973291
 30
0.0
 10
57.6214932898
 20
50.4570986606
 30
0.0
 10
58.250254897
 20
50.385421839
 30
0.0
 10
58.8540652577
 20
50.1728488021
 30
0.0
 10
59.4096298636
 20
49.8281235128
 30
0.0
 10
59.8951223915
 20
49.365699959
 30
0.0
 10
60.2938571999
 20
48.8026672936
 30
0.0
 10
60.590774029
 20
48.1596403079
 30
0.0
 10
60.7739685457
 20
47.4604928426
 30
0.0
 10
60.8151181361
 20
46.9759811367
 30
0.0
 10
60.8151181361
 20
46.7331897862
 30
0.0
  0
SPLINE
  5
2E0
100
AcDbEntity
  8
0
100
AcDbSpline
 62
7
  6
BYLAYER
 70
0
 71
3
 72
23
 73
19
 74
0
 42
0.0000001
 43
0.0000001
 44
0.0000000001
 40
0.0
 40
0.0
 40
0.0
 40
0.0
 40
0.0669609182
 40
0.1333463432
 40
0.1984801182
 40
0.2615897276
 40
0.3233234662
 40
0.3834401971
 40
0.442100492
 40
0.4998704792
 40
0.5575665726
 40
0.6160107539
 40
0.6758641625
 40
0.7374515429
 40
0.8006239219
 40
0.865985146
 40
0.9327021397
 40
1.0
 40
1.0
 40
1.0
 40
1.0
 10
60.8151181361
 20
46.7331897862
 30
0.0
 10
60.8151181361
 20
46.491614026
 30
0.0
 10
60.7743797531
 20
46.0095294222
 30
0.0
 10
60.5929248239
 20
45.3133227295
 30
0.0
 10
60.2983441535
 20
44.6717400135
 30
0.0
 10
59.9014746738
 20
44.108052762
 30
0.0
 10
59.4164030058
 20
43.6433510549
 30
0.0
 10
58.8597174021
 20
43.2960547868
 30
0.0
 10
58.2543345766
 20
43.0817822433
 30
0.0
 10
57.6248626937
 20
43.0092809118
 30
0.0
 10
56.9961010865
 20
43.0809577334
 30
0.0
 10
56.3922907258
 20
43.2935307703
 30
0.0
 10
55.8367261199
 20
43.6382560596
 30
0.0
 10
55.351233592
 20
44.1006796133
 30
0.0
 10
54.9524987836
 20
44.6637122788
 30
0.0
 10
54.6555819545
 20
45.3067392645
 30
0.0
 10
54.4723874378
 20
46.0058867298
 30
0.0
 10
54.4312378474
 20
46.4903984356
 30
0.0
 10
54.4312378474
 20
46.7331897862
 30
0.0
  0
SPLINE
  5
2E1
100
AcDbEntity
  8
0
100
AcDbSpline
 62
7
  6
BYLAYER
 70
0
 71
3
 72
10
 73
6
 74
0
 42
0.0000001
 43
0.0000001
 44
0.0000000001
 40
0.0
 40
0.0
 40
0.0
 40
0.0
 40
0.3333448947
 40
0.6658409596
 40
1.0
 40
1.0
 40
1.0
 40
1.0
 10
28.0944771071
 20
46.8077063801
 30
0.0
 10
28.0860517607
 20
46.8077063801
 30
0.0
 10
28.0692152605
 20
46.808310624
 30
0.0
 10
28.0440731815
 20
46.8111072223
 30
0.0
 10
28.0274984456
 20
46.8142468243
 30
0.0
 10
28.019265665
 20
46.8161322838
 30
0.0
  0
SPLINE
  5
2E2
100
AcDbEntity
  8
0
100
AcDbSpline
 62
7
  6
BYLAYER
 70
0
 71
3
 72
10
 73
6
 74
0
 42
0.0000001
 43
0.0000001
 44
0.0000000001
 40
0.0
 40
0.0
 40
0.0
 40
0.0
 40
0.3278124563
 40
0.6605940543
 40
1.0
 40
1.0
 40
1.0
 40
1.0
 10
28.1473391798
 20
46.1256998807
 30
0.0
 10
28.1550263996
 20
46.1273127367
 30
0.0
 10
28.1706404627
 20
46.1300047613
 30
0.0
 10
28.1944999022
 20
46.1323902358
 30
0.0
 10
28.2106119319
 20
46.1328962788
 30
0.0
 10
28.2187443136
 20
46.1328962788
 30
0.0
  0
SPLINE
  5
2E3
100
AcDbEntity
  8
0
100
AcDbSpline
 62
7
  6
BYLAYER
 70
0
 71
3
 72
22
 73
18
 74
0
 42
0.0000001
 43
0.0000001
 44
0.0000000001
 40
0.0
 40
0.0
 40
0.0
 40
0.0
 40
0.0400936895
 40
0.0886490501
 40
0.1445648465
 40
0.2059248765
 40
0.2710429124
 40
0.3388108274
 40
0.4795292161
 40
0.5522120138
 40
0.6270462694
 40
0.7053760033
 40
0.7895408909
 40
0.8823272541
 40
0.9321728121
 40
0.9834685933
 40
1.0
 40
1.0
 40
1.0
 40
1.0
 10
21.4557583801
 20
46.5508805165
 30
0.0
 10
21.5492825964
 20
46.550894504
 30
0.0
 10
21.7560646266
 20
46.5519326061
 30
0.0
 10
22.0932514714
 20
46.5564633332
 30
0.0
 10
22.4799953079
 20
46.5641974463
 30
0.0
 10
22.9053137331
 20
46.5749969909
 30
0.0
 10
23.358207724
 20
46.5887005246
 30
0.0
 10
23.9960531812
 20
46.6103580708
 30
0.0
 10
24.6514354829
 20
46.6353663949
 30
0.0
 10
25.3232634177
 20
46.6616084996
 30
0.0
 10
25.8496815035
 20
46.6819850252
 30
0.0
 10
26.4028940231
 20
46.7025816993
 30
0.0
 10
26.9980111659
 20
46.7231264837
 30
0.0
 10
27.5267980427
 20
46.7391868635
 30
0.0
 10
27.9790020997
 20
46.7509914039
 30
0.0
 10
28.2534164176
 20
46.7572286734
 30
0.0
 10
28.4115986678
 20
46.7604147906
 30
0.0
 10
28.4501526523
 20
46.7611660548
 30
0.0
  0
SPLINE
  5
2E4
100
AcDbEntity
  8
0
100
AcDbSpline
 62
7
  6
BYLAYER
 70
0
 71
3
 72
34
 73
30
 74
0
 42
0.0000001
 43
0.0000001
 44
0.0000000001
 40
0.0
 40
0.0
 40
0.0
 40
0.0
 40
0.0726168298
 40
0.1481139475
 40
0.2202492477
 40
0.2863599892
 40
0.3464329621
 40
0.400212588
 40
0.4478720315
 40
0.4895701961
 40
0.5253774631
 40
0.555416948
 40
0.5797752693
 40
0.5981614097
 40
0.6109519758
 40
0.6188190291
 40
0.6234328456
 40
0.6287623483
 40
0.6380052777
 40
0.6521095845
 40
0.6714629131
 40
0.6959100699
 40
0.7254186827
 40
0.759952381
 40
0.7994102285
 40
0.8434497263
 40
0.8915752238
 40
0.9436170374
 40
1.0
 40
1.0
 40
1.0
 40
1.0
 10
28.8241796659
 20
45.6337192688
 30
0.0
 10
28.7844232106
 20
45.633708991
 30
0.0
 10
28.7033333232
 20
45.6334130209
 30
0.0
 10
28.5827552966
 20
45.6323050572
 30
0.0
 10
28.465745162
 20
45.6307129264
 30
0.0
 10
28.3571841435
 20
45.6288882405
 30
0.0
 10
28.2586745976
 20
45.6270453096
 30
0.0
 10
28.1702657374
 20
45.6253457076
 30
0.0
 10
28.0919134531
 20
45.6239486142
 30
0.0
 10
28.023392478
 20
45.6230068236
 30
0.0
 10
27.9645173878
 20
45.6227063978
 30
0.0
 10
27.915118902
 20
45.6231568462
 30
0.0
 10
27.875322225
 20
45.6246693632
 30
0.0
 10
27.8449199266
 20
45.6269380225
 30
0.0
 10
27.8239743044
 20
45.6309316469
 30
0.0
 10
27.8104528763
 20
45.6346534235
 30
0.0
 10
27.8037326845
 20
45.6437794743
 30
0.0
 10
27.8106352357
 20
45.6537853317
 30
0.0
 10
27.8230336783
 20
45.6625488944
 30
0.0
 10
27.8437686207
 20
45.6740024884
 30
0.0
 10
27.8726892335
 20
45.6867674924
 30
0.0
 10
27.9101932232
 20
45.7012088069
 30
0.0
 10
27.9560852011
 20
45.7167254516
 30
0.0
 10
28.0103975399
 20
45.7329404987
 30
0.0
 10
28.0729704533
 20
45.7491339066
 30
0.0
 10
28.1434307915
 20
45.7643487916
 30
0.0
 10
28.2213361532
 20
45.7773638609
 30
0.0
 10
28.3065644795
 20
45.7868549659
 30
0.0
 10
28.3659211349
 20
45.7895834153
 30
0.0
 10
28.3967883076
 20
45.7898900335
 30
0.0
  0
SPLINE
  5
2E5
100
AcDbEntity
  8
0
100
AcDbSpline
 62
7
  6
BYLAYER
 70
0
 71
3
 72
42
 73
38
 74
0
 42
0.0000001
 43
0.0000001
 44
0.0000000001
 40
0.0
 40
0.0
 40
0.0
 40
0.0
 40
0.0594577903
 40
0.1195918606
 40
0.1794868261
 40
0.2375287845
 40
0.2911794904
 40
0.3391323237
 40
0.3815106826
 40
0.41871891
 40
0.451195657
 40
0.4793222814
 40
0.5034496367
 40
0.5238888229
 40
0.5408645897
 40
0.5545463055
 40
0.5651149147
 40
0.572654277
 40
0.5780993974
 40
0.5830282876
 40
0.5891288738
 40
0.5973024804
 40
0.6081246005
 40
0.621734836
 40
0.6381733944
 40
0.6574075224
 40
0.6795083526
 40
0.7046294837
 40
0.7330740022
 40
0.7651123273
 40
0.8011648484
 40
0.8417261975
 40
0.8820241899
 40
0.916828169
 40
0.9461949844
 40
0.9729393741
 40
1.0
 40
1.0
 40
1.0
 40
1.0
 10
29.4809572935
 20
46.2054373684
 30
0.0
 10
29.4295959594
 20
46.2039433632
 30
0.0
 10
29.3263822614
 20
46.1967177318
 30
0.0
 10
29.1726597486
 20
46.1752881925
 30
0.0
 10
29.021733105
 20
46.1447889738
 30
0.0
 10
28.8781732355
 20
46.1073843954
 30
0.0
 10
28.7464638533
 20
46.0661593997
 30
0.0
 10
28.6293005773
 20
46.0241795337
 30
0.0
 10
28.5268710907
 20
45.9834295308
 30
0.0
 10
28.4380049127
 20
45.9449029567
 30
0.0
 10
28.3614328941
 20
45.9090747544
 30
0.0
 10
28.2960327576
 20
45.8761172192
 30
0.0
 10
28.2408703864
 20
45.8460309997
 30
0.0
 10
28.1952033281
 20
45.8187356504
 30
0.0
 10
28.1585174009
 20
45.7941129697
 30
0.0
 10
28.1304496466
 20
45.7720868248
 30
0.0
 10
28.1109663416
 20
45.7525782383
 30
0.0
 10
28.0995672492
 20
45.7354545334
 30
0.0
 10
28.0966970978
 20
45.7193794907
 30
0.0
 10
28.1037603863
 20
45.7060515578
 30
0.0
 10
28.1178065293
 20
45.6965885366
 30
0.0
 10
28.1382029185
 20
45.6889955622
 30
0.0
 10
28.1658266209
 20
45.6830729199
 30
0.0
 10
28.2009090321
 20
45.6787815844
 30
0.0
 10
28.2434421884
 20
45.6762070053
 30
0.0
 10
28.2933747926
 20
45.6754056363
 30
0.0
 10
28.3508054642
 20
45.6764969777
 30
0.0
 10
28.4161257614
 20
45.6797139309
 30
0.0
 10
28.4898917662
 20
45.6854442656
 30
0.0
 10
28.5728607717
 20
45.6942660132
 30
0.0
 10
28.665918885
 20
45.7068833653
 30
0.0
 10
28.7656363245
 20
45.723207012
 30
0.0
 10
28.8639934607
 20
45.7410024442
 30
0.0
 10
28.9529832367
 20
45.7562612849
 30
0.0
 10
29.0309629624
 20
45.7662160318
 30
0.0
 10
29.1027737208
 20
45.770437646
 30
0.0
 10
29.1493082697
 20
45.7699085169
 30
0.0
 10
29.172673876
 20
45.7689410432
 30
0.0
  0
SPLINE
  5
2E6
100
AcDbEntity
  8
0
100
AcDbSpline
 62
7
  6
BYLAYER
 70
0
 71
3
 72
14
 73
10
 74
0
 42
0.0000001
 43
0.0000001
 44
0.0000000001
 40
0.0
 40
0.0
 40
0.0
 40
0.0
 40
0.1439432879
 40
0.2777215471
 40
0.4021248785
 40
0.5190861449
 40
0.7362859427
 40
0.9340881147
 40
1.0
 40
1.0
 40
1.0
 40
1.0
 10
21.4557583817
 20
46.5154990559
 30
0.0
 10
21.6942137677
 20
46.5155182026
 30
0.0
 10
22.1542823639
 20
46.5176130979
 30
0.0
 10
22.8203890095
 20
46.525995983
 30
0.0
 10
23.4417297903
 20
46.5381338375
 30
0.0
 10
24.2011347083
 20
46.5575501586
 30
0.0
 10
25.0819229514
 20
46.5860737003
 30
0.0
 10
25.8780268776
 20
46.6162137366
 30
0.0
 10
26.3145586086
 20
46.6332520788
 30
0.0
 10
26.4236635081
 20
46.6375215474
 30
0.0
  0
SPLINE
  5
2E7
100
AcDbEntity
  8
0
100
AcDbSpline
 62
7
  6
BYLAYER
 70
0
 71
3
 72
56
 73
52
 74
0
 42
0.0000001
 43
0.0000001
 44
0.0000000001
 40
0.0
 40
0.0
 40
0.0
 40
0.0
 40
0.0131671601
 40
0.0258849093
 40
0.0388595572
 40
0.0528896418
 40
0.0685092429
 40
0.0859700258
 40
0.1051928716
 40
0.1264553252
 40
0.1503013574
 40
0.1772500848
 40
0.2075492484
 40
0.2411516741
 40
0.2784375199
 40
0.3167992695
 40
0.3519462105
 40
0.3828885032
 40
0.4106022231
 40
0.4354500311
 40
0.4577758111
 40
0.4778222618
 40
0.4958150124
 40
0.5119215601
 40
0.5262325145
 40
0.5387915225
 40
0.5496093354
 40
0.558604716
 40
0.5656359479
 40
0.5707304171
 40
0.5740493882
 40
0.5756740472
 40
0.5762819755
 40
0.5784678542
 40
0.5826107717
 40
0.5886786408
 40
0.5966383961
 40
0.6065120627
 40
0.6183784072
 40
0.6323568294
 40
0.6486256105
 40
0.6674395445
 40
0.6891266302
 40
0.7141091784
 40
0.7429363591
 40
0.7763343636
 40
0.8152080412
 40
0.860386896
 40
0.9085468591
 40
0.9557958062
 40
1.0
 40
1.0
 40
1.0
 40
1.0
 10
28.1117709421
 20
47.2565460666
 30
0.0
 10
28.090717079
 20
47.2547167377
 30
0.0
 10
28.0493488136
 20
47.2508521259
 30
0.0
 10
27.9874249265
 20
47.2433198221
 30
0.0
 10
27.9244076733
 20
47.2336161206
 30
0.0
 10
27.8569090595
 20
47.2224831717
 30
0.0
 10
27.7820679459
 20
47.2116353567
 30
0.0
 10
27.6985194404
 20
47.2030920345
 30
0.0
 10
27.6055251684
 20
47.1992649634
 30
0.0
 10
27.5022210792
 20
47.2025284319
 30
0.0
 10
27.3871821955
 20
47.2157251062
 30
0.0
 10
27.2594807564
 20
47.2416610474
 30
0.0
 10
27.1191679928
 20
47.2817681123
 30
0.0
 10
26.9658493943
 20
47.3354871219
 30
0.0
 10
26.8021912996
 20
47.3984371761
 30
0.0
 10
26.6362140034
 20
47.4622647729
 30
0.0
 10
26.4785143922
 20
47.5191966539
 30
0.0
 10
26.3355406464
 20
47.5664270919
 30
0.0
 10
26.2071231928
 20
47.6048442903
 30
0.0
 10
26.0910448614
 20
47.6360836442
 30
0.0
 10
25.9861373415
 20
47.6613191661
 30
0.0
 10
25.8913729173
 20
47.6815316325
 30
0.0
 10
25.8059500824
 20
47.6975461436
 30
0.0
 10
25.7292479849
 20
47.7100152071
 30
0.0
 10
25.6609230865
 20
47.7194466129
 30
0.0
 10
25.6007822282
 20
47.7262785167
 30
0.0
 10
25.549113075
 20
47.7307896934
 30
0.0
 10
25.5058319505
 20
47.7334706809
 30
0.0
 10
25.4726312132
 20
47.7341397651
 30
0.0
 10
25.4462207734
 20
47.7344213403
 30
0.0
 10
25.4333328078
 20
47.7319872009
 30
0.0
 10
25.419803002
 20
47.7320961787
 30
0.0
 10
25.4230877532
 20
47.7240694948
 30
0.0
 10
25.4360975052
 20
47.7246089998
 30
0.0
 10
25.45439607
 20
47.71965853
 30
0.0
 10
25.4840999714
 20
47.7178817825
 30
0.0
 10
25.5221276167
 20
47.7151425634
 30
0.0
 10
25.5698673715
 20
47.7135707083
 30
0.0
 10
25.6271567472
 20
47.7126272299
 30
0.0
 10
25.6947634949
 20
47.7127780322
 30
0.0
 10
25.7734929171
 20
47.7141598716
 30
0.0
 10
25.86456567
 20
47.7170732377
 30
0.0
 10
25.9695617146
 20
47.7218097812
 30
0.0
 10
26.0905412525
 20
47.7286770349
 30
0.0
 10
26.2302008117
 20
47.7379852513
 30
0.0
 10
26.3920231562
 20
47.7499441771
 30
0.0
 10
26.5799716208
 20
47.7644444035
 30
0.0
 10
26.7916026795
 20
47.7799946678
 30
0.0
 10
27.0168580593
 20
47.7934473385
 30
0.0
 10
27.2408352634
 20
47.8011643926
 30
0.0
 10
27.387662425
 20
47.8010008852
 30
0.0
 10
27.4585910235
 20
47.799368555
 30
0.0
  0
SPLINE
  5
2E8
100
AcDbEntity
  8
0
100
AcDbSpline
 62
7
  6
BYLAYER
 70
0
 71
3
 72
49
 73
45
 74
0
 42
0.0000001
 43
0.0000001
 44
0.0000000001
 40
0.0
 40
0.0
 40
0.0
 40
0.0
 40
0.0493879981
 40
0.1000034756
 40
0.1481898431
 40
0.1908496202
 40
0.2274223937
 40
0.2589963145
 40
0.2861489267
 40
0.3094694256
 40
0.329426097
 40
0.346368294
 40
0.3606043557
 40
0.3724215551
 40
0.3820957694
 40
0.3900490741
 40
0.3969075053
 40
0.403523949
 40
0.4106597717
 40
0.4190326099
 40
0.4291890849
 40
0.4415397941
 40
0.4561441136
 40
0.4730538084
 40
0.4923249612
 40
0.5141353466
 40
0.5387586459
 40
0.5665442522
 40
0.5979660953
 40
0.6336009806
 40
0.6734983279
 40
0.7162748435
 40
0.7575320595
 40
0.7948064015
 40
0.827734779
 40
0.8571020749
 40
0.8834903594
 40
0.9070890669
 40
0.9280101229
 40
0.9462516495
 40
0.9621392186
 40
0.9760343806
 40
0.988458347
 40
1.0
 40
1.0
 40
1.0
 40
1.0
 10
28.4501526523
 20
46.7611660548
 30
0.0
 10
28.3806158718
 20
46.7792873095
 30
0.0
 10
28.2410527692
 20
46.8208356581
 30
0.0
 10
28.0380544456
 20
46.8937495335
 30
0.0
 10
27.8475303261
 20
46.9717687861
 30
0.0
 10
27.678494849
 20
47.0479872123
 30
0.0
 10
27.5335682415
 20
47.118672964
 30
0.0
 10
27.4107957723
 20
47.1831680394
 30
0.0
 10
27.306982244
 20
47.242157613
 30
0.0
 10
27.2199007271
 20
47.2962347395
 30
0.0
 10
27.1477530024
 20
47.3460265446
 30
0.0
 10
27.0892126857
 20
47.392045445
 30
0.0
 10
27.0433204747
 20
47.4346970095
 30
0.0
 10
27.0094024024
 20
47.4742938303
 30
0.0
 10
26.9870169576
 20
47.511127104
 30
0.0
 10
26.9759168401
 20
47.5454572006
 30
0.0
 10
26.9761055453
 20
47.5772622461
 30
0.0
 10
26.9870852082
 20
47.6058110261
 30
0.0
 10
27.0076585345
 20
47.6310866093
 30
0.0
 10
27.0374908434
 20
47.6539386155
 30
0.0
 10
27.0773802583
 20
47.6749440946
 30
0.0
 10
27.1279820152
 20
47.6940705944
 30
0.0
 10
27.1895499003
 20
47.7111300884
 30
0.0
 10
27.2619891977
 20
47.7259325855
 30
0.0
 10
27.3454735357
 20
47.7383885515
 30
0.0
 10
27.4405716327
 20
47.7484081276
 30
0.0
 10
27.5483286406
 20
47.7557951765
 30
0.0
 10
27.6702507828
 20
47.7600351672
 30
0.0
 10
27.8082762454
 20
47.7600615301
 30
0.0
 10
27.9638204182
 20
47.7538120872
 30
0.0
 10
28.1353331009
 20
47.7380226619
 30
0.0
 10
28.3135710332
 20
47.7096888494
 30
0.0
 10
28.4855535683
 20
47.669298061
 30
0.0
 10
28.6405548213
 20
47.6212000994
 30
0.0
 10
28.7761245331
 20
47.5699194227
 30
0.0
 10
28.8945068465
 20
47.5184842531
 30
0.0
 10
28.9986026942
 20
47.4684868495
 30
0.0
 10
29.0904048517
 20
47.4213962121
 30
0.0
 10
29.1713383571
 20
47.3791074423
 30
0.0
 10
29.2428995605
 20
47.3431053094
 30
0.0
 10
29.3066661734
 20
47.3144414368
 30
0.0
 10
29.3647451998
 20
47.2940875024
 30
0.0
 10
29.4191033372
 20
47.2836107659
 30
0.0
 10
29.4542744443
 20
47.2839918417
 30
0.0
 10
29.4709488404
 20
47.2859843772
 30
0.0
  0
SPLINE
  5
2E9
100
AcDbEntity
  8
0
100
AcDbSpline
 62
7
  6
BYLAYER
 70
0
 71
3
 72
15
 73
11
 74
0
 42
0.0000001
 43
0.0000001
 44
0.0000000001
 40
0.0
 40
0.0
 40
0.0
 40
0.0
 40
0.0849830585
 40
0.1762349021
 40
0.2774896127
 40
0.3933039454
 40
0.5267375053
 40
0.6756611531
 40
0.8354437996
 40
1.0
 40
1.0
 40
1.0
 40
1.0
 10
29.5757442648
 20
46.6882724131
 30
0.0
 10
29.5437769558
 20
46.6912387048
 30
0.0
 10
29.4772046601
 20
46.6948014102
 30
0.0
 10
29.3723479131
 20
46.6918379566
 30
0.0
 10
29.2561443444
 20
46.6839596682
 30
0.0
 10
29.1238855758
 20
46.6770663549
 30
0.0
 10
28.9733513197
 20
46.6775653943
 30
0.0
 10
28.8066510592
 20
46.6905057909
 30
0.0
 10
28.6298375509
 20
46.7180903716
 30
0.0
 10
28.510309061
 20
46.7454893209
 30
0.0
 10
28.4501526523
 20
46.7611660548
 30
0.0
  0
SPLINE
  5
2EA
100
AcDbEntity
  8
0
100
AcDbSpline
 62
7
  6
BYLAYER
 70
0
 71
3
 72
114
 73
110
 74
0
 42
0.0000001
 43
0.0000001
 44
0.0000000001
 40
0.0
 40
0.0
 40
0.0
 40
0.0
 40
0.0005413013
 40
0.0010109297
 40
0.0017148281
 40
0.0023474934
 40
0.0031307306
 40
0.004090046
 40
0.0052173156
 40
0.0064344027
 40
0.0076780137
 40
0.0089649188
 40
0.0102302338
 40
0.0114072772
 40
0.0128447063
 40
0.014134267
 40
0.0151887812
 40
0.0160370138
 40
0.0167146066
 40
0.0172552581
 40
0.0178954213
 40
0.0185559025
 40
0.0192305739
 40
0.0198222124
 40
0.0205994295
 40
0.0216618785
 40
0.0224793689
 40
0.0233307257
 40
0.0243441285
 40
0.0255501066
 40
0.0269833611
 40
0.0285615843
 40
0.0293172166
 40
0.0301564802
 40
0.0310828477
 40
0.0320997033
 40
0.0332102811
 40
0.0344176071
 40
0.0357244467
 40
0.0371332562
 40
0.0386461397
 40
0.0402648106
 40
0.0419905622
 40
0.0438242417
 40
0.0457662258
 40
0.0478164026
 40
0.0499741576
 40
0.0522383649
 40
0.0546073818
 40
0.057079049
 40
0.0596506932
 40
0.0623191522
 40
0.0650809782
 40
0.067932387
 40
0.0708691412
 40
0.0738865616
 40
0.0769795449
 40
0.0801425821
 40
0.0833697797
 40
0.0866548823
 40
0.0899913403
 40
0.0933726422
 40
0.0967921472
 40
0.1002429349
 40
0.1037178227
 40
0.1072093866
 40
0.1107099812
 40
0.1142117605
 40
0.1177066986
 40
0.1211866105
 40
0.1246431723
 40
0.1280679422
 40
0.1314523796
 40
0.133882904
 40
0.1357691562
 40
0.1377524883
 40
0.1399178555
 40
0.1423522042
 40
0.1451448383
 40
0.1483879095
 40
0.152176998
 40
0.1566117564
 40
0.1617968801
 40
0.1678429944
 40
0.1748672454
 40
0.1829938894
 40
0.1923546646
 40
0.203088833
 40
0.2153427652
 40
0.229268922
 40
0.2450246024
 40
0.262773947
 40
0.2826851901
 40
0.3049257639
 40
0.3296578063
 40
0.3570397737
 40
0.3872266304
 40
0.4203573916
 40
0.4565593406
 40
0.4959591676
 40
0.5386685296
 40
0.5818960346
 40
0.6289551212
 40
0.6821586108
 40
0.743429284
 40
0.8105055505
 40
0.8793739367
 40
0.9439039891
 40
1.0
 40
1.0
 40
1.0
 40
1.0
 10
24.6487628521
 20
49.8003980502
 30
0.0
 10
24.6481279003
 20
49.7992919032
 30
0.0
 10
24.6461125186
 20
49.7976862927
 30
0.0
 10
24.6421293487
 20
49.7968343495
 30
0.0
 10
24.637852805
 20
49.796789302
 30
0.0
 10
24.6328786061
 20
49.7972614916
 30
0.0
 10
24.6273456343
 20
49.79812344
 30
0.0
 10
24.6207167436
 20
49.7994662064
 30
0.0
 10
24.6131469722
 20
49.8012872068
 30
0.0
 10
24.604989097
 20
49.8035092873
 30
0.0
 10
24.5965291541
 20
49.8060424927
 30
0.0
 10
24.588021584
 20
49.8088038525
 30
0.0
 10
24.579709728
 20
49.811654889
 30
0.0
 10
24.5710923229
 20
49.814706647
 30
0.0
 10
24.5624449658
 20
49.8178432684
 30
0.0
 10
24.554053705
 20
49.8208413137
 30
0.0
 10
24.546914232
 20
49.8232087515
 30
0.0
 10
24.5410565563
 20
49.8248628921
 30
0.0
 10
24.5363125993
 20
49.8259215473
 30
0.0
 10
24.5319337875
 20
49.8265340181
 30
0.0
 10
24.5277587585
 20
49.8267594909
 30
0.0
 10
24.5224042161
 20
49.8251970041
 30
0.0
 10
24.5229260785
 20
49.8196906078
 30
0.0
 10
24.5252448411
 20
49.8156311055
 30
0.0
 10
24.5285277154
 20
49.8108623348
 30
0.0
 10
24.5325701159
 20
49.8060960783
 30
0.0
 10
24.536925731
 20
49.8013528056
 30
0.0
 10
24.5413359664
 20
49.7968261592
 30
0.0
 10
24.5465013032
 20
49.7917584786
 30
0.0
 10
24.5527661156
 20
49.7858567313
 30
0.0
 10
24.5601183677
 20
49.7791706563
 30
0.0
 10
24.5667718949
 20
49.773295123
 30
0.0
 10
24.5724178822
 20
49.7683938225
 30
0.0
 10
24.5769240044
 20
49.7645225311
 30
0.0
 10
24.5819182563
 20
49.7602750228
 30
0.0
 10
24.5874218383
 20
49.7556397602
 30
0.0
 10
24.5934549302
 20
49.7506056774
 30
0.0
 10
24.6000363782
 20
49.7451624113
 30
0.0
 10
24.6071833759
 20
49.7393004973
 30
0.0
 10
24.6149111663
 20
49.7330115297
 30
0.0
 10
24.6232328581
 20
49.7262884124
 30
0.0
 10
24.6321589172
 20
49.7191251348
 30
0.0
 10
24.641698601
 20
49.7115189089
 30
0.0
 10
24.6518596123
 20
49.7034700783
 30
0.0
 10
24.6626468658
 20
49.6949808397
 30
0.0
 10
24.6740626506
 20
49.686055658
 30
0.0
 10
24.686106449
 20
49.6767011965
 30
0.0
 10
24.6987748896
 20
49.666926362
 30
0.0
 10
24.7120616833
 20
49.6567422804
 30
0.0
 10
24.725957622
 20
49.6461623033
 30
0.0
 10
24.7404505051
 20
49.6352018038
 30
0.0
 10
24.7555259407
 20
49.6238783366
 30
0.0
 10
24.7711653567
 20
49.6122082856
 30
0.0
 10
24.7873470169
 20
49.6002080146
 30
0.0
 10
24.804046864
 20
49.5878956013
 30
0.0
 10
24.821238068
 20
49.5752905793
 30
0.0
 10
24.8388912068
 20
49.5624139885
 30
0.0
 10
24.8569743602
 20
49.5492882778
 30
0.0
 10
24.8754532389
 20
49.5359372302
 30
0.0
 10
24.8942914249
 20
49.5223858479
 30
0.0
 10
24.9134511108
 20
49.5086596739
 30
0.0
 10
24.9328941391
 20
49.494785302
 30
0.0
 10
24.9525816283
 20
49.4807898073
 30
0.0
 10
24.9724732376
 20
49.4667009295
 30
0.0
 10
24.9925269982
 20
49.452547293
 30
0.0
 10
25.0126994171
 20
49.4383583134
 30
0.0
 10
25.0329456012
 20
49.4241641231
 30
0.0
 10
25.053219379
 20
49.4099954908
 30
0.0
 10
25.0734734247
 20
49.395883743
 30
0.0
 10
25.0936593823
 20
49.3818606859
 30
0.0
 10
25.1137279888
 20
49.3679585287
 30
0.0
 10
25.1336291969
 20
49.3542098082
 30
0.0
 10
25.151556458
 20
49.3418571637
 30
0.0
 10
25.1665090871
 20
49.331576566
 30
0.0
 10
25.1787475621
 20
49.3231754084
 30
0.0
 10
25.1904762107
 20
49.315135509
 30
0.0
 10
25.2032761197
 20
49.30637427
 30
0.0
 10
25.2176570365
 20
49.2965467994
 30
0.0
 10
25.2341439874
 20
49.2853005192
 30
0.0
 10
25.2532804019
 20
49.2722737459
 30
0.0
 10
25.275631878
 20
49.2570940564
 30
0.0
 10
25.3017909438
 20
49.2393761164
 30
0.0
 10
25.3323827328
 20
49.2187195818
 30
0.0
 10
25.3680705983
 20
49.1947071567
 30
0.0
 10
25.4095610032
 20
49.1669032086
 30
0.0
 10
25.4576077
 20
49.13485354
 30
0.0
 10
25.5130149925
 20
49.0980861645
 30
0.0
 10
25.5766392692
 20
49.0561138268
 30
0.0
 10
25.6493880676
 20
49.0084388171
 30
0.0
 10
25.7322169147
 20
48.9545600767
 30
0.0
 10
25.8261313179
 20
48.8939779372
 30
0.0
 10
25.9321863041
 20
48.8262028153
 30
0.0
 10
26.0514785233
 20
48.7507685712
 30
0.0
 10
26.1851262619
 20
48.6672558196
 30
0.0
 10
26.3342588426
 20
48.5753115258
 30
0.0
 10
26.5000176532
 20
48.4746655722
 30
0.0
 10
26.6835418634
 20
48.3651597167
 30
0.0
 10
26.8859563164
 20
48.2467701726
 30
0.0
 10
27.1084001323
 20
48.1196508134
 30
0.0
 10
27.3520713224
 20
47.9842240386
 30
0.0
 10
27.6121918862
 20
47.8443685767
 30
0.0
 10
27.8906164915
 20
47.7005294947
 30
0.0
 10
28.1939323304
 20
47.5511111477
 30
0.0
 10
28.5394627222
 20
47.3913953176
 30
0.0
 10
28.9335261468
 20
47.2246696087
 30
0.0
 10
29.3694474643
 20
47.0631361549
 30
0.0
 10
29.8217502347
 20
46.9255673852
 30
0.0
 10
30.2581412691
 20
46.8289105035
 30
0.0
 10
30.541107634
 20
46.7948491845
 30
0.0
 10
30.6731340632
 20
46.7885795789
 30
0.0
  0
SPLINE
  5
2EB
100
AcDbEntity
  8
0
100
AcDbSpline
 62
7
  6
BYLAYER
 70
0
 71
3
 72
76
 73
72
 74
0
 42
0.0000001
 43
0.0000001
 44
0.0000000001
 40
0.0
 40
0.0
 40
0.0
 40
0.0
 40
0.0532192182
 40
0.1020074367
 40
0.1468835885
 40
0.1881536617
 40
0.2260133809
 40
0.2607813331
 40
0.2927548099
 40
0.3221985847
 40
0.3493375818
 40
0.3743608322
 40
0.3974443147
 40
0.4186720227
 40
0.4379183961
 40
0.4547280197
 40
0.4754317535
 40
0.4990185572
 40
0.5248507424
 40
0.552872143
 40
0.5811217785
 40
0.6344014452
 40
0.6770322265
 40
0.6926539389
 40
0.7007724897
 40
0.7121581929
 40
0.7249384139
 40
0.7379549048
 40
0.750427613
 40
0.7619198491
 40
0.7722278265
 40
0.7812985451
 40
0.7891697236
 40
0.7959265123
 40
0.8016705664
 40
0.80649955
 40
0.8105410587
 40
0.8169316616
 40
0.8225380702
 40
0.82368769
 40
0.8287487844
 40
0.8351524844
 40
0.8400317733
 40
0.8418138425
 40
0.8463999614
 40
0.8483018606
 40
0.851375485
 40
0.853461897
 40
0.8550460346
 40
0.8565536417
 40
0.857996312
 40
0.8592241611
 40
0.8602717087
 40
0.8611061378
 40
0.861700143
 40
0.8629418026
 40
0.8643342429
 40
0.8663173609
 40
0.8689729962
 40
0.872388738
 40
0.8766641134
 40
0.8819123147
 40
0.8882620594
 40
0.8958596851
 40
0.9048715268
 40
0.915481535
 40
0.9278803246
 40
0.9422785805
 40
0.9589134046
 40
0.978046159
 40
1.0
 40
1.0
 40
1.0
 40
1.0
 10
24.6487628521
 20
49.8003980502
 30
0.0
 10
24.6435058085
 20
49.7899878724
 30
0.0
 10
24.6329718284
 20
49.7702587573
 30
0.0
 10
24.6163180058
 20
49.74269867
 30
0.0
 10
24.5999223131
 20
49.7180855358
 30
0.0
 10
24.5843746506
 20
49.6957968912
 30
0.0
 10
24.5696194155
 20
49.6756623411
 30
0.0
 10
24.555526424
 20
49.6575804697
 30
0.0
 10
24.5421063315
 20
49.6413238791
 30
0.0
 10
24.5293565416
 20
49.6266910515
 30
0.0
 10
24.5172733699
 20
49.6135060988
 30
0.0
 10
24.5058761893
 20
49.601587587
 30
0.0
 10
24.4950507991
 20
49.5909228877
 30
0.0
 10
24.4850699725
 20
49.5812155234
 30
0.0
 10
24.4748228322
 20
49.5737555958
 30
0.0
 10
24.467768825
 20
49.5633010385
 30
0.0
 10
24.4569256638
 20
49.5552419749
 30
0.0
 10
24.4454150486
 20
49.5450963726
 30
0.0
 10
24.432660876
 20
49.5339206789
 30
0.0
 10
24.4185015463
 20
49.5226575846
 30
0.0
 10
24.3999025478
 20
49.5082658283
 30
0.0
 10
24.3750685576
 20
49.49062724
 30
0.0
 10
24.3622193243
 20
49.4817307799
 30
0.0
 10
24.3398021392
 20
49.4674676959
 30
0.0
 10
24.3492937719
 20
49.4734660296
 30
0.0
 10
24.3543520256
 20
49.4767451009
 30
0.0
 10
24.361455213
 20
49.4814034503
 30
0.0
 10
24.3683386657
 20
49.4860216921
 30
0.0
 10
24.3750492781
 20
49.4906092573
 30
0.0
 10
24.3812061976
 20
49.4949001092
 30
0.0
 10
24.3867256045
 20
49.4988142463
 30
0.0
 10
24.3915693479
 20
49.5023058867
 30
0.0
 10
24.395761729
 20
49.5053716969
 30
0.0
 10
24.3993442862
 20
49.5080332536
 30
0.0
 10
24.4023880211
 20
49.5103102962
 30
0.0
 10
24.4049111889
 20
49.5122662492
 30
0.0
 10
24.4076428267
 20
49.5142593077
 30
0.0
 10
24.4099263615
 20
49.5167299175
 30
0.0
 10
24.4134053694
 20
49.5177984268
 30
0.0
 10
24.4131467843
 20
49.5208972639
 30
0.0
 10
24.409488531
 20
49.517262776
 30
0.0
 10
24.4070204463
 20
49.5172276122
 30
0.0
 10
24.4037879767
 20
49.5141374875
 30
0.0
 10
24.4024125767
 20
49.5170105733
 30
0.0
 10
24.4056037013
 20
49.5182333971
 30
0.0
 10
24.4034827838
 20
49.5200210809
 30
0.0
 10
24.4019982077
 20
49.5194326196
 30
0.0
 10
24.4003587734
 20
49.51978765
 30
0.0
 10
24.399901594
 20
49.520893981
 30
0.0
 10
24.3993378544
 20
49.521729448
 30
0.0
 10
24.3985024161
 20
49.5221651419
 30
0.0
 10
24.3979482084
 20
49.5227563201
 30
0.0
 10
24.397413811
 20
49.5232177946
 30
0.0
 10
24.397090273
 20
49.5235712879
 30
0.0
 10
24.3965038632
 20
49.5241201267
 30
0.0
 10
24.3977934617
 20
49.5239250458
 30
0.0
 10
24.398435458
 20
49.5234139711
 30
0.0
 10
24.3996866776
 20
49.5227720349
 30
0.0
 10
24.4011575706
 20
49.5218581065
 30
0.0
 10
24.4031038826
 20
49.5206699179
 30
0.0
 10
24.4054977115
 20
49.5191591153
 30
0.0
 10
24.4084328277
 20
49.517289188
 30
0.0
 10
24.4119687268
 20
49.5150117899
 30
0.0
 10
24.4161904202
 20
49.512274558
 30
0.0
 10
24.4211875868
 20
49.5090178693
 30
0.0
 10
24.427059811
 20
49.5051767722
 30
0.0
 10
24.4339112959
 20
49.5006765641
 30
0.0
 10
24.4418558997
 20
49.4954357435
 30
0.0
 10
24.45101961
 20
49.489363183
 30
0.0
 10
24.4615482712
 20
49.482353112
 30
0.0
 10
24.4690314029
 20
49.4773464118
 30
0.0
 10
24.4730269642
 20
49.4746668448
 30
0.0
  0
SPLINE
  5
2EC
100
AcDbEntity
  8
0
100
AcDbSpline
 62
7
  6
BYLAYER
 70
0
 71
3
 72
15
 73
11
 74
0
 42
0.0000001
 43
0.0000001
 44
0.0000000001
 40
0.0
 40
0.0
 40
0.0
 40
0.0
 40
0.1580475182
 40
0.3068921382
 40
0.4456425175
 40
0.5699051891
 40
0.6821242887
 40
0.7878811281
 40
0.8930667108
 40
1.0
 40
1.0
 40
1.0
 40
1.0
 10
24.4762366716
 20
49.5437382262
 30
0.0
 10
24.4327487297
 20
49.5651492883
 30
0.0
 10
24.3487866497
 20
49.6077428506
 30
0.0
 10
24.2297562169
 20
49.6750196719
 30
0.0
 10
24.1235507925
 20
49.7436451711
 30
0.0
 10
24.0329210186
 20
49.8148464305
 30
0.0
 10
23.9582839825
 20
49.8892645475
 30
0.0
 10
23.8995523798
 20
49.9691553934
 30
0.0
 10
23.8499437042
 20
50.0543497039
 30
0.0
 10
23.8369555316
 20
50.1187550246
 30
0.0
 10
23.8281381006
 20
50.1503438359
 30
0.0
  0
SPLINE
  5
2ED
100
AcDbEntity
  8
0
100
AcDbSpline
 62
7
  6
BYLAYER
 70
0
 71
3
 72
30
 73
26
 74
0
 42
0.0000001
 43
0.0000001
 44
0.0000000001
 40
0.0
 40
0.0
 40
0.0
 40
0.0
 40
0.1103131998
 40
0.208474759
 40
0.2962277381
 40
0.3749012339
 40
0.4453944733
 40
0.5084511225
 40
0.5647463856
 40
0.6148841687
 40
0.6593701176
 40
0.6987168638
 40
0.7333995276
 40
0.763754564
 40
0.7900529649
 40
0.8124889378
 40
0.8314633395
 40
0.8479234064
 40
0.8633337776
 40
0.8789986266
 40
0.8963543684
 40
0.9166603957
 40
0.9408154558
 40
0.9689803267
 40
1.0
 40
1.0
 40
1.0
 40
1.0
 10
25.7538515489
 20
48.3779230761
 30
0.0
 10
25.6745633869
 20
48.4025304216
 30
0.0
 10
25.5259283796
 20
48.4530214933
 30
0.0
 10
25.3184065473
 20
48.5346500089
 30
0.0
 10
25.1362389457
 20
48.6151839362
 30
0.0
 10
24.9760055477
 20
48.6934823303
 30
0.0
 10
24.8351455573
 20
48.7688361677
 30
0.0
 10
24.7116785822
 20
48.8407929231
 30
0.0
 10
24.6039858404
 20
48.9092097186
 30
0.0
 10
24.5107506163
 20
48.9741383756
 30
0.0
 10
24.4308574043
 20
49.0357141521
 30
0.0
 10
24.3634297617
 20
49.0941890496
 30
0.0
 10
24.3078122154
 20
49.1497816395
 30
0.0
 10
24.2636244206
 20
49.2025826505
 30
0.0
 10
24.2308239573
 20
49.2524534838
 30
0.0
 10
24.2094427217
 20
49.2989812453
 30
0.0
 10
24.1991540415
 20
49.3416477014
 30
0.0
 10
24.1991716763
 20
49.3803228642
 30
0.0
 10
24.2088300903
 20
49.4152391336
 30
0.0
 10
24.2279979685
 20
49.446747708
 30
0.0
 10
24.2570807913
 20
49.4749358919
 30
0.0
 10
24.296889209
 20
49.499569447
 30
0.0
 10
24.3478473051
 20
49.5199148289
 30
0.0
 10
24.4088303377
 20
49.5351907299
 30
0.0
 10
24.4530156707
 20
49.5413390872
 30
0.0
 10
24.4762366716
 20
49.5437382262
 30
0.0
  0
SPLINE
  5
2EE
100
AcDbEntity
  8
0
100
AcDbSpline
 62
7
  6
BYLAYER
 70
0
 71
3
 72
13
 73
9
 74
0
 42
0.0000001
 43
0.0000001
 44
0.0000000001
 40
0.0
 40
0.0
 40
0.0
 40
0.0
 40
0.1249628891
 40
0.2655132472
 40
0.4221202816
 40
0.5952291921
 40
0.786455686
 40
1.0
 40
1.0
 40
1.0
 40
1.0
 10
28.809890557
 20
47.7922097889
 30
0.0
 10
28.7178776836
 20
47.7854685935
 30
0.0
 10
28.5204122821
 20
47.7943871328
 30
0.0
 10
28.2155954688
 20
47.8649304814
 30
0.0
 10
27.8907162877
 20
47.989309874
 30
0.0
 10
27.542721176
 20
48.1534140068
 30
0.0
 10
27.1627813799
 20
48.3472315545
 30
0.0
 10
26.9040850795
 20
48.498628088
 30
0.0
 10
26.7594858139
 20
48.5614558104
 30
0.0
  0
SPLINE
  5
2EF
100
AcDbEntity
  8
0
100
AcDbSpline
 62
7
  6
BYLAYER
 70
0
 71
3
 72
13
 73
9
 74
0
 42
0.0000001
 43
0.0000001
 44
0.0000000001
 40
0.0
 40
0.0
 40
0.0
 40
0.0
 40
0.1939982153
 40
0.3798514825
 40
0.5535049026
 40
0.7131860047
 40
0.8603082274
 40
1.0
 40
1.0
 40
1.0
 40
1.0
 10
29.4807768502
 20
47.26139906
 30
0.0
 10
29.484885747
 20
47.3337063576
 30
0.0
 10
29.5052809194
 20
47.4749378815
 30
0.0
 10
29.5719761511
 20
47.6717981765
 30
0.0
 10
29.6707167525
 20
47.8403816157
 30
0.0
 10
29.796685114
 20
47.9709204885
 30
0.0
 10
29.9437186457
 20
48.0547957629
 30
0.0
 10
30.0516060034
 20
48.074462976
 30
0.0
 10
30.103756121
 20
48.074462976
 30
0.0
  0
SPLINE
  5
2F0
100
AcDbEntity
  8
0
100
AcDbSpline
 62
7
  6
BYLAYER
 70
0
 71
3
 72
11
 73
7
 74
0
 42
0.0000001
 43
0.0000001
 44
0.0000000001
 40
0.0
 40
0.0
 40
0.0
 40
0.0
 40
0.2448720791
 40
0.4937796034
 40
0.7458087264
 40
1.0
 40
1.0
 40
1.0
 40
1.0
 10
29.5343782566
 20
47.5926141585
 30
0.0
 10
29.5258497067
 20
47.5684386164
 30
0.0
 10
29.510380999
 20
47.5190940839
 30
0.0
 10
29.4921018846
 20
47.4431512165
 30
0.0
 10
29.4786285968
 20
47.3652260135
 30
0.0
 10
29.4729595332
 20
47.3125141715
 30
0.0
 10
29.4709488404
 20
47.2859843772
 30
0.0
  0
SPLINE
  5
2F1
100
AcDbEntity
  8
0
100
AcDbSpline
 62
7
  6
BYLAYER
 70
0
 71
3
 72
33
 73
29
 74
0
 42
0.0000001
 43
0.0000001
 44
0.0000000001
 40
0.0
 40
0.0
 40
0.0
 40
0.0
 40
0.0348563759
 40
0.070330343
 40
0.1062630258
 40
0.1424884077
 40
0.2151020601
 40
0.2868298695
 40
0.3563615709
 40
0.3899928459
 40
0.4226992886
 40
0.4850045018
 40
0.514641208
 40
0.5432728158
 40
0.5709786343
 40
0.5978984214
 40
0.6242027859
 40
0.6500929583
 40
0.6758057758
 40
0.7015925281
 40
0.727688842
 40
0.7543133397
 40
0.8097893785
 40
0.8691121191
 40
0.9003767386
 40
0.9326623215
 40
0.9658999947
 40
1.0
 40
1.0
 40
1.0
 40
1.0
 10
30.6731346309
 20
46.7885795772
 30
0.0
 10
30.6825258503
 20
46.8152081463
 30
0.0
 10
30.6993816333
 20
46.8696532993
 30
0.0
 10
30.7186939885
 20
46.953580979
 30
0.0
 10
30.7321612883
 20
47.0397612361
 30
0.0
 10
30.7421032173
 20
47.1566442189
 30
0.0
 10
30.7391391201
 20
47.303334197
 30
0.0
 10
30.7118777613
 20
47.4749028198
 30
0.0
 10
30.6693140888
 20
47.6105946812
 30
0.0
 10
30.6241712701
 20
47.7110481472
 30
0.0
 10
30.5737106221
 20
47.8022687993
 30
0.0
 10
30.5132775579
 20
47.8840042553
 30
0.0
 10
30.4439103202
 20
47.9529160678
 30
0.0
 10
30.3894135599
 20
47.9964774401
 30
0.0
 10
30.3320558264
 20
48.0322088079
 30
0.0
 10
30.2724437138
 20
48.0598396634
 30
0.0
 10
30.2111603826
 20
48.0791258515
 30
0.0
 10
30.1487856264
 20
48.0898188054
 30
0.0
 10
30.0859425245
 20
48.0916648021
 30
0.0
 10
30.0232923814
 20
48.0847721451
 30
0.0
 10
29.961443963
 20
48.0692598145
 30
0.0
 10
29.8798096096
 20
48.036836518
 30
0.0
 10
29.7825417063
 20
47.9741677382
 30
0.0
 10
29.6989745916
 20
47.889265563
 30
0.0
 10
29.6400085812
 20
47.8089910872
 30
0.0
 10
29.5994520492
 20
47.74180424
 30
0.0
 10
29.5637096822
 20
47.6693918417
 30
0.0
 10
29.5435778985
 20
47.6186490626
 30
0.0
 10
29.5343784962
 20
47.5926141623
 30
0.0
  0
SPLINE
  5
2F2
100
AcDbEntity
  8
0
100
AcDbSpline
 62
7
  6
BYLAYER
 70
0
 71
3
 72
26
 73
22
 74
0
 42
0.0000001
 43
0.0000001
 44
0.0000000001
 40
0.0
 40
0.0
 40
0.0
 40
0.0
 40
0.0335291523
 40
0.066449861
 40
0.1672033162
 40
0.2151286864
 40
0.2614287154
 40
0.3062316539
 40
0.3497635039
 40
0.3923001564
 40
0.4341670208
 40
0.4757470857
 40
0.5174467111
 40
0.5596469282
 40
0.6027012702
 40
0.6924113
 40
0.7883418197
 40
0.8388996881
 40
0.891108553
 40
0.9448570396
 40
1.0
 40
1.0
 40
1.0
 40
1.0
 10
29.5757442648
 20
46.6882724131
 30
0.0
 10
29.5829575437
 20
46.6731005428
 30
0.0
 10
29.5979978704
 20
46.64341265
 30
0.0
 10
29.639779286
 20
46.5708431364
 30
0.0
 10
29.6942369477
 20
46.4971868754
 30
0.0
 10
29.7636021953
 20
46.4282781358
 30
0.0
 10
29.8180993016
 20
46.3847161865
 30
0.0
 10
29.875456919
 20
46.3489849659
 30
0.0
 10
29.9350690337
 20
46.3213540725
 30
0.0
 10
29.9963523374
 20
46.302067894
 30
0.0
 10
30.0587270745
 20
46.2913749376
 30
0.0
 10
30.1215701561
 20
46.2895289416
 30
0.0
 10
30.1842202804
 20
46.2964215986
 30
0.0
 10
30.2460686809
 20
46.3119339294
 30
0.0
 10
30.3277030136
 20
46.3443572266
 30
0.0
 10
30.424970894
 20
46.4070260082
 30
0.0
 10
30.508537989
 20
46.4919281817
 30
0.0
 10
30.5675039884
 20
46.5722026558
 30
0.0
 10
30.6080605147
 20
46.6393895026
 30
0.0
 10
30.6438028783
 20
46.7118019004
 30
0.0
 10
30.663934661
 20
46.7625446789
 30
0.0
 10
30.6731340632
 20
46.7885795789
 30
0.0
  0
SPLINE
  5
2F3
100
AcDbEntity
  8
0
100
AcDbSpline
 62
7
  6
BYLAYER
 70
0
 71
3
 72
11
 73
7
 74
0
 42
0.0000001
 43
0.0000001
 44
0.0000000001
 40
0.0
 40
0.0
 40
0.0
 40
0.0
 40
0.2241758524
 40
0.4612273644
 40
0.7192470999
 40
1.0
 40
1.0
 40
1.0
 40
1.0
 10
30.103756121
 20
46.3067307635
 30
0.0
 10
30.0511705301
 20
46.3067307635
 30
0.0
 10
29.9421489548
 20
46.3267787603
 30
0.0
 10
29.7936724327
 20
46.4124076689
 30
0.0
 10
29.6668088973
 20
46.545725023
 30
0.0
 10
29.6033116446
 20
46.6563721249
 30
0.0
 10
29.5763119594
 20
46.7164401377
 30
0.0
  0
SPLINE
  5
2F4
100
AcDbEntity
  8
0
100
AcDbSpline
 62
7
  6
BYLAYER
 70
0
 71
3
 72
13
 73
9
 74
0
 42
0.0000001
 43
0.0000001
 44
0.0000000001
 40
0.0
 40
0.0
 40
0.0
 40
0.0
 40
0.1939982153
 40
0.3798514825
 40
0.5535049026
 40
0.7131860047
 40
0.8603082274
 40
1.0
 40
1.0
 40
1.0
 40
1.0
 10
30.7267353917
 20
47.1197946795
 30
0.0
 10
30.7226264949
 20
47.047487382
 30
0.0
 10
30.7022313225
 20
46.906255858
 30
0.0
 10
30.6355360909
 20
46.7093955631
 30
0.0
 10
30.5367954894
 20
46.5408121238
 30
0.0
 10
30.410827128
 20
46.410273251
 30
0.0
 10
30.2637935962
 20
46.3263979766
 30
0.0
 10
30.1559062386
 20
46.3067307635
 30
0.0
 10
30.103756121
 20
46.3067307635
 30
0.0
  0
SPLINE
  5
2F5
100
AcDbEntity
  8
0
100
AcDbSpline
 62
7
  6
BYLAYER
 70
0
 71
3
 72
13
 73
9
 74
0
 42
0.0000001
 43
0.0000001
 44
0.0000000001
 40
0.0
 40
0.0
 40
0.0
 40
0.0
 40
0.137666238
 40
0.2841251005
 40
0.4448124316
 40
0.6202887263
 40
0.8072722757
 40
1.0
 40
1.0
 40
1.0
 40
1.0
 10
30.103756121
 20
48.074462976
 30
0.0
 10
30.1616103102
 20
48.074462976
 30
0.0
 10
30.2820682135
 20
48.0499316624
 30
0.0
 10
30.4421378488
 20
47.9469839475
 30
0.0
 10
30.5739376245
 20
47.7894906873
 30
0.0
 10
30.6700698422
 20
47.5896404299
 30
0.0
 10
30.7248989717
 20
47.3612908699
 30
0.0
 10
30.7313304878
 20
47.2006579855
 30
0.0
 10
30.7267353917
 20
47.1197946795
 30
0.0
  0
SPLINE
  5
2F6
100
AcDbEntity
  8
0
100
AcDbSpline
 62
7
  6
BYLAYER
 70
0
 71
3
 72
46
 73
42
 74
0
 42
0.0000001
 43
0.0000001
 44
0.0000000001
 40
0.0
 40
0.0
 40
0.0
 40
0.0
 40
0.0599258581
 40
0.1077438682
 40
0.1432739064
 40
0.1562431452
 40
0.1658929391
 40
0.1694416917
 40
0.1708875259
 40
0.1721096634
 40
0.1731046258
 40
0.1738689786
 40
0.1743994114
 40
0.1745760089
 40
0.1746932604
 40
0.1747519115
 40
0.1747724649
 40
0.1748421508
 40
0.1749721622
 40
0.1754177147
 40
0.1761146327
 40
0.1770667762
 40
0.1782777967
 40
0.1797512805
 40
0.1814907874
 40
0.185785657
 40
0.1912087874
 40
0.1978101553
 40
0.2056397412
 40
0.2251835082
 40
0.2502400974
 40
0.2811956346
 40
0.3183801599
 40
0.412703283
 40
0.4703315085
 40
0.5345710432
 40
0.6805893099
 40
0.7611504466
 40
0.845609279
 40
0.9219797869
 40
1.0
 40
1.0
 40
1.0
 40
1.0
 10
23.5384897244
 20
50.791712777
 30
0.0
 10
23.5240300323
 20
50.801706713
 30
0.0
 10
23.4980590447
 20
50.8197144044
 30
0.0
 10
23.4635092614
 20
50.8436393862
 30
0.0
 10
23.4402426261
 20
50.8596647997
 30
0.0
 10
23.4261994829
 20
50.8693450693
 30
0.0
 10
23.4198901906
 20
50.8737158009
 30
0.0
 10
23.4163744313
 20
50.8761842203
 30
0.0
 10
23.4148883926
 20
50.8772404489
 30
0.0
 10
23.4140149359
 20
50.8778673207
 30
0.0
 10
23.4133102675
 20
50.8783819099
 30
0.0
 10
23.4127666386
 20
50.8787846766
 30
0.0
 10
23.4124360797
 20
50.8790467672
 30
0.0
 10
23.4122368922
 20
50.8792047531
 30
0.0
 10
23.4121808756
 20
50.8792709592
 30
0.0
 10
23.4121120748
 20
50.8793201818
 30
0.0
 10
23.4121533563
 20
50.8793529657
 30
0.0
 10
23.4122160285
 20
50.8793060091
 30
0.0
 10
23.4123841981
 20
50.8792455863
 30
0.0
 10
23.4127108014
 20
50.8790410756
 30
0.0
 10
23.4132376137
 20
50.8787377591
 30
0.0
 10
23.4139523841
 20
50.8782930756
 30
0.0
 10
23.4148560144
 20
50.8777283306
 30
0.0
 10
23.4159515846
 20
50.8770321584
 30
0.0
 10
23.4178059327
 20
50.8758446105
 30
0.0
 10
23.4206270536
 20
50.8740180149
 30
0.0
 10
23.424633497
 20
50.8713986253
 30
0.0
 10
23.4294957833
 20
50.8681935606
 30
0.0
 10
23.4377985031
 20
50.8626822732
 30
0.0
 10
23.4505730735
 20
50.8541197902
 30
0.0
 10
23.4689245917
 20
50.8416949999
 30
0.0
 10
23.4915040613
 20
50.8262858789
 30
0.0
 10
23.5309098723
 20
50.7994897951
 30
0.0
 10
23.5770229845
 20
50.7686439732
 30
0.0
 10
23.6300869574
 20
50.7339247152
 30
0.0
 10
23.6959791371
 20
50.6911183281
 30
0.0
 10
23.7675691821
 20
50.6447350858
 30
0.0
 10
23.8439495068
 20
50.5948395463
 30
0.0
 10
23.9031304797
 20
50.5559697017
 30
0.0
 10
23.9615920486
 20
50.5173626751
 30
0.0
 10
23.9993842427
 20
50.4924119568
 30
0.0
 10
24.0184994307
 20
50.4798293592
 30
0.0
  0
SPLINE
  5
2F7
100
AcDbEntity
  8
0
100
AcDbSpline
 62
7
  6
BYLAYER
 70
0
 71
3
 72
22
 73
18
 74
0
 42
0.0000001
 43
0.0000001
 44
0.0000000001
 40
0.0
 40
0.0
 40
0.0
 40
0.0
 40
0.3009145975
 40
0.3215552355
 40
0.4885670089
 40
0.5915830955
 40
0.601711726
 40
0.6179992742
 40
0.6404177443
 40
0.6540671604
 40
0.6732524589
 40
0.6960788433
 40
0.7234244125
 40
0.7628117733
 40
0.8183934701
 40
0.8952932717
 40
1.0
 40
1.0
 40
1.0
 40
1.0
 10
24.3913308518
 20
49.492587049
 30
0.0
 10
24.3687739138
 20
49.5079971695
 30
0.0
 10
24.297029815
 20
49.5347053953
 30
0.0
 10
24.3442818843
 20
49.5442707482
 30
0.0
 10
24.3665908906
 20
49.5203195251
 30
0.0
 10
24.384181113
 20
49.5092615453
 30
0.0
 10
24.4000821421
 20
49.5074301133
 30
0.0
 10
24.3945130154
 20
49.512609746
 30
0.0
 10
24.3927851453
 20
49.5150387785
 30
0.0
 10
24.3894083461
 20
49.5215252007
 30
0.0
 10
24.3972279787
 20
49.5189705297
 30
0.0
 10
24.4018365531
 20
49.5166171265
 30
0.0
 10
24.4094388555
 20
49.5127188571
 30
0.0
 10
24.4189600943
 20
49.5073547501
 30
0.0
 10
24.4325211152
 20
49.4994804897
 30
0.0
 10
24.4509371664
 20
49.4883864209
 30
0.0
 10
24.464967456
 20
49.4797069688
 30
0.0
 10
24.4730269603
 20
49.4746668474
 30
0.0
  0
SPLINE
  5
2F8
100
AcDbEntity
  8
0
100
AcDbSpline
 62
7
  6
BYLAYER
 70
0
 71
3
 72
13
 73
9
 74
0
 42
0.0000001
 43
0.0000001
 44
0.0000000001
 40
0.0
 40
0.0
 40
0.0
 40
0.0
 40
0.103635405
 40
0.2822605559
 40
0.5140058254
 40
0.7305690176
 40
0.90245193
 40
1.0
 40
1.0
 40
1.0
 40
1.0
 10
24.3336482079
 20
49.5608591502
 30
0.0
 10
24.3361392823
 20
49.5589915443
 30
0.0
 10
24.3423817652
 20
49.5532217327
 30
0.0
 10
24.353377989
 20
49.5423755927
 30
0.0
 10
24.3659596201
 20
49.5284126658
 30
0.0
 10
24.3785957351
 20
49.5144939311
 30
0.0
 10
24.387050636
 20
49.503055097
 30
0.0
 10
24.3914811343
 20
49.49551374
 30
0.0
 10
24.3913308518
 20
49.492587049
 30
0.0
  0
SPLINE
  5
2F9
100
AcDbEntity
  8
0
100
AcDbSpline
 62
7
  6
BYLAYER
 70
0
 71
3
 72
37
 73
33
 74
0
 42
0.0000001
 43
0.0000001
 44
0.0000000001
 40
0.0
 40
0.0
 40
0.0
 40
0.0
 40
0.0003854919
 40
0.001411194
 40
0.0029765529
 40
0.0050737738
 40
0.0076949812
 40
0.0108299471
 40
0.0144591206
 40
0.023112544
 40
0.0334810619
 40
0.0453941323
 40
0.0732156197
 40
0.10548135
 40
0.1413889018
 40
0.2215316497
 40
0.3096834158
 40
0.4030142454
 40
0.4994869295
 40
0.5978927043
 40
0.647725274
 40
0.6981066793
 40
0.7491688761
 40
0.8009076021
 40
0.8531543302
 40
0.8792186853
 40
0.904991652
 40
0.93023915
 40
0.954671923
 40
0.978004324
 40
0.989183333
 40
1.0
 40
1.0
 40
1.0
 40
1.0
 10
24.333647821
 20
49.5608586808
 30
0.0
 10
24.3343693722
 20
49.5603240285
 30
0.0
 10
24.3370353403
 20
49.5584015381
 30
0.0
 10
24.3427988478
 20
49.5545459335
 30
0.0
 10
24.3519043017
 20
49.5485197231
 30
0.0
 10
24.3641658314
 20
49.5405276691
 30
0.0
 10
24.3795166875
 20
49.5305812597
 30
0.0
 10
24.3978884797
 20
49.5187351992
 30
0.0
 10
24.4280839166
 20
49.4992997786
 30
0.0
 10
24.4724458183
 20
49.4707448122
 30
0.0
 10
24.5329690374
 20
49.431649836
 30
0.0
 10
24.6311971704
 20
49.368645578
 30
0.0
 10
24.7731580012
 20
49.2793656063
 30
0.0
 10
24.9632467517
 20
49.1616492436
 30
0.0
 10
25.2581970657
 20
48.9818143043
 30
0.0
 10
25.666966098
 20
48.7386345131
 30
0.0
 10
26.1959240888
 20
48.436032289
 30
0.0
 10
26.76450692
 20
48.1263372415
 30
0.0
 10
27.3620941475
 20
47.8203646378
 30
0.0
 10
27.8778708077
 20
47.5774374644
 30
0.0
 10
28.3026318222
 20
47.394061868
 30
0.0
 10
28.6296912057
 20
47.2628770056
 30
0.0
 10
28.9647158924
 20
47.139994447
 30
0.0
 10
29.3082026862
 20
47.0282155455
 30
0.0
 10
29.6001742173
 20
46.9470640111
 30
0.0
 10
29.8362325089
 20
46.8917315135
 30
0.0
 10
30.0122342885
 20
46.8560956376
 30
0.0
 10
30.1856189764
 20
46.8271765919
 30
0.0
 10
30.3543540551
 20
46.8056493646
 30
0.0
 10
30.4912306486
 20
46.7943106367
 30
0.0
 10
30.5967114842
 20
46.7895793428
 30
0.0
 10
30.6479388753
 20
46.7886626949
 30
0.0
 10
30.6731346309
 20
46.7885795772
 30
0.0
  0
SPLINE
  5
2FA
100
AcDbEntity
  8
0
100
AcDbSpline
 62
7
  6
BYLAYER
 70
0
 71
3
 72
19
 73
15
 74
0
 42
0.0000001
 43
0.0000001
 44
0.0000000001
 40
0.0
 40
0.0
 40
0.0
 40
0.0
 40
0.0563165242
 40
0.1110805446
 40
0.3581296076
 40
0.4655549372
 40
0.5615417946
 40
0.7186164987
 40
0.780945055
 40
0.8342502132
 40
0.8803757378
 40
0.9217579165
 40
0.9609007776
 40
1.0
 40
1.0
 40
1.0
 40
1.0
 10
28.8098115999
 20
47.7922407489
 30
0.0
 10
28.823007446
 20
47.7870660165
 30
0.0
 10
28.8490643605
 20
47.7769349256
 30
0.0
 10
28.9332710899
 20
47.7447853088
 30
0.0
 10
29.0301498439
 20
47.7097388674
 30
0.0
 10
29.1378025144
 20
47.674155299
 30
0.0
 10
29.2245061878
 20
47.6474233657
 30
0.0
 10
29.3011127666
 20
47.6264660002
 30
0.0
 10
29.3680745006
 20
47.6113515335
 30
0.0
 10
29.4080659397
 20
47.6036847125
 30
0.0
 10
29.443095203
 20
47.5982423235
 30
0.0
 10
29.4747834286
 20
47.5947005317
 30
0.0
 10
29.5048376742
 20
47.5927040958
 30
0.0
 10
29.5245350383
 20
47.5924399931
 30
0.0
 10
29.5343784962
 20
47.5926141623
 30
0.0
  0
SPLINE
  5
2FB
100
AcDbEntity
  8
0
100
AcDbSpline
 62
7
  6
BYLAYER
 70
0
 71
3
 72
32
 73
28
 74
0
 42
0.0000001
 43
0.0000001
 44
0.0000000001
 40
0.0
 40
0.0
 40
0.0
 40
0.0
 40
0.0862694564
 40
0.1704928702
 40
0.2489961122
 40
0.3213159873
 40
0.3872569848
 40
0.4466867002
 40
0.4997187567
 40
0.5460869545
 40
0.5855713837
 40
0.6179412838
 40
0.6427875552
 40
0.6604710724
 40
0.6722260081
 40
0.6793537879
 40
0.6835792546
 40
0.6895172365
 40
0.7004767844
 40
0.7175231068
 40
0.7407018494
 40
0.7700355648
 40
0.8053011237
 40
0.8461696357
 40
0.8922882605
 40
0.9435642046
 40
1.0
 40
1.0
 40
1.0
 40
1.0
 10
29.1913928969
 20
47.6779719578
 30
0.0
 10
29.1568250679
 20
47.680571852
 30
0.0
 10
29.0884783207
 20
47.6852751021
 30
0.0
 10
28.9886468244
 20
47.692007505
 30
0.0
 10
28.8946143811
 20
47.7010050089
 30
0.0
 10
28.8081388824
 20
47.711493143
 30
0.0
 10
28.7294984752
 20
47.7227581442
 30
0.0
 10
28.6587527132
 20
47.7343716522
 30
0.0
 10
28.5960076858
 20
47.7460725639
 30
0.0
 10
28.5414009986
 20
47.757635042
 30
0.0
 10
28.4952142622
 20
47.7687328006
 30
0.0
 10
28.4577005192
 20
47.7789998684
 30
0.0
 10
28.4291206742
 20
47.7882593472
 30
0.0
 10
28.4085849993
 20
47.7960862531
 30
0.0
 10
28.395882095
 20
47.8030399468
 30
0.0
 10
28.3876946929
 20
47.8083297981
 30
0.0
 10
28.386416633
 20
47.8163414277
 30
0.0
 10
28.3952128387
 20
47.8208705015
 30
0.0
 10
28.4077946888
 20
47.8240519157
 30
0.0
 10
28.4285504449
 20
47.8268473374
 30
0.0
 10
28.4562862615
 20
47.8288650408
 30
0.0
 10
28.4915876773
 20
47.830321373
 30
0.0
 10
28.5339384151
 20
47.8312678111
 30
0.0
 10
28.5830668017
 20
47.8318326437
 30
0.0
 10
28.6386220434
 20
47.8321484913
 30
0.0
 10
28.7004361898
 20
47.8321095535
 30
0.0
 10
28.7437171671
 20
47.8324521594
 30
0.0
 10
28.7663945943
 20
47.8324086476
 30
0.0
  0
SPLINE
  5
2FC
100
AcDbEntity
  8
0
100
AcDbSpline
 62
7
  6
BYLAYER
 70
0
 71
3
 72
10
 73
6
 74
0
 42
0.0000001
 43
0.0000001
 44
0.0000000001
 40
0.0
 40
0.0
 40
0.0
 40
0.0
 40
0.3510414644
 40
0.6853228869
 40
1.0
 40
1.0
 40
1.0
 40
1.0
 10
29.1374570454
 20
48.1461320986
 30
0.0
 10
29.198521854
 20
48.1372467955
 30
0.0
 10
29.3172039969
 20
48.1162483145
 30
0.0
 10
29.4921099259
 20
48.0977269002
 30
0.0
 10
29.6059771816
 20
48.0901379732
 30
0.0
 10
29.6612588238
 20
48.0882015965
 30
0.0
  0
SPLINE
  5
2FD
100
AcDbEntity
  8
0
100
AcDbSpline
 62
7
  6
BYLAYER
 70
0
 71
3
 72
19
 73
15
 74
0
 42
0.0000001
 43
0.0000001
 44
0.0000000001
 40
0.0
 40
0.0
 40
0.0
 40
0.0
 40
0.1423882823
 40
0.2682905865
 40
0.3785938203
 40
0.4737304327
 40
0.5530024629
 40
0.6181283399
 40
0.6739797391
 40
0.7269495394
 40
0.7826777559
 40
0.8454850601
 40
0.9181397986
 40
1.0
 40
1.0
 40
1.0
 40
1.0
 10
28.8095008309
 20
47.7921774602
 30
0.0
 10
28.8390170529
 20
47.7943605343
 30
0.0
 10
28.8945239453
 20
47.8006340265
 30
0.0
 10
28.9715657182
 20
47.8173811774
 30
0.0
 10
29.0369468944
 20
47.8395593775
 30
0.0
 10
29.0901347512
 20
47.8660262624
 30
0.0
 10
29.1305521493
 20
47.8955856148
 30
0.0
 10
29.1589679968
 20
47.9263796179
 30
0.0
 10
29.1776062972
 20
47.9576879224
 30
0.0
 10
29.1882540498
 20
47.9904761245
 30
0.0
 10
29.191271041
 20
48.0263900318
 30
0.0
 10
29.1848557859
 20
48.0657436977
 30
0.0
 10
29.1716599149
 20
48.1096340335
 30
0.0
 10
29.1499391776
 20
48.1345682493
 30
0.0
 10
29.1374570454
 20
48.1461320986
 30
0.0
  0
SPLINE
  5
2FE
100
AcDbEntity
  8
0
100
AcDbSpline
 62
7
  6
BYLAYER
 70
0
 71
3
 72
26
 73
22
 74
0
 42
0.0000001
 43
0.0000001
 44
0.0000000001
 40
0.0
 40
0.0
 40
0.0
 40
0.0
 40
0.0079038251
 40
0.010932178
 40
0.0212231218
 40
0.0390516594
 40
0.0663408054
 40
0.1056935168
 40
0.1590771066
 40
0.2133732099
 40
0.2829616547
 40
0.3677549092
 40
0.4454193631
 40
0.5290104668
 40
0.6166405407
 40
0.702083699
 40
0.7789631832
 40
0.8499461896
 40
0.9125772065
 40
0.9641216261
 40
1.0
 40
1.0
 40
1.0
 40
1.0
 10
17.0874911832
 20
49.997708118
 30
0.0
 10
17.069920617
 20
49.99331393
 30
0.0
 10
17.0118482172
 20
49.9832606484
 30
0.0
 10
17.0785782516
 20
49.9933711841
 30
0.0
 10
17.1370575068
 20
50.0017183408
 30
0.0
 10
17.2687815136
 20
50.0292369578
 30
0.0
 10
17.4560912024
 20
50.0600438784
 30
0.0
 10
17.7280819697
 20
50.1114562352
 30
0.0
 10
18.0617761967
 20
50.1539415602
 30
0.0
 10
18.4649399267
 20
50.2051348061
 30
0.0
 10
18.9407981702
 20
50.2521915464
 30
0.0
 10
19.4707455566
 20
50.2962263989
 30
0.0
 10
20.0334929577
 20
50.3317830766
 30
0.0
 10
20.6035191185
 20
50.3524559352
 30
0.0
 10
21.1916924681
 20
50.3583209849
 30
0.0
 10
21.7644907523
 20
50.3500283298
 30
0.0
 10
22.298568886
 20
50.3234364424
 30
0.0
 10
22.7792976814
 20
50.2830064239
 30
0.0
 10
23.2012044921
 20
50.2382568584
 30
0.0
 10
23.5435301251
 20
50.2051905332
 30
0.0
 10
23.7411420838
 20
50.1701692659
 30
0.0
 10
23.8210941976
 20
50.1510100007
 30
0.0
  0
SPLINE
  5
2FF
100
AcDbEntity
  8
0
100
AcDbSpline
 62
7
  6
BYLAYER
 70
0
 71
3
 72
18
 73
14
 74
0
 42
0.0000001
 43
0.0000001
 44
0.0000000001
 40
0.0
 40
0.0
 40
0.0
 40
0.0
 40
0.1012702812
 40
0.1951025731
 40
0.2834042857
 40
0.3701484021
 40
0.4572230857
 40
0.5438766481
 40
0.6303617284
 40
0.7164279867
 40
0.8042684909
 40
0.8981859097
 40
1.0
 40
1.0
 40
1.0
 40
1.0
 10
15.3254644136
 20
50.2638266427
 30
0.0
 10
15.3238809937
 20
50.1698979738
 30
0.0
 10
15.3203353578
 20
49.9871521028
 30
0.0
 10
15.4036686199
 20
49.7326738467
 30
0.0
 10
15.5456256064
 20
49.5242784653
 30
0.0
 10
15.7325674801
 20
49.3641633315
 30
0.0
 10
15.9547602134
 20
49.261544928
 30
0.0
 10
16.1961974126
 20
49.2233429101
 30
0.0
 10
16.4380821882
 20
49.2525620163
 30
0.0
 10
16.6632244505
 20
49.3482907548
 30
0.0
 10
16.859733298
 20
49.5050947284
 30
0.0
 10
17.0119615578
 20
49.7258480567
 30
0.0
 10
17.0599054626
 20
49.9029329773
 30
0.0
 10
17.0838822908
 20
49.9942853046
 30
0.0
  0
SPLINE
  5
300
100
AcDbEntity
  8
0
100
AcDbSpline
 62
7
  6
BYLAYER
 70
0
 71
3
 72
102
 73
98
 74
0
 42
0.0000001
 43
0.0000001
 44
0.0000000001
 40
0.0
 40
0.0
 40
0.0
 40
0.0
 40
0.0005703164
 40
0.0009958195
 40
0.0012942655
 40
0.0015258061
 40
0.0017041615
 40
0.0018782687
 40
0.0021009737
 40
0.0025244528
 40
0.0027538707
 40
0.0029547451
 40
0.0031902679
 40
0.0034630761
 40
0.0037787742
 40
0.004144332
 40
0.0045671193
 40
0.0050558951
 40
0.0056207208
 40
0.0062679682
 40
0.0070076203
 40
0.007853896
 40
0.0088236641
 40
0.009926126
 40
0.0105215699
 40
0.0111173255
 40
0.01178273
 40
0.0125345272
 40
0.0133899605
 40
0.0143686577
 40
0.0154933981
 40
0.0167900089
 40
0.0182883418
 40
0.0200229173
 40
0.0220276777
 40
0.0243376059
 40
0.0269028473
 40
0.0290907355
 40
0.0315140899
 40
0.0341556444
 40
0.0365409058
 40
0.0385976421
 40
0.0407714486
 40
0.0430720637
 40
0.0455087363
 40
0.0480908581
 40
0.0508295485
 40
0.0537375111
 40
0.0568279455
 40
0.060113201
 40
0.0636077104
 40
0.0673266657
 40
0.0712836698
 40
0.0754945311
 40
0.0799745825
 40
0.0847386568
 40
0.0898057526
 40
0.0951967968
 40
0.1009338428
 40
0.1070384819
 40
0.1135285186
 40
0.1204211586
 40
0.1277303469
 40
0.1354609848
 40
0.14333236
 40
0.1506183975
 40
0.1584177158
 40
0.1668737092
 40
0.1761341354
 40
0.1863497494
 40
0.1976784243
 40
0.2102869061
 40
0.224351322
 40
0.240061532
 40
0.2576194491
 40
0.2771968718
 40
0.2989026893
 40
0.3228464929
 40
0.3492593135
 40
0.3783528991
 40
0.4102231675
 40
0.4463513161
 40
0.4859228308
 40
0.5284205813
 40
0.5736616549
 40
0.6213678902
 40
0.6711533265
 40
0.7266595417
 40
0.7842175623
 40
0.8381291776
 40
0.8853480347
 40
0.9241936515
 40
0.9540279062
 40
0.9764263115
 40
0.9903566323
 40
0.9941843803
 40
1.0
 40
1.0
 40
1.0
 40
1.0
 10
28.5866259688
 20
49.0654901759
 30
0.0
 10
28.5840160247
 20
49.0657075914
 30
0.0
 10
28.579451291
 20
49.0659086126
 30
0.0
 10
28.5734774123
 20
49.0658087194
 30
0.0
 10
28.5691701666
 20
49.0652334355
 30
0.0
 10
28.5658175288
 20
49.0649238262
 30
0.0
 10
28.5637256643
 20
49.0630192038
 30
0.0
 10
28.5609098456
 20
49.0630001045
 30
0.0
 10
28.5574374283
 20
49.0644656654
 30
0.0
 10
28.5536569812
 20
49.0658377962
 30
0.0
 10
28.5500268692
 20
49.0673198047
 30
0.0
 10
28.5471949994
 20
49.068472481
 30
0.0
 10
28.5441851626
 20
49.0697165588
 30
0.0
 10
28.5406924382
 20
49.0711726201
 30
0.0
 10
28.5366582481
 20
49.0728815933
 30
0.0
 10
28.531999508
 20
49.0748817431
 30
0.0
 10
28.5266198309
 20
49.0772172224
 30
0.0
 10
28.5204100333
 20
49.0799383249
 30
0.0
 10
28.5132640475
 20
49.0830911166
 30
0.0
 10
28.5050778995
 20
49.0867402533
 30
0.0
 10
28.4957262102
 20
49.0909489741
 30
0.0
 10
28.4850403761
 20
49.0958019146
 30
0.0
 10
28.4728561292
 20
49.1013844645
 30
0.0
 10
28.4617346404
 20
49.1065210978
 30
0.0
 10
28.4521841264
 20
49.1109628245
 30
0.0
 10
28.4444601071
 20
49.1145724292
 30
0.0
 10
28.4360931638
 20
49.1185021414
 30
0.0
 10
28.4266569381
 20
49.1229601908
 30
0.0
 10
28.4159270583
 20
49.1280479434
 30
0.0
 10
28.4036589923
 20
49.1338889923
 30
0.0
 10
28.389574368
 20
49.1406274724
 30
0.0
 10
28.373354123
 20
49.1484311704
 30
0.0
 10
28.3546330511
 20
49.1574961363
 30
0.0
 10
28.3330010744
 20
49.1680112129
 30
0.0
 10
28.3080366602
 20
49.1801957162
 30
0.0
 10
28.2796719985
 20
49.194110173
 30
0.0
 10
28.2505891085
 20
49.2084697358
 30
0.0
 10
28.2210694291
 20
49.2231209615
 30
0.0
 10
28.1912615414
 20
49.2379796782
 30
0.0
 10
28.1606814508
 20
49.2533207091
 30
0.0
 10
28.1316377359
 20
49.2679694911
 30
0.0
 10
28.1045337777
 20
49.2816943275
 30
0.0
 10
28.0778022543
 20
49.2952941151
 30
0.0
 10
28.0495447898
 20
49.3097421136
 30
0.0
 10
28.0196485978
 20
49.3251037201
 30
0.0
 10
27.9879962501
 20
49.3414491242
 30
0.0
 10
27.9544556547
 20
49.3588546357
 30
0.0
 10
27.9188805299
 20
49.3774071615
 30
0.0
 10
27.8811235558
 20
49.3972036706
 30
0.0
 10
27.8410091962
 20
49.4183044545
 30
0.0
 10
27.7983730457
 20
49.4408108659
 30
0.0
 10
27.7530501827
 20
49.4648354323
 30
0.0
 10
27.7048587309
 20
49.4904720375
 30
0.0
 10
27.6535653002
 20
49.5177193743
 30
0.0
 10
27.5989706846
 20
49.5466523408
 30
0.0
 10
27.5408600322
 20
49.5773477362
 30
0.0
 10
27.4788869427
 20
49.6096866297
 30
0.0
 10
27.4127297122
 20
49.6436620614
 30
0.0
 10
27.3420602326
 20
49.6792770801
 30
0.0
 10
27.2664837026
 20
49.7163592789
 30
0.0
 10
27.1857585939
 20
49.7549856718
 30
0.0
 10
27.0995793928
 20
49.7950163557
 30
0.0
 10
27.0077243598
 20
49.8363336928
 30
0.0
 10
26.9112770992
 20
49.8783809093
 30
0.0
 10
26.8144410951
 20
49.9192525618
 30
0.0
 10
26.7168852858
 20
49.9592114676
 30
0.0
 10
26.6165093154
 20
49.9993595192
 30
0.0
 10
26.5072317505
 20
50.041648159
 30
0.0
 10
26.3871339522
 20
50.0867030308
 30
0.0
 10
26.2540815666
 20
50.1347572521
 30
0.0
 10
26.1058252623
 20
50.1859358448
 30
0.0
 10
25.9399086339
 20
50.2400525559
 30
0.0
 10
25.7537150101
 20
50.296780506
 30
0.0
 10
25.5444636312
 20
50.3556586183
 30
0.0
 10
25.3093260093
 20
50.415777068
 30
0.0
 10
25.0459142397
 20
50.4761047623
 30
0.0
 10
24.7527390183
 20
50.5375329612
 30
0.0
 10
24.4278567498
 20
50.6006105594
 30
0.0
 10
24.0677708725
 20
50.6597228128
 30
0.0
 10
23.6701053539
 20
50.7135467953
 30
0.0
 10
23.2269026261
 20
50.7625714408
 30
0.0
 10
22.734617416
 20
50.8041587467
 30
0.0
 10
22.1926488
 20
50.8350754664
 30
0.0
 10
21.6082128251
 20
50.8525637295
 30
0.0
 10
20.9861702359
 20
50.8552868796
 30
0.0
 10
20.3307826377
 20
50.842074919
 30
0.0
 10
19.6288418805
 20
50.810477802
 30
0.0
 10
18.8827444062
 20
50.7576258935
 30
0.0
 10
18.1197039533
 20
50.6827926982
 30
0.0
 10
17.3954096174
 20
50.5977387111
 30
0.0
 10
16.7605485342
 20
50.506616042
 30
0.0
 10
16.2299610098
 20
50.4286227199
 30
0.0
 10
15.8270624041
 20
50.3655349772
 30
0.0
 10
15.5051098892
 20
50.2982367643
 30
0.0
 10
15.3659105384
 20
50.2834593427
 30
0.0
 10
15.2067987329
 20
50.2346195314
 30
0.0
 10
15.2961458884
 20
50.2596411393
 30
0.0
 10
15.3218264465
 20
50.2669714208
 30
0.0
  0
SPLINE
  5
301
100
AcDbEntity
  8
0
100
AcDbSpline
 62
7
  6
BYLAYER
 70
0
 71
3
 72
16
 73
12
 74
0
 42
0.0000001
 43
0.0000001
 44
0.0000000001
 40
0.0
 40
0.0
 40
0.0
 40
0.0
 40
0.108216583
 40
0.2254282322
 40
0.3485738172
 40
0.473308682
 40
0.595003331
 40
0.709619374
 40
0.814688111
 40
0.9103163492
 40
1.0
 40
1.0
 40
1.0
 40
1.0
 10
28.7379301207
 20
47.829809876
 30
0.0
 10
28.6862666832
 20
47.883065982
 30
0.0
 10
28.5954443777
 20
48.0108453714
 30
0.0
 10
28.5067108901
 20
48.2346827214
 30
0.0
 10
28.4641857398
 20
48.4831053996
 30
0.0
 10
28.4706703139
 20
48.7380056815
 30
0.0
 10
28.5255485347
 20
48.9811517201
 30
0.0
 10
28.6252359698
 20
49.1951837294
 30
0.0
 10
28.7638785191
 20
49.3646397012
 30
0.0
 10
28.9335078235
 20
49.4757638766
 30
0.0
 10
29.0617110732
 20
49.5023098365
 30
0.0
 10
29.1232019786
 20
49.5023098365
 30
0.0
  0
SPLINE
  5
302
100
AcDbEntity
  8
0
100
AcDbSpline
 62
7
  6
BYLAYER
 70
0
 71
3
 72
13
 73
9
 74
0
 42
0.0000001
 43
0.0000001
 44
0.0000000001
 40
0.0
 40
0.0
 40
0.0
 40
0.0
 40
0.1681253636
 40
0.3424852504
 40
0.517781103
 40
0.6886230224
 40
0.8503597726
 40
1.0
 40
1.0
 40
1.0
 40
1.0
 10
28.5876334782
 20
49.0634810492
 30
0.0
 10
28.5597857228
 20
48.9952723048
 30
0.0
 10
28.5087510313
 20
48.8531920613
 30
0.0
 10
28.4811908202
 20
48.6262996519
 30
0.0
 10
28.4925079387
 20
48.3974427762
 30
0.0
 10
28.5446663869
 20
48.1796302859
 30
0.0
 10
28.6337902423
 20
47.9864027214
 30
0.0
 10
28.7190744333
 20
47.877691268
 30
0.0
 10
28.7662853996
 20
47.8321820868
 30
0.0
  0
SPLINE
  5
303
100
AcDbEntity
  8
0
100
AcDbSpline
 62
7
  6
BYLAYER
 70
0
 71
3
 72
18
 73
14
 74
0
 42
0.0000001
 43
0.0000001
 44
0.0000000001
 40
0.0
 40
0.0
 40
0.0
 40
0.0
 40
0.1014444338
 40
0.2065682434
 40
0.3109498659
 40
0.411343609
 40
0.5050750077
 40
0.5899179814
 40
0.6675556484
 40
0.742150849
 40
0.8198942305
 40
0.9055739319
 40
1.0
 40
1.0
 40
1.0
 40
1.0
 10
29.6587597168
 20
48.0911167663
 30
0.0
 10
29.6926522085
 20
48.1657083539
 30
0.0
 10
29.7432314474
 20
48.3264031153
 30
0.0
 10
29.7679981157
 20
48.5778856088
 30
0.0
 10
29.7429871703
 20
48.8286220275
 30
0.0
 10
29.6701363843
 20
49.0603874278
 30
0.0
 10
29.5539589131
 20
49.2562070336
 30
0.0
 10
29.401284868
 20
49.4006897509
 30
0.0
 10
29.2217152283
 20
49.4794995178
 30
0.0
 10
29.030619707
 20
49.4808237585
 30
0.0
 10
28.8493332446
 20
49.4037681966
 30
0.0
 10
28.6946622474
 20
49.2593990251
 30
0.0
 10
28.619148727
 20
49.132926786
 30
0.0
 10
28.5876334782
 20
49.0634810492
 30
0.0
  0
SPLINE
  5
304
100
AcDbEntity
  8
0
100
AcDbSpline
 62
7
  6
BYLAYER
 70
0
 71
3
 72
11
 73
7
 74
0
 42
0.0000001
 43
0.0000001
 44
0.0000000001
 40
0.0
 40
0.0
 40
0.0
 40
0.0
 40
0.2247739483
 40
0.4637333876
 40
0.7219265183
 40
1.0
 40
1.0
 40
1.0
 40
1.0
 10
29.191136018
 20
47.6824790905
 30
0.0
 10
29.2384372177
 20
47.692549606
 30
0.0
 10
29.3360339066
 20
47.719366872
 30
0.0
 10
29.4648241979
 20
47.8101498367
 30
0.0
 10
29.5785804705
 20
47.9344560696
 30
0.0
 10
29.6300116907
 20
48.0386471316
 30
0.0
 10
29.6587597168
 20
48.0911167663
 30
0.0
  0
SPLINE
  5
305
100
AcDbEntity
  8
0
100
AcDbSpline
 62
7
  6
BYLAYER
 70
0
 71
3
 72
16
 73
12
 74
0
 42
0.0000001
 43
0.0000001
 44
0.0000000001
 40
0.0
 40
0.0
 40
0.0
 40
0.0
 40
0.10658987
 40
0.2216976434
 40
0.3427663963
 40
0.4660747778
 40
0.587531539
 40
0.7033587218
 40
0.8108466077
 40
0.9091326474
 40
1.0
 40
1.0
 40
1.0
 40
1.0
 10
29.5084738366
 20
49.3248097969
 30
0.0
 10
29.5570930338
 20
49.2746917784
 30
0.0
 10
29.6433618764
 20
49.1555512333
 30
0.0
 10
29.7308336253
 20
48.9470755893
 30
0.0
 10
29.7775080777
 20
48.7147545546
 30
0.0
 10
29.7806030329
 20
48.4737817673
 30
0.0
 10
29.7400766533
 20
48.2396349326
 30
0.0
 10
29.6583629433
 20
48.0273481298
 30
0.0
 10
29.5399308383
 20
47.8505919193
 30
0.0
 10
29.3912322666
 20
47.7214144299
 30
0.0
 10
29.2737743772
 20
47.673302366
 30
0.0
 10
29.2154199637
 20
47.6615496679
 30
0.0
  0
SPLINE
  5
306
100
AcDbEntity
  8
0
100
AcDbSpline
 62
7
  6
BYLAYER
 70
0
 71
3
 72
10
 73
6
 74
0
 42
0.0000001
 43
0.0000001
 44
0.0000000001
 40
0.0
 40
0.0
 40
0.0
 40
0.0
 40
0.3170830041
 40
0.647263658
 40
1.0
 40
1.0
 40
1.0
 40
1.0
 10
29.1232019786
 20
49.5023098365
 30
0.0
 10
29.1691413465
 20
49.5023098365
 30
0.0
 10
29.2634641038
 20
49.4879560612
 30
0.0
 10
29.3960539224
 20
49.4255525726
 30
0.0
 10
29.4728898886
 20
49.3614907186
 30
0.0
 10
29.5084738366
 20
49.3248097969
 30
0.0
  0
SPLINE
  5
307
100
AcDbEntity
  8
0
100
AcDbSpline
 62
7
  6
BYLAYER
 70
0
 71
3
 72
138
 73
134
 74
0
 42
0.0000001
 43
0.0000001
 44
0.0000000001
 40
0.0
 40
0.0
 40
0.0
 40
0.0
 40
0.0060912485
 40
0.0125791086
 40
0.0301504277
 40
0.058907486
 40
0.0985259968
 40
0.1495489809
 40
0.2090379669
 40
0.2708077806
 40
0.3339742483
 40
0.3907185246
 40
0.4405328792
 40
0.4854541116
 40
0.5256201566
 40
0.5613503643
 40
0.5930703549
 40
0.621258361
 40
0.6464407856
 40
0.6691876215
 40
0.6900806146
 40
0.7080827174
 40
0.7124353527
 40
0.7167839313
 40
0.7211275378
 40
0.725466264
 40
0.7298000066
 40
0.7341284898
 40
0.7384515084
 40
0.7427694333
 40
0.7470825392
 40
0.7513904421
 40
0.7556936307
 40
0.7599925183
 40
0.7642867287
 40
0.768576723
 40
0.7728628337
 40
0.7771447365
 40
0.7814228867
 40
0.7856975684
 40
0.789968508
 40
0.7942360825
 40
0.7985005729
 40
0.8027617339
 40
0.807019365
 40
0.8112734662
 40
0.8155239059
 40
0.8197698803
 40
0.824011772
 40
0.8282493149
 40
0.8324790098
 40
0.8367011773
 40
0.8409155515
 40
0.8451155312
 40
0.8492976207
 40
0.8534687032
 40
0.857631001
 40
0.8617725906
 40
0.8658828191
 40
0.8699664242
 40
0.8740252965
 40
0.8780547779
 40
0.8820504687
 40
0.8860111831
 40
0.8899363193
 40
0.8938238256
 40
0.8976730582
 40
0.9014829462
 40
0.905251777
 40
0.9089793265
 40
0.9126637617
 40
0.9163024807
 40
0.9198950922
 40
0.9234402328
 40
0.9269351255
 40
0.9303776692
 40
0.9337666146
 40
0.937100531
 40
0.9403768738
 40
0.943594703
 40
0.9467531897
 40
0.9498496159
 40
0.9528828134
 40
0.955851784
 40
0.9587533365
 40
0.9615833477
 40
0.9643380254
 40
0.9670141894
 40
0.9696070009
 40
0.9721123342
 40
0.9738723659
 40
0.974965458
 40
0.9760378017
 40
0.9770887641
 40
0.9781179777
 40
0.9791264807
 40
0.9801134827
 40
0.981077833
 40
0.9820184318
 40
0.9829342464
 40
0.983824328
 40
0.9846890467
 40
0.9855288875
 40
0.9863434133
 40
0.9871322191
 40
0.9878949332
 40
0.9886312179
 40
0.9893406327
 40
0.9900228128
 40
0.9906783772
 40
0.9913080356
 40
0.9919124188
 40
0.992492074
 40
0.9930473735
 40
0.9935768407
 40
0.9940806538
 40
0.9945597731
 40
0.995014988
 40
0.9954469156
 40
0.995855998
 40
0.9962417772
 40
0.9966034925
 40
0.9969418317
 40
0.9975627863
 40
0.9983129078
 40
0.9987833582
 40
0.999098864
 40
0.9993242027
 40
0.9994722515
 40
0.9995540111
 40
0.9995936227
 40
0.9996268966
 40
1.0
 40
1.0
 40
1.0
 40
1.0
 10
15.3296877508
 20
50.265787027
 30
0.0
 10
15.3025430305
 20
50.259204734
 30
0.0
 10
15.1982994228
 20
50.2330305235
 30
0.0
 10
15.4270068894
 20
50.2886071328
 30
0.0
 10
15.5966676049
 20
50.3163712413
 30
0.0
 10
16.0224383038
 20
50.3951881303
 30
0.0
 10
16.5474837034
 20
50.4722806459
 30
0.0
 10
17.2350118042
 20
50.5733309069
 30
0.0
 10
18.0170272643
 20
50.6695209935
 30
0.0
 10
18.8593172247
 20
50.7529184344
 30
0.0
 10
19.6903199241
 20
50.8112820396
 30
0.0
 10
20.4680690291
 20
50.8434967276
 30
0.0
 10
21.1626819628
 20
50.8532653913
 30
0.0
 10
21.7812998235
 20
50.8458466988
 30
0.0
 10
22.3349705507
 20
50.8248590356
 30
0.0
 10
22.8275100605
 20
50.7936848459
 30
0.0
 10
23.2644144459
 20
50.7552687468
 30
0.0
 10
23.652232808
 20
50.712090862
 30
0.0
 10
23.998215828
 20
50.6658250331
 30
0.0
 10
24.3100554584
 20
50.6171896007
 30
0.0
 10
24.5883359289
 20
50.5675109867
 30
0.0
 10
24.7828601957
 20
50.528881918
 30
0.0
 10
24.9027189434
 20
50.5038339837
 30
0.0
 10
24.9612193485
 20
50.4913520958
 30
0.0
 10
25.0196011632
 20
50.4786231237
 30
0.0
 10
25.0778631813
 20
50.465666451
 30
0.0
 10
25.135997479
 20
50.4524575238
 30
0.0
 10
25.1939935719
 20
50.4389689019
 30
0.0
 10
25.251853849
 20
50.4252195766
 30
0.0
 10
25.3095753982
 20
50.4111945482
 30
0.0
 10
25.3671541404
 20
50.3968788948
 30
0.0
 10
25.4245915812
 20
50.3822783686
 30
0.0
 10
25.4818873442
 20
50.3673884897
 30
0.0
 10
25.5390411834
 20
50.3522055351
 30
0.0
 10
25.5960533049
 20
50.3367281329
 30
0.0
 10
25.6529228574
 20
50.3209525775
 30
0.0
 10
25.7096492389
 20
50.3048754453
 30
0.0
 10
25.7662322199
 20
50.2884949083
 30
0.0
 10
25.8226708048
 20
50.2718074494
 30
0.0
 10
25.8789641315
 20
50.2548094302
 30
0.0
 10
25.9351110462
 20
50.2374977396
 30
0.0
 10
25.9911113416
 20
50.2198725188
 30
0.0
 10
26.0469635045
 20
50.2019293527
 30
0.0
 10
26.102661793
 20
50.1836598705
 30
0.0
 10
26.1582067156
 20
50.1650790001
 30
0.0
 10
26.2135948258
 20
50.1461874
 30
0.0
 10
26.2688135128
 20
50.1269681772
 30
0.0
 10
26.323865766
 20
50.1074442789
 30
0.0
 10
26.3787466922
 20
50.0876170963
 30
0.0
 10
26.4334325758
 20
50.0674731038
 30
0.0
 10
26.4879143628
 20
50.0470397083
 30
0.0
 10
26.5421733988
 20
50.0263177847
 30
0.0
 10
26.5961747717
 20
50.0053062852
 30
0.0
 10
26.6498785722
 20
49.9840397946
 30
0.0
 10
26.7032739858
 20
49.9625362922
 30
0.0
 10
26.7563709043
 20
49.9407570129
 30
0.0
 10
26.8091443332
 20
49.918682119
 30
0.0
 10
26.8615252243
 20
49.8963949998
 30
0.0
 10
26.9134491197
 20
49.8739575848
 30
0.0
 10
26.9648752137
 20
49.8513273712
 30
0.0
 10
27.0158200816
 20
49.8285258444
 30
0.0
 10
27.0662647295
 20
49.8055957524
 30
0.0
 10
27.1161567502
 20
49.7825401441
 30
0.0
 10
27.1654762459
 20
49.7593886863
 30
0.0
 10
27.2142170341
 20
49.7361739299
 30
0.0
 10
27.2623712838
 20
49.7129183688
 30
0.0
 10
27.3099268939
 20
49.6896401808
 30
0.0
 10
27.3568776563
 20
49.6663657268
 30
0.0
 10
27.4032257512
 20
49.643132998
 30
0.0
 10
27.4489499071
 20
49.6199405553
 30
0.0
 10
27.4940475042
 20
49.5968329169
 30
0.0
 10
27.5385303149
 20
49.5738827745
 30
0.0
 10
27.5823667524
 20
49.551073511
 30
0.0
 10
27.6255601438
 20
49.5284577155
 30
0.0
 10
27.6681228217
 20
49.5061209128
 30
0.0
 10
27.7100229719
 20
49.4840630431
 30
0.0
 10
27.7512526052
 20
49.4623161429
 30
0.0
 10
27.7918078992
 20
49.4409243238
 30
0.0
 10
27.8316806111
 20
49.4199202813
 30
0.0
 10
27.8708494452
 20
49.3993060598
 30
0.0
 10
27.9092900183
 20
49.3790794984
 30
0.0
 10
27.9470039661
 20
49.3592901907
 30
0.0
 10
27.983968609
 20
49.3399432594
 30
0.0
 10
28.0201574598
 20
49.3210411265
 30
0.0
 10
28.0555511827
 20
49.302629251
 30
0.0
 10
28.090102877
 20
49.2847281032
 30
0.0
 10
28.1237657852
 20
49.2673582368
 30
0.0
 10
28.1565003724
 20
49.2505614636
 30
0.0
 10
28.1882565025
 20
49.23436253
 30
0.0
 10
28.2163069683
 20
49.2201442537
 30
0.0
 10
28.2382551531
 20
49.2090979332
 30
0.0
 10
28.2543502533
 20
49.2010384311
 30
0.0
 10
28.2675488936
 20
49.1944564457
 30
0.0
 10
28.2804964763
 20
49.1880274278
 30
0.0
 10
28.2931928567
 20
49.1817507899
 30
0.0
 10
28.3056393319
 20
49.1756305137
 30
0.0
 10
28.3178320031
 20
49.1696682032
 30
0.0
 10
28.3297583409
 20
49.1638701333
 30
0.0
 10
28.3414040542
 20
49.1582415046
 30
0.0
 10
28.3527555821
 20
49.1527868847
 30
0.0
 10
28.3638051047
 20
49.1475072039
 30
0.0
 10
28.3745522924
 20
49.1424029096
 30
0.0
 10
28.384998904
 20
49.137473405
 30
0.0
 10
28.3951425545
 20
49.1327176419
 30
0.0
 10
28.4049775487
 20
49.1281367494
 30
0.0
 10
28.4144985298
 20
49.1237314928
 30
0.0
 10
28.4237000217
 20
49.1195027586
 30
0.0
 10
28.4325764915
 20
49.1154512174
 30
0.0
 10
28.4411269721
 20
49.1115769753
 30
0.0
 10
28.4493548996
 20
49.1078770867
 30
0.0
 10
28.4572676272
 20
49.1043461752
 30
0.0
 10
28.4648723556
 20
49.100979314
 30
0.0
 10
28.4721748147
 20
49.0977720602
 30
0.0
 10
28.4791722694
 20
49.0947247258
 30
0.0
 10
28.4858590552
 20
49.0918351114
 30
0.0
 10
28.4922330808
 20
49.089102428
 30
0.0
 10
28.4983020928
 20
49.0865224642
 30
0.0
 10
28.5040757116
 20
49.0840902788
 30
0.0
 10
28.509561382
 20
49.0818018905
 30
0.0
 10
28.5147615471
 20
49.0796562018
 30
0.0
 10
28.519672027
 20
49.0776526607
 30
0.0
 10
28.5242881735
 20
49.075786495
 30
0.0
 10
28.5299124986
 20
49.0735370049
 30
0.0
 10
28.5372064694
 20
49.070666248
 30
0.0
 10
28.5451000962
 20
49.067665474
 30
0.0
 10
28.5517080011
 20
49.0652275924
 30
0.0
 10
28.5560715137
 20
49.0636548295
 30
0.0
 10
28.559063178
 20
49.0626455787
 30
0.0
 10
28.561038813
 20
49.0619621759
 30
0.0
 10
28.5622282777
 20
49.0616414974
 30
0.0
 10
28.5628833726
 20
49.0613371222
 30
0.0
 10
28.5649926151
 20
49.0614879872
 30
0.0
 10
28.5658539937
 20
49.0640324743
 30
0.0
 10
28.5675203408
 20
49.0644202134
 30
0.0
  0
SPLINE
  5
308
100
AcDbEntity
  8
0
100
AcDbSpline
 62
7
  6
BYLAYER
 70
0
 71
3
 72
11
 73
7
 74
0
 42
0.0000001
 43
0.0000001
 44
0.0000000001
 40
0.0
 40
0.0
 40
0.0
 40
0.0
 40
0.2772674905
 40
0.5345328997
 40
0.7706500452
 40
1.0
 40
1.0
 40
1.0
 40
1.0
 10
24.0184994307
 20
50.4798293592
 30
0.0
 10
23.9868093473
 20
50.4611460035
 30
0.0
 10
23.9293729192
 20
50.4181028401
 30
0.0
 10
23.8662244697
 20
50.3357806924
 30
0.0
 10
23.8333531351
 20
50.2441355087
 30
0.0
 10
23.8307742501
 20
50.181363069
 30
0.0
 10
23.833989762
 20
50.151103473
 30
0.0
  0
SPLINE
  5
309
100
AcDbEntity
  8
0
100
AcDbSpline
 62
7
  6
BYLAYER
 70
0
 71
3
 72
34
 73
30
 74
0
 42
0.0000001
 43
0.0000001
 44
0.0000000001
 40
0.0
 40
0.0
 40
0.0
 40
0.0
 40
0.015079541
 40
0.0328626114
 40
0.0538464946
 40
0.078282019
 40
0.1065068714
 40
0.1389807544
 40
0.1760425062
 40
0.2180246476
 40
0.2651308161
 40
0.3174815045
 40
0.3749030871
 40
0.4380946045
 40
0.5059654248
 40
0.5719898207
 40
0.63107506
 40
0.6833219545
 40
0.7303350167
 40
0.7724996809
 40
0.8102852451
 40
0.8439265881
 40
0.8736710471
 40
0.9003172175
 40
0.9247682064
 40
0.9470337441
 40
0.9670168686
 40
0.9846936488
 40
1.0
 40
1.0
 40
1.0
 40
1.0
 10
29.1353829131
 20
48.1500669828
 30
0.0
 10
29.1169195793
 20
48.1722683551
 30
0.0
 10
29.0722368556
 20
48.2169389466
 30
0.0
 10
28.9916551976
 20
48.2814429835
 30
0.0
 10
28.8912958603
 20
48.3492688924
 30
0.0
 10
28.7701493405
 20
48.4215412984
 30
0.0
 10
28.6268654257
 20
48.4993613385
 30
0.0
 10
28.4600451862
 20
48.5843259448
 30
0.0
 10
28.2683550269
 20
48.6784361457
 30
0.0
 10
28.0510577501
 20
48.7839537186
 30
0.0
 10
27.8080033901
 20
48.9034520359
 30
0.0
 10
27.5399120958
 20
49.0390050042
 30
0.0
 10
27.2464905486
 20
49.1926547349
 30
0.0
 10
26.9290932868
 20
49.3645047763
 30
0.0
 10
26.59927044
 20
49.5479444723
 30
0.0
 10
26.2776959764
 20
49.7300081933
 30
0.0
 10
25.982933474
 20
49.898693617
 30
0.0
 10
25.7199230734
 20
50.0495677104
 30
0.0
 10
25.4840800044
 20
50.1826836442
 30
0.0
 10
25.2700714396
 20
50.2980997349
 30
0.0
 10
25.0748422993
 20
50.3941906156
 30
0.0
 10
24.8960431988
 20
50.4692005331
 30
0.0
 10
24.7318900201
 20
50.5226648273
 30
0.0
 10
24.5804095879
 20
50.555897015
 30
0.0
 10
24.4403893076
 20
50.5707047384
 30
0.0
 10
24.3123389452
 20
50.5684954035
 30
0.0
 10
24.1985117949
 20
50.5513084827
 30
0.0
 10
24.1010428788
 20
50.5220323844
 30
0.0
 10
24.043747898
 20
50.4947149653
 30
0.0
 10
24.0184994307
 20
50.4798293592
 30
0.0
  0
SPLINE
  5
30A
100
AcDbEntity
  8
0
100
AcDbSpline
 62
7
  6
BYLAYER
 70
0
 71
3
 72
25
 73
21
 74
0
 42
0.0000001
 43
0.0000001
 44
0.0000000001
 40
0.0
 40
0.0
 40
0.0
 40
0.0
 40
0.0630132518
 40
0.1258317129
 40
0.188206186
 40
0.2503747773
 40
0.3123783049
 40
0.3742851245
 40
0.4361774727
 40
0.4671854171
 40
0.4982169619
 40
0.5603242875
 40
0.6226267659
 40
0.6538953612
 40
0.6852220129
 40
0.7479470842
 40
0.8108353254
 40
0.8738187676
 40
0.9369441598
 40
1.0
 40
1.0
 40
1.0
 40
1.0
 10
15.3296877508
 20
50.265787027
 30
0.0
 10
15.3378198464
 20
50.3241156451
 30
0.0
 10
15.3655115973
 20
50.4390452168
 30
0.0
 10
15.4392202405
 20
50.5997490704
 30
0.0
 10
15.5426878607
 20
50.7421509252
 30
0.0
 10
15.6713025158
 20
50.8612218145
 30
0.0
 10
15.8207138495
 20
50.9520465644
 30
0.0
 10
15.9847795683
 20
51.0116745827
 30
0.0
 10
16.1287778635
 20
51.0329231747
 30
0.0
 10
16.2446181119
 20
51.0327010288
 30
0.0
 10
16.3600809545
 20
51.0209691428
 30
0.0
 10
16.5015675173
 20
50.9845179712
 30
0.0
 10
16.6334159389
 20
50.9210878698
 30
0.0
 10
16.7299610246
 20
50.8554362013
 30
0.0
 10
16.8199439644
 20
50.7804476977
 30
0.0
 10
16.9184087821
 20
50.6706153131
 30
0.0
 10
17.0086937889
 20
50.5182366196
 30
0.0
 10
17.0685152657
 20
50.3511016502
 30
0.0
 10
17.094870102
 20
50.1753909786
 30
0.0
 10
17.0898053948
 20
50.0569841885
 30
0.0
 10
17.0815515392
 20
49.9986175177
 30
0.0
  0
SPLINE
  5
30B
100
AcDbEntity
  8
0
100
AcDbSpline
 62
7
  6
BYLAYER
 70
0
 71
3
 72
13
 73
9
 74
0
 42
0.0000001
 43
0.0000001
 44
0.0000000001
 40
0.0
 40
0.0
 40
0.0
 40
0.0
 40
0.1522882461
 40
0.3095375468
 40
0.4726824099
 40
0.6423887719
 40
0.8180172735
 40
1.0
 40
1.0
 40
1.0
 40
1.0
 10
28.428161317
 20
47.7013196768
 30
0.0
 10
28.3787870962
 20
47.7048327147
 30
0.0
 10
28.2785344953
 20
47.7138293659
 30
0.0
 10
28.1263455713
 20
47.735088194
 30
0.0
 10
27.9688226634
 20
47.7587847639
 30
0.0
 10
27.8047581901
 20
47.7790429035
 30
0.0
 10
27.6338990593
 20
47.793209554
 30
0.0
 10
27.5177261402
 20
47.7980076372
 30
0.0
 10
27.458591005
 20
47.799368556
 30
0.0
  0
SPLINE
  5
30C
100
AcDbEntity
  8
0
100
AcDbSpline
 62
7
  6
BYLAYER
 70
0
 71
3
 72
51
 73
47
 74
0
 42
0.0000001
 43
0.0000001
 44
0.0000000001
 40
0.0
 40
0.0
 40
0.0
 40
0.0
 40
0.0013443985
 40
0.0026273383
 40
0.0052738038
 40
0.009329589
 40
0.0148268596
 40
0.0217819279
 40
0.0301611456
 40
0.0399016917
 40
0.0508742362
 40
0.0759136262
 40
0.1040842928
 40
0.1344901364
 40
0.166611811
 40
0.2002373207
 40
0.2352329474
 40
0.2715266138
 40
0.3476995193
 40
0.42786149
 40
0.5108318341
 40
0.5952531564
 40
0.637560326
 40
0.6796854234
 40
0.7214449709
 40
0.7626550852
 40
0.8031363813
 40
0.8427128799
 40
0.8812149723
 40
0.9000131198
 40
0.9184835352
 40
0.927534648
 40
0.9362305855
 40
0.9523555835
 40
0.9664843766
 40
0.972670544
 40
0.9782024024
 40
0.9830345708
 40
0.9871440566
 40
0.9905280828
 40
0.9932417127
 40
0.9953732683
 40
0.9970866609
 40
0.9985656505
 40
0.9992764027
 40
1.0
 40
1.0
 40
1.0
 40
1.0
 10
11.2208742326
 20
48.6765745568
 30
0.0
 10
11.2005708075
 20
48.6731857069
 30
0.0
 10
11.1923325304
 20
48.6718177447
 30
0.0
 10
11.2310570181
 20
48.6782651666
 30
0.0
 10
11.2677241811
 20
48.6841666133
 30
0.0
 10
11.3359332032
 20
48.6949919379
 30
0.0
 10
11.4229451687
 20
48.708407223
 30
0.0
 10
11.5348856853
 20
48.725288488
 30
0.0
 10
11.6689077476
 20
48.7452825719
 30
0.0
 10
11.8246723192
 20
48.7684227885
 30
0.0
 10
12.0696471054
 20
48.8039706787
 30
0.0
 10
12.4137362344
 20
48.8511397608
 30
0.0
 10
12.8624994377
 20
48.9086845805
 30
0.0
 10
13.349571236
 20
48.9687667175
 30
0.0
 10
13.8661581815
 20
49.0306342962
 30
0.0
 10
14.4078608678
 20
49.0915728361
 30
0.0
 10
14.9726229532
 20
49.1492226751
 30
0.0
 10
15.7671658722
 20
49.2225150879
 30
0.0
 10
16.8063859862
 20
49.303497846
 30
0.0
 10
18.0993043864
 20
49.3765623752
 30
0.0
 10
19.4383268276
 20
49.4178062399
 30
0.0
 10
20.5732265162
 20
49.4185262571
 30
0.0
 10
21.4866047955
 20
49.3941087656
 30
0.0
 10
22.1687204352
 20
49.3620877972
 30
0.0
 10
22.8440391501
 20
49.3152581039
 30
0.0
 10
23.5091477198
 20
49.2525300444
 30
0.0
 10
24.160555958
 20
49.17282334
 30
0.0
 10
24.7947012409
 20
49.0750896105
 30
0.0
 10
25.3097442818
 20
48.9768321215
 30
0.0
 10
25.7100262642
 20
48.8880443695
 30
0.0
 10
25.9535644972
 20
48.8287260141
 30
0.0
 10
26.1430469487
 20
48.7787052013
 30
0.0
 10
26.3198335912
 20
48.7303470814
 30
0.0
 10
26.5224889938
 20
48.6724691083
 30
0.0
 10
26.711815892
 20
48.6173985636
 30
0.0
 10
26.8463161154
 20
48.5790666269
 30
0.0
 10
26.9326006295
 20
48.5550931698
 30
0.0
 10
27.0082824043
 20
48.5349481141
 30
0.0
 10
27.0729630049
 20
48.5186756458
 30
0.0
 10
27.1267694173
 20
48.5061981513
 30
0.0
 10
27.1703688155
 20
48.4971328606
 30
0.0
 10
27.2053132656
 20
48.4909030446
 30
0.0
 10
27.233856562
 20
48.4869615407
 30
0.0
 10
27.2548938642
 20
48.4849798015
 30
0.0
 10
27.2706434494
 20
48.4842506498
 30
0.0
 10
27.2784050514
 20
48.4841337819
 30
0.0
 10
27.2823205062
 20
48.4841365053
 30
0.0
  0
SPLINE
  5
30D
100
AcDbEntity
  8
0
100
AcDbSpline
 62
7
  6
BYLAYER
 70
0
 71
3
 72
121
 73
117
 74
0
 42
0.0000001
 43
0.0000001
 44
0.0000000001
 40
0.0
 40
0.0
 40
0.0
 40
0.0
 40
0.0097744017
 40
0.0184015315
 40
0.0260129836
 40
0.0327468041
 40
0.0387102685
 40
0.0439807041
 40
0.0486263893
 40
0.0527131574
 40
0.0563105325
 40
0.0594837992
 40
0.0622927938
 40
0.0647873311
 40
0.0670034813
 40
0.0689785485
 40
0.0707408803
 40
0.0723114661
 40
0.0737113106
 40
0.0749608315
 40
0.0760923982
 40
0.0771479671
 40
0.0781757698
 40
0.0792271158
 40
0.0803381506
 40
0.0815400899
 40
0.0828686687
 40
0.084372998
 40
0.0860884468
 40
0.0880287467
 40
0.0901828607
 40
0.0925697037
 40
0.0952172306
 40
0.0981554828
 40
0.1014286269
 40
0.105073649
 40
0.1091303079
 40
0.1136472175
 40
0.1186825554
 40
0.1243051893
 40
0.1305929004
 40
0.1376254988
 40
0.145474643
 40
0.1542555183
 40
0.1640894874
 40
0.1751181987
 40
0.1874663349
 40
0.2012638879
 40
0.2166521364
 40
0.2338457441
 40
0.2530273022
 40
0.2743812558
 40
0.2980636647
 40
0.3244489654
 40
0.3541884762
 40
0.385556791
 40
0.4143026965
 40
0.4395256719
 40
0.4621012838
 40
0.482392485
 40
0.5007305426
 40
0.5172866572
 40
0.5322171128
 40
0.5456693626
 40
0.5577581121
 40
0.5685998074
 40
0.5783019773
 40
0.5869675256
 40
0.594697079
 40
0.6015790239
 40
0.6077072582
 40
0.6131698644
 40
0.6180211409
 40
0.6223088493
 40
0.6260757318
 40
0.6293575157
 40
0.6321840622
 40
0.6346021786
 40
0.6366543372
 40
0.6383709318
 40
0.6398143527
 40
0.6410805499
 40
0.6422958825
 40
0.6435741025
 40
0.6450189279
 40
0.6467467075
 40
0.6488327869
 40
0.6513003818
 40
0.6541455342
 40
0.6573954619
 40
0.6610721564
 40
0.6651963612
 40
0.6697969538
 40
0.6749069997
 40
0.6805657846
 40
0.6868166799
 40
0.6937147125
 40
0.7013457606
 40
0.7097903367
 40
0.7191284983
 40
0.7294392597
 40
0.7407970731
 40
0.7532945944
 40
0.7670429083
 40
0.7821946155
 40
0.7989457839
 40
0.8174877677
 40
0.8380652502
 40
0.8609729731
 40
0.8861767734
 40
0.9110893422
 40
0.933513705
 40
0.9530653721
 40
0.9703435521
 40
0.985848258
 40
1.0
 40
1.0
 40
1.0
 40
1.0
 10
26.7616120354
 20
48.5666630596
 30
0.0
 10
26.8220502931
 20
48.540222214
 30
0.0
 10
26.935817558
 20
48.4903806627
 30
0.0
 10
27.0988825099
 20
48.4252312106
 30
0.0
 10
27.2403734204
 20
48.3617894787
 30
0.0
 10
27.3660836709
 20
48.3071607116
 30
0.0
 10
27.4783023005
 20
48.2611483183
 30
0.0
 10
27.5792738433
 20
48.2250304816
 30
0.0
 10
27.6704196667
 20
48.1996652369
 30
0.0
 10
27.7523088087
 20
48.1842553199
 30
0.0
 10
27.8253236918
 20
48.1771092971
 30
0.0
 10
27.8900221977
 20
48.1758040928
 30
0.0
 10
27.9472058348
 20
48.1787443168
 30
0.0
 10
27.9976158316
 20
48.1850207975
 30
0.0
 10
28.0418588932
 20
48.1941635355
 30
0.0
 10
28.0803553163
 20
48.2059058445
 30
0.0
 10
28.1133807655
 20
48.2199877145
 30
0.0
 10
28.1411056015
 20
48.2360256907
 30
0.0
 10
28.1637121036
 20
48.2534978462
 30
0.0
 10
28.1815867301
 20
48.2718269067
 30
0.0
 10
28.1953653958
 20
48.2905743228
 30
0.0
 10
28.2058055029
 20
48.3096645776
 30
0.0
 10
28.2135495254
 20
48.3294104361
 30
0.0
 10
28.2189300058
 20
48.3503114526
 30
0.0
 10
28.2219527178
 20
48.3728681137
 30
0.0
 10
28.222373674
 20
48.3974954301
 30
0.0
 10
28.2197670565
 20
48.4246578774
 30
0.0
 10
28.2135189536
 20
48.4547722368
 30
0.0
 10
28.2029453487
 20
48.488014192
 30
0.0
 10
28.1875843339
 20
48.524149018
 30
0.0
 10
28.1670329844
 20
48.5628222937
 30
0.0
 10
28.1407627985
 20
48.6036748165
 30
0.0
 10
28.1080696168
 20
48.6464852504
 30
0.0
 10
28.0680317466
 20
48.6909782273
 30
0.0
 10
28.0196558887
 20
48.7367408681
 30
0.0
 10
27.9620657157
 20
48.7834291004
 30
0.0
 10
27.8944276578
 20
48.8307178753
 30
0.0
 10
27.8157978416
 20
48.8783063285
 30
0.0
 10
27.7250293657
 20
48.9258852735
 30
0.0
 10
27.6205298666
 20
48.9725474312
 30
0.0
 10
27.5007607361
 20
49.0174825447
 30
0.0
 10
27.3644122399
 20
49.0603682892
 30
0.0
 10
27.2100917111
 20
49.1016145393
 30
0.0
 10
27.0362790595
 20
49.1427767706
 30
0.0
 10
26.8410525674
 20
49.1865310912
 30
0.0
 10
26.6221009488
 20
49.2345082612
 30
0.0
 10
26.3764860066
 20
49.2857494926
 30
0.0
 10
26.1010738873
 20
49.3380907548
 30
0.0
 10
25.7923230741
 20
49.3897132061
 30
0.0
 10
25.4472465364
 20
49.4442526989
 30
0.0
 10
25.0623987668
 20
49.5050028257
 30
0.0
 10
24.6340053192
 20
49.5711030969
 30
0.0
 10
24.1552753506
 20
49.6279380662
 30
0.0
 10
23.6202039261
 20
49.6896357724
 30
0.0
 10
23.0327196516
 20
49.7496764988
 30
0.0
 10
22.428297109
 20
49.7993572117
 30
0.0
 10
21.8539035256
 20
49.841732391
 30
0.0
 10
21.3384923902
 20
49.8769564527
 30
0.0
 10
20.8798740944
 20
49.9061930516
 30
0.0
 10
20.4675728506
 20
49.9315643023
 30
0.0
 10
20.0958213742
 20
49.9544391324
 30
0.0
 10
19.7601928632
 20
49.9752660626
 30
0.0
 10
19.4574219151
 20
49.9931729829
 30
0.0
 10
19.1846457669
 20
50.0074843749
 30
0.0
 10
18.9393027741
 20
50.0177729818
 30
0.0
 10
18.7191344796
 20
50.0238478568
 30
0.0
 10
18.5219901292
 20
50.0256688838
 30
0.0
 10
18.3458538999
 20
50.0232530936
 30
0.0
 10
18.1888615398
 20
50.0168725847
 30
0.0
 10
18.0492160829
 20
50.0069161044
 30
0.0
 10
17.9252034423
 20
49.9938213029
 30
0.0
 10
17.8153362853
 20
49.9780012825
 30
0.0
 10
17.7184624086
 20
49.9597135601
 30
0.0
 10
17.6337724672
 20
49.9391575116
 30
0.0
 10
17.5606083589
 20
49.9165823424
 30
0.0
 10
17.4984804403
 20
49.8922489885
 30
0.0
 10
17.4469437638
 20
49.866425418
 30
0.0
 10
17.4056122223
 20
49.8394000058
 30
0.0
 10
17.3742454112
 20
49.8115472497
 30
0.0
 10
17.352656495
 20
49.7834339868
 30
0.0
 10
17.3404395797
 20
49.7558069241
 30
0.0
 10
17.3366421785
 20
49.7292396267
 30
0.0
 10
17.340251842
 20
49.7037995008
 30
0.0
 10
17.3508544798
 20
49.6791291301
 30
0.0
 10
17.3688533868
 20
49.6548015544
 30
0.0
 10
17.3952360775
 20
49.6307821578
 30
0.0
 10
17.4309044984
 20
49.6075915034
 30
0.0
 10
17.47606692
 20
49.5860197302
 30
0.0
 10
17.5306344575
 20
49.5667261887
 30
0.0
 10
17.5945566775
 20
49.5502136787
 30
0.0
 10
17.6679997089
 20
49.536895833
 30
0.0
 10
17.7511826415
 20
49.5271849397
 30
0.0
 10
17.8444249132
 20
49.5214984283
 30
0.0
 10
17.9481839002
 20
49.5202533733
 30
0.0
 10
18.0630292664
 20
49.5237389299
 30
0.0
 10
18.1897056103
 20
49.5322176541
 30
0.0
 10
18.3293085009
 20
49.5458208084
 30
0.0
 10
18.4832430345
 20
49.5644946938
 30
0.0
 10
18.6531514415
 20
49.5879980251
 30
0.0
 10
18.8407125326
 20
49.6157850677
 30
0.0
 10
19.0476380831
 20
49.6470164819
 30
0.0
 10
19.2756460223
 20
49.6814421146
 30
0.0
 10
19.5266521945
 20
49.7189528436
 30
0.0
 10
19.8033153139
 20
49.7579921816
 30
0.0
 10
20.1090713011
 20
49.7961654403
 30
0.0
 10
20.4479198261
 20
49.8297009973
 30
0.0
 10
20.8241277155
 20
49.8561136882
 30
0.0
 10
21.2425003091
 20
49.8726785289
 30
0.0
 10
21.706167654
 20
49.8759446284
 30
0.0
 10
22.1989392068
 20
49.862505354
 30
0.0
 10
22.6876801975
 20
49.8320801299
 30
0.0
 10
23.1371153548
 20
49.7885726438
 30
0.0
 10
23.5336571019
 20
49.7362304238
 30
0.0
 10
23.8826798642
 20
49.6820185135
 30
0.0
 10
24.1945486217
 20
49.625705443
 30
0.0
 10
24.3881652327
 20
49.5735702215
 30
0.0
 10
24.4790363777
 20
49.5441588009
 30
0.0
  0
SPLINE
  5
30E
100
AcDbEntity
  8
0
100
AcDbSpline
 62
7
  6
BYLAYER
 70
0
 71
3
 72
26
 73
22
 74
0
 42
0.0000001
 43
0.0000001
 44
0.0000000001
 40
0.0
 40
0.0
 40
0.0
 40
0.0
 40
0.1073898494
 40
0.2046545392
 40
0.2927626032
 40
0.3725751529
 40
0.444807349
 40
0.5100860332
 40
0.5689516574
 40
0.62187822
 40
0.6693755996
 40
0.7119690339
 40
0.7500029929
 40
0.7833644987
 40
0.8129185711
 40
0.8400670199
 40
0.8670063791
 40
0.8951020397
 40
0.9260782022
 40
0.9606283352
 40
1.0
 40
1.0
 40
1.0
 40
1.0
 10
25.7538515489
 20
48.3779230761
 30
0.0
 10
25.7978172274
 20
48.3642781811
 30
0.0
 10
25.8819996056
 20
48.3395256582
 30
0.0
 10
26.0035195428
 20
48.3080868639
 30
0.0
 10
26.1145592394
 20
48.2836171736
 30
0.0
 10
26.2159419263
 20
48.265565297
 30
0.0
 10
26.3083508502
 20
48.253474618
 30
0.0
 10
26.3923239485
 20
48.2469658369
 30
0.0
 10
26.4682745693
 20
48.2457634179
 30
0.0
 10
26.5365173627
 20
48.2496365031
 30
0.0
 10
26.5972855938
 20
48.2584155397
 30
0.0
 10
26.6506303716
 20
48.272003774
 30
0.0
 10
26.6961513356
 20
48.2902428888
 30
0.0
 10
26.7333643146
 20
48.312782931
 30
0.0
 10
26.7620370233
 20
48.3390716091
 30
0.0
 10
26.7825059109
 20
48.3689153969
 30
0.0
 10
26.7949199405
 20
48.4022644881
 30
0.0
 10
26.7992037773
 20
48.4392110774
 30
0.0
 10
26.795156845
 20
48.4793998603
 30
0.0
 10
26.7827116079
 20
48.5228213129
 30
0.0
 10
26.7693549796
 20
48.5516667303
 30
0.0
 10
26.7616120354
 20
48.5666630596
 30
0.0
  0
SPLINE
  5
30F
100
AcDbEntity
  8
0
100
AcDbSpline
 62
7
  6
BYLAYER
 70
0
 71
3
 72
55
 73
51
 74
0
 42
0.0000001
 43
0.0000001
 44
0.0000000001
 40
0.0
 40
0.0
 40
0.0
 40
0.0
 40
0.0003479722
 40
0.0006302427
 40
0.0010040555
 40
0.0011341947
 40
0.0012350297
 40
0.0015537729
 40
0.0020762809
 40
0.0027881138
 40
0.00367483
 40
0.0047224619
 40
0.0059189396
 40
0.0072526676
 40
0.0087120503
 40
0.0119752405
 40
0.0156850227
 40
0.0198504133
 40
0.0245541054
 40
0.0298996841
 40
0.0360012425
 40
0.0429666185
 40
0.0508682311
 40
0.0597610776
 40
0.0696653447
 40
0.092487085
 40
0.1190885609
 40
0.1491392742
 40
0.182242724
 40
0.2179988587
 40
0.2560539138
 40
0.3377508577
 40
0.4249361057
 40
0.5154825439
 40
0.5614094684
 40
0.6074701213
 40
0.6534516159
 40
0.6991546909
 40
0.7443938682
 40
0.7890000709
 40
0.832824138
 40
0.8544041823
 40
0.8757438184
 40
0.8863799294
 40
0.8972191052
 40
0.9195361751
 40
0.9427117999
 40
0.9668014996
 40
0.9918171885
 40
1.0
 40
1.0
 40
1.0
 40
1.0
 10
12.9906425275
 20
48.3898050106
 30
0.0
 10
12.9891956907
 20
48.3895592707
 30
0.0
 10
12.9859352121
 20
48.3890204369
 30
0.0
 10
12.9808631521
 20
48.3881907073
 30
0.0
 10
12.9782931188
 20
48.3877622416
 30
0.0
 10
12.9733573286
 20
48.3870083281
 30
0.0
 10
12.9773987377
 20
48.3877160401
 30
0.0
 10
12.9808861362
 20
48.3882522044
 30
0.0
 10
12.9889581071
 20
48.3895547049
 30
0.0
 10
12.998927407
 20
48.3911214096
 30
0.0
 10
13.0117744357
 20
48.3931426075
 30
0.0
 10
13.0268321274
 20
48.3954983339
 30
0.0
 10
13.0440884769
 20
48.3981923284
 30
0.0
 10
13.063316556
 20
48.4011872934
 30
0.0
 10
13.0925126329
 20
48.4057284981
 30
0.0
 10
13.1331638878
 20
48.4120300209
 30
0.0
 10
13.1869097258
 20
48.4200419144
 30
0.0
 10
13.24768311
 20
48.42855437
 30
0.0
 10
13.3163771763
 20
48.4380448703
 30
0.0
 10
13.3944012579
 20
48.4490210135
 30
0.0
 10
13.483344705
 20
48.4615811451
 30
0.0
 10
13.58464554
 20
48.4758132002
 30
0.0
 10
13.6994920187
 20
48.4915044822
 30
0.0
 10
13.8286415795
 20
48.5084095114
 30
0.0
 10
14.0301268777
 20
48.533489511
 30
0.0
 10
14.3176968107
 20
48.5663137471
 30
0.0
 10
14.7032422383
 20
48.6072925674
 30
0.0
 10
15.138905646
 20
48.6512784401
 30
0.0
 10
15.6193657578
 20
48.6960614497
 30
0.0
 10
16.1391493173
 20
48.7394978488
 30
0.0
 10
16.8957881625
 20
48.7948659469
 30
0.0
 10
17.9038623229
 20
48.8512949613
 30
0.0
 10
19.1690466194
 20
48.8900630525
 30
0.0
 10
20.260398329
 20
48.8904861232
 30
0.0
 10
21.1506251331
 20
48.8666750843
 30
0.0
 10
21.8230225428
 20
48.8351203781
 30
0.0
 10
22.4934689281
 20
48.7886403347
 30
0.0
 10
23.158575836
 20
48.7258683504
 30
0.0
 10
23.8150412623
 20
48.6454373816
 30
0.0
 10
24.4596284911
 20
48.5459394531
 30
0.0
 10
24.9870014242
 20
48.4456173406
 30
0.0
 10
25.4001312109
 20
48.3537987956
 30
0.0
 10
25.6538970899
 20
48.2915210842
 30
0.0
 10
25.8559390822
 20
48.2385236065
 30
0.0
 10
26.0619684074
 20
48.1819863625
 30
0.0
 10
26.3261959898
 20
48.1064206436
 30
0.0
 10
26.6521749405
 20
48.0117082096
 30
0.0
 10
26.9915042842
 20
47.9157783477
 30
0.0
 10
27.2619843373
 20
47.8452195563
 30
0.0
 10
27.4196627752
 20
47.8082179601
 30
0.0
 10
27.4585910235
 20
47.799368555
 30
0.0
  0
SPLINE
  5
310
100
AcDbEntity
  8
0
100
AcDbSpline
 62
7
  6
BYLAYER
 70
0
 71
3
 72
10
 73
6
 74
0
 42
0.0000001
 43
0.0000001
 44
0.0000000001
 40
0.0
 40
0.0
 40
0.0
 40
0.0
 40
0.3419008565
 40
0.6736511378
 40
1.0
 40
1.0
 40
1.0
 40
1.0
 10
28.098755644
 20
47.221336814
 30
0.0
 10
28.0730236362
 20
47.2063559263
 30
0.0
 10
28.0198602252
 20
47.1807875621
 30
0.0
 10
27.9356383566
 20
47.157030638
 30
0.0
 10
27.8781871589
 20
47.1516926704
 30
0.0
 10
27.8497663281
 20
47.1516926704
 30
0.0
  0
SPLINE
  5
311
100
AcDbEntity
  8
0
100
AcDbSpline
 62
7
  6
BYLAYER
 70
0
 71
3
 72
29
 73
25
 74
0
 42
0.0000001
 43
0.0000001
 44
0.0000000001
 40
0.0
 40
0.0
 40
0.0
 40
0.0
 40
0.0443350841
 40
0.0894694582
 40
0.1352019254
 40
0.1813219444
 40
0.2738154431
 40
0.3652403744
 40
0.4539215399
 40
0.4968329402
 40
0.5385742771
 40
0.6181120352
 40
0.6559495809
 40
0.6925018227
 40
0.7278657178
 40
0.7622154023
 40
0.7957646794
 40
0.8287669307
 40
0.8615219028
 40
0.8943494672
 40
0.9275508987
 40
0.9614068718
 40
0.9805457821
 40
1.0
 40
1.0
 40
1.0
 40
1.0
 10
27.2823205048
 20
48.4841365012
 30
0.0
 10
27.2728009901
 20
48.4575941934
 30
0.0
 10
27.2556836456
 20
48.4033026789
 30
0.0
 10
27.2359719037
 20
48.3195603431
 30
0.0
 10
27.2220944109
 20
48.2335099253
 30
0.0
 10
27.2115943626
 20
48.1167044564
 30
0.0
 10
27.2138651867
 20
47.9699663881
 30
0.0
 10
27.2403143314
 20
47.7981458534
 30
0.0
 10
27.2822274783
 20
47.662078426
 30
0.0
 10
27.3268835439
 20
47.5612129033
 30
0.0
 10
27.3769118764
 20
47.4695071516
 30
0.0
 10
27.4369491484
 20
47.3872064614
 30
0.0
 10
27.5059801445
 20
47.3176395618
 30
0.0
 10
27.5602640892
 20
47.2735613114
 30
0.0
 10
27.6174457099
 20
47.2372846536
 30
0.0
 10
27.6769201758
 20
47.2090856469
 30
0.0
 10
27.7381059866
 20
47.189213832
 30
0.0
 10
27.8004255521
 20
47.1779234574
 30
0.0
 10
27.8632576024
 20
47.1754743241
 30
0.0
 10
27.9259425214
 20
47.1817671115
 30
0.0
 10
27.9878606434
 20
47.1966829407
 30
0.0
 10
28.0391220617
 20
47.216519181
 30
0.0
 10
28.0802477919
 20
47.2373270745
 30
0.0
 10
28.1013499004
 20
47.2498800595
 30
0.0
 10
28.1117709421
 20
47.2565460666
 30
0.0
  0
SPLINE
  5
312
100
AcDbEntity
  8
0
100
AcDbSpline
 62
7
  6
BYLAYER
 70
0
 71
3
 72
33
 73
29
 74
0
 42
0.0000001
 43
0.0000001
 44
0.0000000001
 40
0.0
 40
0.0
 40
0.0
 40
0.0
 40
0.0319634316
 40
0.0644034446
 40
0.0972015037
 40
0.1302353193
 40
0.2038818971
 40
0.2766776439
 40
0.3472887079
 40
0.3814562745
 40
0.4146921954
 40
0.4780229568
 40
0.5081505418
 40
0.5372547227
 40
0.5654127002
 40
0.5927631275
 40
0.6194762422
 40
0.6457537958
 40
0.6718344569
 40
0.6979729186
 40
0.7244090665
 40
0.7513663834
 40
0.8075060929
 40
0.8675242458
 40
0.8991585989
 40
0.9318313094
 40
0.9654747932
 40
1.0
 40
1.0
 40
1.0
 40
1.0
 10
28.428161317
 20
47.7013196768
 30
0.0
 10
28.4360283134
 20
47.7256059187
 30
0.0
 10
28.450200154
 20
47.7750714881
 30
0.0
 10
28.4666276827
 20
47.8509782738
 30
0.0
 10
28.4783065503
 20
47.9286228732
 30
0.0
 10
28.4878923807
 20
48.039632723
 30
0.0
 10
28.4856675328
 20
48.1834200492
 30
0.0
 10
28.459218308
 20
48.3552391982
 30
0.0
 10
28.4173051798
 20
48.491306949
 30
0.0
 10
28.3726491119
 20
48.5921724316
 30
0.0
 10
28.3226207799
 20
48.6838781926
 30
0.0
 10
28.2625835078
 20
48.7661788791
 30
0.0
 10
28.1935525115
 20
48.8357457791
 30
0.0
 10
28.1392685675
 20
48.8798240298
 30
0.0
 10
28.0820869443
 20
48.916100686
 30
0.0
 10
28.0226124873
 20
48.9442996985
 30
0.0
 10
27.9614266444
 20
48.9641714924
 30
0.0
 10
27.8991071961
 20
48.9754619438
 30
0.0
 10
27.8362747125
 20
48.9779107932
 30
0.0
 10
27.7735914181
 20
48.9716190699
 30
0.0
 10
27.7116671222
 20
48.9566991974
 30
0.0
 10
27.6298892368
 20
48.9250628292
 30
0.0
 10
27.5323103305
 20
48.8633236706
 30
0.0
 10
27.4483247398
 20
48.7792051022
 30
0.0
 10
27.388977502
 20
48.699494898
 30
0.0
 10
27.3481004811
 20
48.6326943953
 30
0.0
 10
27.3120131889
 20
48.5606228806
 30
0.0
 10
27.2916426447
 20
48.5100792947
 30
0.0
 10
27.2823205062
 20
48.4841365053
 30
0.0
  0
SPLINE
  5
313
100
AcDbEntity
  8
0
100
AcDbSpline
 62
7
  6
BYLAYER
 70
0
 71
3
 72
14
 73
10
 74
0
 42
0.0000001
 43
0.0000001
 44
0.0000000001
 40
0.0
 40
0.0
 40
0.0
 40
0.0
 40
0.1160453777
 40
0.2393464563
 40
0.3745702701
 40
0.5220457991
 40
0.6788561145
 40
0.8401004228
 40
1.0
 40
1.0
 40
1.0
 40
1.0
 10
27.8497663281
 20
49.0016926704
 30
0.0
 10
27.9119132837
 20
49.0016926704
 30
0.0
 10
28.0412659431
 20
48.9745993255
 30
0.0
 10
28.2116453864
 20
48.8618001033
 30
0.0
 10
28.3502090264
 20
48.6906679279
 30
0.0
 10
28.4493752745
 20
48.4749428557
 30
0.0
 10
28.5033369652
 20
48.2297411122
 30
0.0
 10
28.508233122
 20
47.9722842869
 30
0.0
 10
28.4774112576
 20
47.8016064619
 30
0.0
 10
28.4531051205
 20
47.7194958015
 30
0.0
  0
SPLINE
  5
314
100
AcDbEntity
  8
0
100
AcDbSpline
 62
7
  6
BYLAYER
 70
0
 71
3
 72
10
 73
6
 74
0
 42
0.0000001
 43
0.0000001
 44
0.0000000001
 40
0.0
 40
0.0
 40
0.0
 40
0.0
 40
0.3419008565
 40
0.6736511378
 40
1.0
 40
1.0
 40
1.0
 40
1.0
 10
27.6007770121
 20
48.9320485269
 30
0.0
 10
27.6265090199
 20
48.9470294146
 30
0.0
 10
27.679672431
 20
48.9725977788
 30
0.0
 10
27.7638942995
 20
48.9963547029
 30
0.0
 10
27.8213454972
 20
49.0016926704
 30
0.0
 10
27.8497663281
 20
49.0016926704
 30
0.0
  0
SPLINE
  5
315
100
AcDbEntity
  8
0
100
AcDbSpline
 62
7
  6
BYLAYER
 70
0
 71
3
 72
17
 73
13
 74
0
 42
0.0000001
 43
0.0000001
 44
0.0000000001
 40
0.0
 40
0.0
 40
0.0
 40
0.0
 40
0.0819062705
 40
0.1688837608
 40
0.2640903549
 40
0.3677194925
 40
0.4777117717
 40
0.5906499571
 40
0.7025593667
 40
0.8096514361
 40
0.9091096813
 40
1.0
 40
1.0
 40
1.0
 40
1.0
 10
27.8497663281
 20
47.1516926704
 30
0.0
 10
27.7888635403
 20
47.1516926704
 30
0.0
 10
27.6621687668
 20
47.1776569153
 30
0.0
 10
27.4942968625
 20
47.286254359
 30
0.0
 10
27.3566366237
 20
47.4516425308
 30
0.0
 10
27.2566484832
 20
47.6605510864
 30
0.0
 10
27.1998184528
 20
47.898312971
 30
0.0
 10
27.1896448646
 20
48.1486016976
 30
0.0
 10
27.2268459288
 20
48.3941818968
 30
0.0
 10
27.3094494721
 20
48.6180946488
 30
0.0
 10
27.4325327666
 20
48.8044398558
 30
0.0
 10
27.5423711464
 20
48.8980452838
 30
0.0
 10
27.6007770121
 20
48.9320485269
 30
0.0
  0
SPLINE
  5
316
100
AcDbEntity
  8
0
100
AcDbSpline
 62
7
  6
BYLAYER
 70
0
 71
3
 72
23
 73
19
 74
0
 42
0.0000001
 43
0.0000001
 44
0.0000000001
 40
0.0
 40
0.0
 40
0.0
 40
0.0
 40
0.0625917606
 40
0.1251370424
 40
0.1876286094
 40
0.2500680465
 40
0.3124642522
 40
0.3748332544
 40
0.4371949133
 40
0.4995703031
 40
0.5619785617
 40
0.6244334011
 40
0.6869419869
 40
0.749502645
 40
0.8121064209
 40
0.8747372983
 40
0.9373754857
 40
1.0
 40
1.0
 40
1.0
 40
1.0
 10
12.9906425275
 20
48.3898050106
 30
0.0
 10
12.9813843276
 20
48.3316884369
 30
0.0
 10
12.9513649736
 20
48.2173200012
 30
0.0
 10
12.8741399202
 20
48.0577365785
 30
0.0
 10
12.7670976518
 20
47.9165857784
 30
0.0
 10
12.6348755501
 20
47.7988983516
 30
0.0
 10
12.4821118457
 20
47.709699686
 30
0.0
 10
12.3150149085
 20
47.6518505087
 30
0.0
 10
12.1397947009
 20
47.6282068294
 30
0.0
 10
11.9632813032
 20
47.6390187372
 30
0.0
 10
11.7923052094
 20
47.6845310394
 30
0.0
 10
11.6332697543
 20
47.7623459641
 30
0.0
 10
11.4925780664
 20
47.870062951
 30
0.0
 10
11.3752294044
 20
48.0030096225
 30
0.0
 10
11.2862244793
 20
48.156514031
 30
0.0
 10
11.2284045739
 20
48.324345693
 30
0.0
 10
11.2046119621
 20
48.5002763991
 30
0.0
 10
11.2116144791
 20
48.6184236785
 30
0.0
 10
11.2208742319
 20
48.6765745523
 30
0.0
  0
SPLINE
  5
317
100
AcDbEntity
  8
0
100
AcDbSpline
 62
7
  6
BYLAYER
 70
0
 71
3
 72
23
 73
19
 74
0
 42
0.0000001
 43
0.0000001
 44
0.0000000001
 40
0.0
 40
0.0
 40
0.0
 40
0.0
 40
0.0625917611
 40
0.1251370434
 40
0.18762861
 40
0.2500680466
 40
0.312464252
 40
0.3748332538
 40
0.4371949123
 40
0.4995703017
 40
0.5619785599
 40
0.624433399
 40
0.6869419843
 40
0.749502642
 40
0.8121064175
 40
0.8747372946
 40
0.9373754839
 40
1.0
 40
1.0
 40
1.0
 40
1.0
 10
11.2208742326
 20
48.6765745568
 30
0.0
 10
11.2301324323
 20
48.7346911315
 30
0.0
 10
11.2601517862
 20
48.8490595689
 30
0.0
 10
11.3373768402
 20
49.0086429932
 30
0.0
 10
11.444419109
 20
49.149793794
 30
0.0
 10
11.5766412108
 20
49.2674812208
 30
0.0
 10
11.7294049151
 20
49.3566798864
 30
0.0
 10
11.8965018524
 20
49.4145290637
 30
0.0
 10
12.07172206
 20
49.438172743
 30
0.0
 10
12.2482354576
 20
49.4273608352
 30
0.0
 10
12.4192115515
 20
49.381848533
 30
0.0
 10
12.5782470066
 20
49.3040336083
 30
0.0
 10
12.7189386945
 20
49.1963166214
 30
0.0
 10
12.8362873565
 20
49.0633699499
 30
0.0
 10
12.9252922816
 20
48.9098655414
 30
0.0
 10
12.9831121876
 20
48.7420338774
 30
0.0
 10
13.0069047994
 20
48.5661031668
 30
0.0
 10
12.9999022809
 20
48.4479558832
 30
0.0
 10
12.9906425269
 20
48.3898050073
 30
0.0
  0
SPLINE
  5
318
100
AcDbEntity
  8
0
100
AcDbSpline
 62
7
  6
BYLAYER
 70
0
 71
3
 72
25
 73
21
 74
0
 42
0.0000001
 43
0.0000001
 44
0.0000000001
 40
0.0
 40
0.0
 40
0.0
 40
0.0
 40
0.0631689249
 40
0.1259742675
 40
0.1883639844
 40
0.219446051
 40
0.2504310041
 40
0.3120940284
 40
0.373558023
 40
0.4043014928
 40
0.4350592985
 40
0.496603873
 40
0.5584172152
 40
0.6205999402
 40
0.6831996651
 40
0.7461952269
 40
0.8095108946
 40
0.8730197894
 40
0.9365691897
 40
1.0
 40
1.0
 40
1.0
 40
1.0
 10
24.4730269642
 20
49.4746668448
 30
0.0
 10
24.4295722825
 20
49.4424121178
 30
0.0
 10
24.3366893689
 20
49.3863872183
 30
0.0
 10
24.1844405787
 20
49.3305631009
 30
0.0
 10
24.0513644374
 20
49.3099158135
 30
0.0
 10
23.9447282777
 20
49.3092400818
 30
0.0
 10
23.8391586488
 20
49.3190877454
 30
0.0
 10
23.7103087139
 20
49.3512835781
 30
0.0
 10
23.5906450391
 20
49.4084550757
 30
0.0
 10
23.5036575551
 20
49.4679360528
 30
0.0
 10
23.4230826076
 20
49.5359365864
 30
0.0
 10
23.3355925733
 20
49.6359197924
 30
0.0
 10
23.2568854049
 20
49.7749939507
 30
0.0
 10
23.2067154271
 20
49.9276774135
 30
0.0
 10
23.1875796193
 20
50.0882392024
 30
0.0
 10
23.1995569496
 20
50.2504449073
 30
0.0
 10
23.2427515297
 20
50.4080434347
 30
0.0
 10
23.3149101953
 20
50.5551733817
 30
0.0
 10
23.4137957079
 20
50.6859768748
 30
0.0
 10
23.4948652677
 20
50.7592887819
 30
0.0
 10
23.5384897297
 20
50.7917127733
 30
0.0
  0
SPLINE
  5
319
100
AcDbEntity
  8
0
100
AcDbSpline
 62
7
  6
BYLAYER
 70
0
 71
3
 72
25
 73
21
 74
0
 42
0.0000001
 43
0.0000001
 44
0.0000000001
 40
0.0
 40
0.0
 40
0.0
 40
0.0
 40
0.0631689249
 40
0.1259742675
 40
0.1883639844
 40
0.219446051
 40
0.250431004
 40
0.3120940284
 40
0.373558023
 40
0.4043014929
 40
0.4350592986
 40
0.4966038731
 40
0.5584172153
 40
0.6205999403
 40
0.6831996653
 40
0.746195227
 40
0.8095108947
 40
0.8730197894
 40
0.9365691898
 40
1.0
 40
1.0
 40
1.0
 40
1.0
 10
23.5384897244
 20
50.791712777
 30
0.0
 10
23.5819444061
 20
50.823967504
 30
0.0
 10
23.6748273197
 20
50.8799924035
 30
0.0
 10
23.8270761101
 20
50.9358165208
 30
0.0
 10
23.9601522514
 20
50.9564638082
 30
0.0
 10
24.0667884112
 20
50.9571395399
 30
0.0
 10
24.1723580403
 20
50.9472918762
 30
0.0
 10
24.3012079753
 20
50.9150960434
 30
0.0
 10
24.4208716502
 20
50.8579245457
 30
0.0
 10
24.5078591343
 20
50.7984435686
 30
0.0
 10
24.5884340819
 20
50.7304430349
 30
0.0
 10
24.6759241163
 20
50.6304598288
 30
0.0
 10
24.7546312849
 20
50.4913856704
 30
0.0
 10
24.8048012627
 20
50.3387022075
 30
0.0
 10
24.8239370707
 20
50.1781404185
 30
0.0
 10
24.8119597404
 20
50.0159347136
 30
0.0
 10
24.7687651604
 20
49.858336186
 30
0.0
 10
24.6966064948
 20
49.7112062391
 30
0.0
 10
24.5977209822
 20
49.580402746
 30
0.0
 10
24.5166514223
 20
49.5070908389
 30
0.0
 10
24.4730269603
 20
49.4746668474
 30
0.0
  0
SPLINE
  5
31A
100
AcDbEntity
  8
0
100
AcDbSpline
 62
7
  6
BYLAYER
 70
0
 71
3
 72
22
 73
18
 74
0
 42
0.0000001
 43
0.0000001
 44
0.0000000001
 40
0.0
 40
0.0
 40
0.0
 40
0.0
 40
0.0143320689
 40
0.0630236204
 40
0.110934505
 40
0.158489515
 40
0.2061333575
 40
0.2543254777
 40
0.3034811684
 40
0.3539400946
 40
0.4059800853
 40
0.4598187724
 40
0.515560789
 40
0.632639002
 40
0.7568255186
 40
0.8865880708
 40
1.0
 40
1.0
 40
1.0
 40
1.0
 10
27.3101824901
 20
45.3951797263
 30
0.0
 10
27.3159246406
 20
45.3926449072
 30
0.0
 10
27.3413805145
 20
45.3819668455
 30
0.0
 10
27.3877533777
 20
45.3669468113
 30
0.0
 10
27.4500733053
 20
45.3557160252
 30
0.0
 10
27.5128972032
 20
45.3531494756
 30
0.0
 10
27.5755961163
 20
45.359326448
 30
0.0
 10
27.6375076797
 20
45.3743007507
 30
0.0
 10
27.6980270043
 20
45.3977735976
 30
0.0
 10
27.7565893878
 20
45.429457215
 30
0.0
 10
27.8126245377
 20
45.469069636
 30
0.0
 10
27.8655373187
 20
45.5162995159
 30
0.0
 10
27.9324206388
 20
45.5898486347
 30
0.0
 10
28.0053577484
 20
45.6985270362
 30
0.0
 10
28.0717485915
 20
45.8475741555
 30
0.0
 10
28.1144053686
 20
46.0033074399
 30
0.0
 10
28.1286345761
 20
46.1091442887
 30
0.0
 10
28.1323733265
 20
46.1586722966
 30
0.0
  0
SPLINE
  5
31B
100
AcDbEntity
  8
0
100
AcDbSpline
 62
7
  6
BYLAYER
 70
0
 71
3
 72
9
 73
5
 74
0
 42
0.0000001
 43
0.0000001
 44
0.0000000001
 40
0.0
 40
0.0
 40
0.0
 40
0.0
 40
0.5152251951
 40
1.0
 40
1.0
 40
1.0
 40
1.0
 10
27.1061760481
 20
45.5469877031
 30
0.0
 10
27.1355355818
 20
45.5143281344
 30
0.0
 10
27.1984587076
 20
45.4559390018
 30
0.0
 10
27.2723811623
 20
45.4118667717
 30
0.0
 10
27.3101824901
 20
45.3951797263
 30
0.0
  0
SPLINE
  5
31C
100
AcDbEntity
  8
0
100
AcDbSpline
 62
7
  6
BYLAYER
 70
0
 71
3
 72
10
 73
6
 74
0
 42
0.0000001
 43
0.0000001
 44
0.0000000001
 40
0.0
 40
0.0
 40
0.0
 40
0.0
 40
0.3458809143
 40
0.6795156747
 40
1.0
 40
1.0
 40
1.0
 40
1.0
 10
26.9538046854
 20
45.7916075178
 30
0.0
 10
26.9668351206
 20
45.7608964013
 30
0.0
 10
26.9953996535
 20
45.7017547226
 30
0.0
 10
27.0463284438
 20
45.6196487636
 30
0.0
 10
27.0854991794
 20
45.5699570508
 30
0.0
 10
27.1061803821
 20
45.5469828819
 30
0.0
  0
SPLINE
  5
31D
100
AcDbEntity
  8
0
100
AcDbSpline
 62
7
  6
BYLAYER
 70
0
 71
3
 72
11
 73
7
 74
0
 42
0.0000001
 43
0.0000001
 44
0.0000000001
 40
0.0
 40
0.0
 40
0.0
 40
0.0
 40
0.2585755892
 40
0.5115881547
 40
0.7587845531
 40
1.0
 40
1.0
 40
1.0
 40
1.0
 10
28.017620399
 20
46.7771506183
 30
0.0
 10
28.0089403422
 20
46.7943300058
 30
0.0
 10
27.9907549499
 20
46.8278187777
 30
0.0
 10
27.9607241968
 20
46.875697178
 30
0.0
 10
27.9283759077
 20
46.9204657255
 30
0.0
 10
27.9050759121
 20
46.9484060975
 30
0.0
 10
27.8930692232
 20
46.9617662236
 30
0.0
  0
SPLINE
  5
31E
100
AcDbEntity
  8
0
100
AcDbSpline
 62
7
  6
BYLAYER
 70
0
 71
3
 72
11
 73
7
 74
0
 42
0.0000001
 43
0.0000001
 44
0.0000000001
 40
0.0
 40
0.0
 40
0.0
 40
0.0
 40
0.227097084
 40
0.4652595717
 40
0.7220200391
 40
1.0
 40
1.0
 40
1.0
 40
1.0
 10
27.4996248027
 20
47.1793745528
 30
0.0
 10
27.5498815053
 20
47.1793745528
 30
0.0
 10
27.6535278198
 20
47.1620581296
 30
0.0
 10
27.7972282358
 20
47.0872883145
 30
0.0
 10
27.9235702482
 20
46.9694158216
 30
0.0
 10
27.9900138832
 20
46.8702496382
 30
0.0
 10
28.019265665
 20
46.8161322838
 30
0.0
  0
SPLINE
  5
31F
100
AcDbEntity
  8
0
100
AcDbSpline
 62
7
  6
BYLAYER
 70
0
 71
3
 72
12
 73
8
 74
0
 42
0.0000001
 43
0.0000001
 44
0.0000000001
 40
0.0
 40
0.0
 40
0.0
 40
0.0
 40
0.232335608
 40
0.4505447217
 40
0.6499084491
 40
0.8307244761
 40
1.0
 40
1.0
 40
1.0
 40
1.0
 10
26.8519104255
 20
46.3830492248
 30
0.0
 10
26.860456526
 20
46.4690868588
 30
0.0
 10
26.8938131567
 20
46.6348689903
 30
0.0
 10
26.9924407343
 20
46.8579857472
 30
0.0
 10
27.1323206768
 20
47.0349836777
 30
0.0
 10
27.3051358267
 20
47.1514259977
 30
0.0
 10
27.4366308567
 20
47.1793745528
 30
0.0
 10
27.4996248027
 20
47.1793745528
 30
0.0
  0
SPLINE
  5
320
100
AcDbEntity
  8
0
100
AcDbSpline
 62
7
  6
BYLAYER
 70
0
 71
3
 72
13
 73
9
 74
0
 42
0.0000001
 43
0.0000001
 44
0.0000000001
 40
0.0
 40
0.0
 40
0.0
 40
0.0
 40
0.1370643981
 40
0.2834434111
 40
0.4446409707
 40
0.6208235697
 40
0.8080842835
 40
1.0
 40
1.0
 40
1.0
 40
1.0
 10
27.4996248027
 20
45.3293745528
 30
0.0
 10
27.4368594203
 20
45.3293745528
 30
0.0
 10
27.3058609818
 20
45.3571065812
 30
0.0
 10
27.1335613044
 20
45.4727180051
 30
0.0
 10
26.9939555184
 20
45.648393703
 30
0.0
 10
26.8952513844
 20
45.8697961361
 30
0.0
 10
26.8436188152
 20
46.1205759334
 30
0.0
 10
26.8432237493
 20
46.2955963492
 30
0.0
 10
26.8519104255
 20
46.3830492248
 30
0.0
  0
SPLINE
  5
321
100
AcDbEntity
  8
0
100
AcDbSpline
 62
7
  6
BYLAYER
 70
0
 71
3
 72
12
 73
8
 74
0
 42
0.0000001
 43
0.0000001
 44
0.0000000001
 40
0.0
 40
0.0
 40
0.0
 40
0.0
 40
0.232335608
 40
0.4505447217
 40
0.6499084491
 40
0.8307244761
 40
1.0
 40
1.0
 40
1.0
 40
1.0
 10
28.1473391798
 20
46.1256998807
 30
0.0
 10
28.1387930793
 20
46.0396622467
 30
0.0
 10
28.1054364486
 20
45.8738801152
 30
0.0
 10
28.006808871
 20
45.6507633583
 30
0.0
 10
27.8669289285
 20
45.4737654278
 30
0.0
 10
27.6941137786
 20
45.3573231078
 30
0.0
 10
27.5626187486
 20
45.3293745528
 30
0.0
 10
27.4996248027
 20
45.3293745528
 30
0.0
  0
SPLINE
  5
322
100
AcDbEntity
  8
0
100
AcDbSpline
 62
7
  6
BYLAYER
 70
0
 71
3
 72
24
 73
20
 74
0
 42
0.0000001
 43
0.0000001
 44
0.0000000001
 40
0.0
 40
0.0
 40
0.0
 40
0.0
 40
0.0761668351
 40
0.1533981687
 40
0.2315693887
 40
0.31062092
 40
0.3899503081
 40
0.4676001552
 40
0.5412563359
 40
0.6080023371
 40
0.6674351746
 40
0.7212853928
 40
0.7712314379
 40
0.8183225407
 40
0.862478658
 40
0.9027935187
 40
0.9390122556
 40
0.9710790886
 40
1.0
 40
1.0
 40
1.0
 40
1.0
 10
25.5334838474
 20
45.5892561468
 30
0.0
 10
25.6028058166
 20
45.5888291565
 30
0.0
 10
25.7424083835
 20
45.5862287026
 30
0.0
 10
25.9530585423
 20
45.5793402787
 30
0.0
 10
26.1663361486
 20
45.5724293862
 30
0.0
 10
26.3816405695
 20
45.5694438646
 30
0.0
 10
26.5964819613
 20
45.57501398
 30
0.0
 10
26.8057778235
 20
45.5931763499
 30
0.0
 10
27.0018291944
 20
45.6254116615
 30
0.0
 10
27.1784152679
 20
45.6698540915
 30
0.0
 10
27.3337317421
 20
45.722541415
 30
0.0
 10
27.4708008409
 20
45.7801132242
 30
0.0
 10
27.5939774637
 20
45.8410037387
 30
0.0
 10
27.7059270922
 20
45.9042306308
 30
0.0
 10
27.8070229728
 20
45.96847856
 30
0.0
 10
27.897345656
 20
46.0310340042
 30
0.0
 10
27.9777083711
 20
46.0885203269
 30
0.0
 10
28.0539003733
 20
46.1341446884
 30
0.0
 10
28.1067846448
 20
46.1525008153
 30
0.0
 10
28.1323733265
 20
46.1586722966
 30
0.0
  0
SPLINE
  5
323
100
AcDbEntity
  8
0
100
AcDbSpline
 62
7
  6
BYLAYER
 70
0
 71
3
 72
69
 73
65
 74
0
 42
0.0000001
 43
0.0000001
 44
0.0000000001
 40
0.0
 40
0.0
 40
0.0
 40
0.0
 40
0.0014073843
 40
0.0019784562
 40
0.0024634562
 40
0.0028641407
 40
0.0030334133
 40
0.0031822657
 40
0.0033109173
 40
0.003419588
 40
0.0035084981
 40
0.0035778686
 40
0.003627923
 40
0.0036588929
 40
0.0036710681
 40
0.0036779921
 40
0.0037031665
 40
0.0037465422
 40
0.0038079191
 40
0.0038870845
 40
0.0040979153
 40
0.0043772977
 40
0.0047234891
 40
0.0051347466
 40
0.0056094504
 40
0.0061464715
 40
0.0067448015
 40
0.0074034309
 40
0.0088975455
 40
0.0106207273
 40
0.0125659231
 40
0.0147302341
 40
0.019708762
 40
0.0255477215
 40
0.0322637553
 40
0.0398834183
 40
0.0484468634
 40
0.057994506
 40
0.0685536882
 40
0.0801437762
 40
0.0927652903
 40
0.1210369829
 40
0.1530933913
 40
0.1885978542
 40
0.2271483374
 40
0.3117367932
 40
0.3569839326
 40
0.403697781
 40
0.4515252858
 40
0.5001370328
 40
0.5492242674
 40
0.5985053344
 40
0.6477263008
 40
0.6966688203
 40
0.7451536188
 40
0.7930516348
 40
0.8402934241
 40
0.8868820104
 40
0.9329065666
 40
0.9557666145
 40
0.967171647
 40
0.9785665164
 40
0.9899597186
 40
1.0
 40
1.0
 40
1.0
 40
1.0
 10
12.9645887148
 20
45.1746736302
 30
0.0
 10
12.95880372
 20
45.1767245533
 30
0.0
 10
12.9506658353
 20
45.1795922198
 30
0.0
 10
12.9405183684
 20
45.1831207589
 30
0.0
 10
12.9345115053
 20
45.1851896471
 30
0.0
 10
12.9301565256
 20
45.1866730906
 30
0.0
 10
12.927185562
 20
45.1876739627
 30
0.0
 10
12.9253379883
 20
45.1882912972
 30
0.0
 10
12.9237377085
 20
45.1888207499
 30
0.0
 10
12.9223893367
 20
45.1892615683
 30
0.0
 10
12.9212700765
 20
45.1896214073
 30
0.0
 10
12.9204315826
 20
45.1898852707
 30
0.0
 10
12.9197389416
 20
45.1900953345
 30
0.0
 10
12.9194670269
 20
45.1901694261
 30
0.0
 10
12.9190962031
 20
45.1902675948
 30
0.0
 10
12.9193277469
 20
45.1901215897
 30
0.0
 10
12.9195875174
 20
45.1900443777
 30
0.0
 10
12.9201432595
 20
45.1898126542
 30
0.0
 10
12.920883586
 20
45.189547119
 30
0.0
 10
12.9223310146
 20
45.1890195284
 30
0.0
 10
12.9246688936
 20
45.1881994008
 30
0.0
 10
12.9281187029
 20
45.1870065557
 30
0.0
 10
12.932399104
 20
45.1855518479
 30
0.0
 10
12.9374938818
 20
45.1838423983
 30
0.0
 10
12.9433844045
 20
45.1818897935
 30
0.0
 10
12.9500549988
 20
45.1796972022
 30
0.0
 10
12.9574920486
 20
45.177267842
 30
0.0
 10
12.9689017801
 20
45.1735576774
 30
0.0
 10
12.9849843361
 20
45.1683540946
 30
0.0
 10
13.0064111538
 20
45.1614413759
 30
0.0
 10
13.0306215932
 20
45.1536374053
 30
0.0
 10
13.068349473
 20
45.1414936546
 30
0.0
 10
13.1222550497
 20
45.1241880255
 30
0.0
 10
13.195095085
 20
45.1009200935
 30
0.0
 10
13.2790465045
 20
45.0745854077
 30
0.0
 10
13.3745546141
 20
45.045402217
 30
0.0
 10
13.4821297084
 20
45.0134627715
 30
0.0
 10
13.6022812509
 20
44.9788557468
 30
0.0
 10
13.7354011109
 20
44.941597361
 30
0.0
 10
13.8817150297
 20
44.9017564246
 30
0.0
 10
14.1029569942
 20
44.8430911126
 30
0.0
 10
14.4112819875
 20
44.7646194924
 30
0.0
 10
14.8178589169
 20
44.6677536717
 30
0.0
 10
15.2698460925
 20
44.5683300427
 30
0.0
 10
15.9481763144
 20
44.4320227317
 30
0.0
 10
16.6724273592
 20
44.308966841
 30
0.0
 10
17.4356163507
 20
44.2066160387
 30
0.0
 10
18.0418233522
 20
44.1413140845
 30
0.0
 10
18.6642846472
 20
44.0921331495
 30
0.0
 10
19.2983413926
 20
44.0619517075
 30
0.0
 10
19.9394284255
 20
44.0536402883
 30
0.0
 10
20.5830524947
 20
44.0700249278
 30
0.0
 10
21.2247962966
 20
44.1139373655
 30
0.0
 10
21.8603084608
 20
44.188105553
 30
0.0
 10
22.485308994
 20
44.2952788029
 30
0.0
 10
23.0956009467
 20
44.4381288335
 30
0.0
 10
23.6870800804
 20
44.6193550712
 30
0.0
 10
24.2557753993
 20
44.8415269896
 30
0.0
 10
24.7084586847
 20
45.0637511791
 30
0.0
 10
25.0118585952
 20
45.2387695638
 30
0.0
 10
25.1808878042
 20
45.3440693377
 30
0.0
 10
25.3056421686
 20
45.4257814609
 30
0.0
 10
25.4234288158
 20
45.5072093699
 30
0.0
 10
25.4985301745
 20
45.5628830265
 30
0.0
 10
25.5334838474
 20
45.5892561468
 30
0.0
  0
SPLINE
  5
324
100
AcDbEntity
  8
0
100
AcDbSpline
 62
7
  6
BYLAYER
 70
0
 71
3
 72
99
 73
95
 74
0
 42
0.0000001
 43
0.0000001
 44
0.0000000001
 40
0.0
 40
0.0
 40
0.0
 40
0.0
 40
0.0002999674
 40
0.0007630237
 40
0.0013258137
 40
0.0016206227
 40
0.0019105233
 40
0.0021851704
 40
0.0024344938
 40
0.0026484019
 40
0.0028167271
 40
0.0029298297
 40
0.0029803154
 40
0.003095327
 40
0.0032737849
 40
0.0035364301
 40
0.0038837076
 40
0.004316107
 40
0.0048341612
 40
0.0054384471
 40
0.0069082037
 40
0.0087264835
 40
0.0108771003
 40
0.0133392572
 40
0.0160920169
 40
0.0191148942
 40
0.0223894102
 40
0.0296210807
 40
0.0376491288
 40
0.0463635677
 40
0.0509472221
 40
0.0556709062
 40
0.0605267822
 40
0.0654984662
 40
0.0705608093
 40
0.0756605012
 40
0.0858278355
 40
0.0959883632
 40
0.1061433646
 40
0.1264479043
 40
0.1671138245
 40
0.2079914627
 40
0.249168053
 40
0.2906750487
 40
0.3324956853
 40
0.3745721295
 40
0.4168133332
 40
0.4590992872
 40
0.5012890414
 40
0.5432233793
 40
0.5847314669
 40
0.6657315059
 40
0.7048535752
 40
0.7428015083
 40
0.7793826954
 40
0.8144010146
 40
0.8476419579
 40
0.8788323107
 40
0.8935635429
 40
0.907644781
 40
0.9210070034
 40
0.9335662352
 40
0.9452320339
 40
0.9559035229
 40
0.9654797427
 40
0.9738700065
 40
0.9809911725
 40
0.9840556732
 40
0.9867796384
 40
0.9891565002
 40
0.9911828938
 40
0.9920638589
 40
0.9928562358
 40
0.9935596978
 40
0.9941739166
 40
0.9946986592
 40
0.9951340777
 40
0.9954804211
 40
0.9957379385
 40
0.9958334658
 40
0.9959068809
 40
0.9959582166
 40
0.9959875091
 40
0.9959948429
 40
0.996009623
 40
0.9960463377
 40
0.9961049743
 40
0.9962879003
 40
0.9965581627
 40
0.9969155158
 40
0.9973597129
 40
0.9978905071
 40
0.9985076511
 40
1.0
 40
1.0
 40
1.0
 40
1.0
 10
27.1061760481
 20
45.5469877031
 30
0.0
 10
27.1078588203
 20
45.5469876914
 30
0.0
 10
27.1121374327
 20
45.5472387079
 30
0.0
 10
27.1195227159
 20
45.5481793608
 30
0.0
 10
27.1267664694
 20
45.5497767178
 30
0.0
 10
27.1329911791
 20
45.551414975
 30
0.0
 10
27.1376198542
 20
45.5527713587
 30
0.0
 10
27.1419596911
 20
45.5541727268
 30
0.0
 10
27.1458849831
 20
45.5555441247
 30
0.0
 10
27.14915697
 20
45.5567564136
 30
0.0
 10
27.1518699726
 20
45.5578313543
 30
0.0
 10
27.1533288671
 20
45.5584294791
 30
0.0
 10
27.1553220351
 20
45.559308176
 30
0.0
 10
27.1520233032
 20
45.5575786596
 30
0.0
 10
27.1501466057
 20
45.556489069
 30
0.0
 10
27.1459197069
 20
45.5540944009
 30
0.0
 10
27.1410405998
 20
45.5512045895
 30
0.0
 10
27.1347579887
 20
45.5473978717
 30
0.0
 10
27.1273807831
 20
45.5427877116
 30
0.0
 10
27.1151384493
 20
45.5349216233
 30
0.0
 10
27.0970187713
 20
45.5227433759
 30
0.0
 10
27.0721202697
 20
45.5051020174
 30
0.0
 10
27.0430398418
 20
45.4837497565
 30
0.0
 10
27.0100581581
 20
45.4588576279
 30
0.0
 10
26.9734725608
 20
45.4306233035
 30
0.0
 10
26.9335668525
 20
45.3992356098
 30
0.0
 10
26.8742386601
 20
45.3519023778
 30
0.0
 10
26.7934803363
 20
45.2864116995
 30
0.0
 10
26.6894812345
 20
45.2011352221
 30
0.0
 10
26.5968136053
 20
45.1254666917
 30
0.0
 10
26.5181335867
 20
45.0619792659
 30
0.0
 10
26.4559456856
 20
45.0125254365
 30
0.0
 10
26.3915469868
 20
44.9623598239
 30
0.0
 10
26.3250022765
 20
44.9118665083
 30
0.0
 10
26.2565935184
 20
44.8615833729
 30
0.0
 10
26.1639280768
 20
44.7951038384
 30
0.0
 10
26.046966305
 20
44.713430786
 30
0.0
 10
25.9044340159
 20
44.618913901
 30
0.0
 10
25.711365118
 20
44.4978336432
 30
0.0
 10
25.3656199077
 20
44.2983846006
 30
0.0
 10
24.8513788354
 20
44.0475712269
 30
0.0
 10
24.2093846822
 20
43.7971405636
 30
0.0
 10
23.5461346743
 20
43.5937268665
 30
0.0
 10
22.86575332
 20
43.4338512711
 30
0.0
 10
22.172124353
 20
43.314187076
 30
0.0
 10
21.4690540276
 20
43.2314565665
 30
0.0
 10
20.7602698134
 20
43.1825017505
 30
0.0
 10
20.0494445765
 20
43.1641761227
 30
0.0
 10
19.3402046946
 20
43.1734581864
 30
0.0
 10
18.6361075677
 20
43.2073315529
 30
0.0
 10
17.7164178093
 20
43.2807408149
 30
0.0
 10
16.8159480616
 20
43.391092308
 30
0.0
 10
15.9400896418
 20
43.529917312
 30
0.0
 10
15.3126339016
 20
43.6433026777
 30
0.0
 10
14.71016071
 20
43.7646931976
 30
0.0
 10
14.1357877876
 20
43.8913344852
 30
0.0
 10
13.5929912439
 20
44.0203570424
 30
0.0
 10
13.1625887299
 20
44.1298434202
 30
0.0
 10
12.8373768359
 20
44.2166948497
 30
0.0
 10
12.6092345262
 20
44.2793731867
 30
0.0
 10
12.3932330132
 20
44.3402289789
 30
0.0
 10
12.1906137484
 20
44.3986013887
 30
0.0
 10
12.0027855673
 20
44.453778816
 30
0.0
 10
11.8312746667
 20
44.5051210561
 30
0.0
 10
11.6776075194
 20
44.5519889956
 30
0.0
 10
11.5432440937
 20
44.5938693346
 30
0.0
 10
11.4440040265
 20
44.6256660207
 30
0.0
 10
11.3751800929
 20
44.6482072629
 30
0.0
 10
11.3317092248
 20
44.6626471702
 30
0.0
 10
11.2938207312
 20
44.6754175808
 30
0.0
 10
11.2657697764
 20
44.6850038717
 30
0.0
 10
11.2461506925
 20
44.6917759282
 30
0.0
 10
11.2335549728
 20
44.6961497249
 30
0.0
 10
11.2223793977
 20
44.7000516767
 30
0.0
 10
11.2126266307
 20
44.7034731888
 30
0.0
 10
11.2042955516
 20
44.7064071117
 30
0.0
 10
11.1973870228
 20
44.7088499817
 30
0.0
 10
11.1918904234
 20
44.7108064281
 30
0.0
 10
11.1882046804
 20
44.7121245217
 30
0.0
 10
11.1859445432
 20
44.7129479494
 30
0.0
 10
11.1848047933
 20
44.713357933
 30
0.0
 10
11.1839497619
 20
44.7136933462
 30
0.0
 10
11.1835634348
 20
44.713816356
 30
0.0
 10
11.183205039
 20
44.7139965916
 30
0.0
 10
11.1837768609
 20
44.7138122399
 30
0.0
 10
11.184173734
 20
44.7136894502
 30
0.0
 10
11.1858010153
 20
44.7131457011
 30
0.0
 10
11.1883998716
 20
44.7122613156
 30
0.0
 10
11.1927599801
 20
44.7107589001
 30
0.0
 10
11.1984151527
 20
44.7087951871
 30
0.0
 10
11.2054809378
 20
44.7063283973
 30
0.0
 10
11.2139062633
 20
44.7033741602
 30
0.0
 10
11.2278793806
 20
44.6984567847
 30
0.0
 10
11.2390354029
 20
44.694510912
 30
0.0
 10
11.2469260362
 20
44.6917134427
 30
0.0
  0
SPLINE
  5
325
100
AcDbEntity
  8
0
100
AcDbSpline
 62
7
  6
BYLAYER
 70
0
 71
3
 72
104
 73
100
 74
0
 42
0.0000001
 43
0.0000001
 44
0.0000000001
 40
0.0
 40
0.0
 40
0.0
 40
0.0
 40
0.0432659032
 40
0.0866604183
 40
0.1255795809
 40
0.1597940517
 40
0.1903823103
 40
0.2178502607
 40
0.2426148715
 40
0.265055045
 40
0.2854073533
 40
0.3038666211
 40
0.3206260427
 40
0.3358629905
 40
0.349737732
 40
0.3623808396
 40
0.3738885592
 40
0.3843619956
 40
0.3938974466
 40
0.4025740317
 40
0.4104601882
 40
0.4176198229
 40
0.4241091831
 40
0.4299842283
 40
0.4352992653
 40
0.4401018522
 40
0.4444255699
 40
0.4483086412
 40
0.4517924661
 40
0.4548776413
 40
0.4576028649
 40
0.4599908222
 40
0.4621316029
 40
0.4641327632
 40
0.4661022118
 40
0.4682006786
 40
0.4705353564
 40
0.4732009759
 40
0.4762010125
 40
0.4795799843
 40
0.4833821984
 40
0.4876694564
 40
0.4924966509
 40
0.4979176471
 40
0.5039961623
 40
0.5108016512
 40
0.5184144553
 40
0.5269311775
 40
0.5364586044
 40
0.5471052143
 40
0.5589926718
 40
0.5722598745
 40
0.5870720811
 40
0.6036235774
 40
0.6221030677
 40
0.6427356348
 40
0.6657778555
 40
0.6915302264
 40
0.7200737553
 40
0.7483574695
 40
0.7732699098
 40
0.7952674624
 40
0.8148477426
 40
0.8323947719
 40
0.8481885985
 40
0.8624184625
 40
0.8752965115
 40
0.8870009403
 40
0.8976453835
 40
0.9073356001
 40
0.9161631987
 40
0.9242134787
 40
0.9315586588
 40
0.9382653698
 40
0.944391877
 40
0.9499910858
 40
0.9551103054
 40
0.9597917493
 40
0.9640736304
 40
0.9679901912
 40
0.9715721345
 40
0.9748471291
 40
0.9778400684
 40
0.9805733364
 40
0.9830670357
 40
0.9853391884
 40
0.9874058465
 40
0.9892812056
 40
0.9909775919
 40
0.9925055604
 40
0.9938749001
 40
0.995093244
 40
0.9961684506
 40
0.9971086626
 40
0.997906516
 40
0.9985653274
 40
0.9990876609
 40
0.9995308976
 40
1.0
 40
1.0
 40
1.0
 40
1.0
 10
24.7502286284
 20
43.9395904615
 30
0.0
 10
24.5069705099
 20
43.8746706631
 30
0.0
 10
24.0155511757
 20
43.7595614501
 30
0.0
 10
23.2938007315
 20
43.6417849436
 30
0.0
 10
22.6189283579
 20
43.5724852152
 30
0.0
 10
22.0160452003
 20
43.5399136782
 30
0.0
 10
21.479054357
 20
43.531946987
 30
0.0
 10
20.9971099247
 20
43.5402086989
 30
0.0
 10
20.5629424039
 20
43.5589725223
 30
0.0
 10
20.1705985207
 20
43.584110613
 30
0.0
 10
19.8152921751
 20
43.6125862332
 30
0.0
 10
19.4932591481
 20
43.6420898691
 30
0.0
 10
19.2010644132
 20
43.6708953764
 30
0.0
 10
18.9354890384
 20
43.697772588
 30
0.0
 10
18.6937055572
 20
43.7218458329
 30
0.0
 10
18.4733909185
 20
43.7424892293
 30
0.0
 10
18.2726028575
 20
43.759286723
 30
0.0
 10
18.0896355802
 20
43.7720011601
 30
0.0
 10
17.9229171684
 20
43.7805454642
 30
0.0
 10
17.7710936035
 20
43.7848871961
 30
0.0
 10
17.6330291101
 20
43.7850717696
 30
0.0
 10
17.5077461007
 20
43.7812545555
 30
0.0
 10
17.3943594696
 20
43.7736245775
 30
0.0
 10
17.2920600649
 20
43.76238785
 30
0.0
 10
17.2001131476
 20
43.747741053
 30
0.0
 10
17.1179470885
 20
43.7298663044
 30
0.0
 10
17.0451281565
 20
43.7089332503
 30
0.0
 10
16.9813350033
 20
43.6850677606
 30
0.0
 10
16.9265012931
 20
43.6585082474
 30
0.0
 10
16.8806411334
 20
43.6295870454
 30
0.0
 10
16.8439145562
 20
43.5988708303
 30
0.0
 10
16.8160967566
 20
43.5668498935
 30
0.0
 10
16.7966795816
 20
43.5339138773
 30
0.0
 10
16.7850760175
 20
43.5000212182
 30
0.0
 10
16.7810042461
 20
43.4646630979
 30
0.0
 10
16.7848857614
 20
43.4273183134
 30
0.0
 10
16.7976792613
 20
43.387754081
 30
0.0
 10
16.8200825568
 20
43.3466795143
 30
0.0
 10
16.8523181106
 20
43.3048506533
 30
0.0
 10
16.8943271317
 20
43.2628825481
 30
0.0
 10
16.9463590133
 20
43.2209277966
 30
0.0
 10
17.0088644561
 20
43.1790353375
 30
0.0
 10
17.0825041877
 20
43.1372855893
 30
0.0
 10
17.1680431151
 20
43.095808457
 30
0.0
 10
17.2663907386
 20
43.0547632572
 30
0.0
 10
17.3786468696
 20
43.0143241716
 30
0.0
 10
17.5061281831
 20
42.9746843987
 30
0.0
 10
17.6503894602
 20
42.9360766592
 30
0.0
 10
17.8131548468
 20
42.8987559197
 30
0.0
 10
17.9963062734
 20
42.8630355226
 30
0.0
 10
18.2019347601
 20
42.8293848333
 30
0.0
 10
18.432457298
 20
42.7983413998
 30
0.0
 10
18.6907110219
 20
42.7705552382
 30
0.0
 10
18.9798178591
 20
42.7468582251
 30
0.0
 10
19.3032389521
 20
42.7283797934
 30
0.0
 10
19.6647715069
 20
42.7166301062
 30
0.0
 10
20.0688137115
 20
42.7136461886
 30
0.0
 10
20.5188320161
 20
42.7223069287
 30
0.0
 10
20.9988900776
 20
42.7456075816
 30
0.0
 10
21.4731063426
 20
42.7836780458
 30
0.0
 10
21.9080149552
 20
42.8324389376
 30
0.0
 10
22.2911208832
 20
42.8870094185
 30
0.0
 10
22.6302671055
 20
42.9452006245
 30
0.0
 10
22.9322909366
 20
43.0055490377
 30
0.0
 10
23.2022616774
 20
43.0668948276
 30
0.0
 10
23.4442618856
 20
43.1283360732
 30
0.0
 10
23.661785564
 20
43.1891952046
 30
0.0
 10
23.8578766349
 20
43.2490044229
 30
0.0
 10
24.0349608739
 20
43.3073740422
 30
0.0
 10
24.1949654873
 20
43.3639510869
 30
0.0
 10
24.3396432699
 20
43.4184864547
 30
0.0
 10
24.470541326
 20
43.4708067217
 30
0.0
 10
24.5890493153
 20
43.5208062386
 30
0.0
 10
24.6963899317
 20
43.5684225348
 30
0.0
 10
24.7936615046
 20
43.6136378444
 30
0.0
 10
24.8818398498
 20
43.6564643462
 30
0.0
 10
24.9617979067
 20
43.6969388319
 30
0.0
 10
25.0343139007
 20
43.7351173239
 30
0.0
 10
25.1000820714
 20
43.7710693555
 30
0.0
 10
25.1597224344
 20
43.8048745195
 30
0.0
 10
25.2137871615
 20
43.8366189205
 30
0.0
 10
25.2627684069
 20
43.8663925067
 30
0.0
 10
25.3071049389
 20
43.8942871823
 30
0.0
 10
25.3471871253
 20
43.9203949774
 30
0.0
 10
25.3833614313
 20
43.9448066979
 30
0.0
 10
25.4159339214
 20
43.9676106831
 30
0.0
 10
25.4451729549
 20
43.988891689
 30
0.0
 10
25.471310571
 20
44.008729456
 30
0.0
 10
25.4945435
 20
44.0271975719
 30
0.0
 10
25.5150375325
 20
44.0443658279
 30
0.0
 10
25.5329247695
 20
44.0602985499
 30
0.0
 10
25.5483077721
 20
44.0750611844
 30
0.0
 10
25.5612583444
 20
44.0887280025
 30
0.0
 10
25.5717397976
 20
44.1013190533
 30
0.0
 10
25.5796542006
 20
44.1128519115
 30
0.0
 10
25.5847155466
 20
44.1232374498
 30
0.0
 10
25.5866852321
 20
44.132724261
 30
0.0
 10
25.5839520625
 20
44.1411351256
 30
0.0
 10
25.5793995355
 20
44.1444076659
 30
0.0
 10
25.5769585067
 20
44.1456296022
 30
0.0
  0
SPLINE
  5
326
100
AcDbEntity
  8
0
100
AcDbSpline
 62
7
  6
BYLAYER
 70
0
 71
3
 72
38
 73
34
 74
0
 42
0.0000001
 43
0.0000001
 44
0.0000000001
 40
0.0
 40
0.0
 40
0.0
 40
0.0
 40
0.0433397113
 40
0.0931363763
 40
0.1505340905
 40
0.2160062677
 40
0.2845299876
 40
0.3480240128
 40
0.4034326861
 40
0.4530104921
 40
0.4972443706
 40
0.5366713371
 40
0.5717763087
 40
0.6027831805
 40
0.6298018487
 40
0.6528564378
 40
0.6719073224
 40
0.6868348517
 40
0.6977898477
 40
0.7051500887
 40
0.7092643136
 40
0.7106436651
 40
0.7140501718
 40
0.7213506781
 40
0.7327077122
 40
0.7481854827
 40
0.7679004583
 40
0.7920506776
 40
0.8210289003
 40
0.8553951819
 40
0.8958952724
 40
0.9436273254
 40
1.0
 40
1.0
 40
1.0
 40
1.0
 10
26.4236635081
 20
46.6375215474
 30
0.0
 10
26.3967515948
 20
46.6030114343
 30
0.0
 10
26.3395578553
 20
46.5283564469
 30
0.0
 10
26.245060032
 20
46.409265458
 30
0.0
 10
26.1300056694
 20
46.2781118472
 30
0.0
 10
25.9919881587
 20
46.1425132022
 30
0.0
 10
25.8383705846
 20
46.0149893846
 30
0.0
 10
25.683769303
 20
45.9055468127
 30
0.0
 10
25.5386635531
 20
45.8165394518
 30
0.0
 10
25.4059125722
 20
45.7451140527
 30
0.0
 10
25.2844494279
 20
45.6871488335
 30
0.0
 10
25.1740792612
 20
45.6401558293
 30
0.0
 10
25.0744573978
 20
45.6022324235
 30
0.0
 10
24.9853860992
 20
45.5720191814
 30
0.0
 10
24.9069594017
 20
45.548420969
 30
0.0
 10
24.8394735552
 20
45.530676014
 30
0.0
 10
24.7832449658
 20
45.5177719049
 30
0.0
 10
24.7387689211
 20
45.5098628921
 30
0.0
 10
24.7051981598
 20
45.5041275063
 30
0.0
 10
24.6832625523
 20
45.5045184459
 30
0.0
 10
24.6691628875
 20
45.5013284678
 30
0.0
 10
24.6621337861
 20
45.5099285568
 30
0.0
 10
24.6797833953
 20
45.5150693225
 30
0.0
 10
24.6963839739
 20
45.5222245994
 30
0.0
 10
24.7321550432
 20
45.5306451221
 30
0.0
 10
24.7772088421
 20
45.5401529724
 30
0.0
 10
24.8366926257
 20
45.5500993536
 30
0.0
 10
24.909432744
 20
45.5601232033
 30
0.0
 10
24.9973208848
 20
45.5697038363
 30
0.0
 10
25.1018271745
 20
45.5782451886
 30
0.0
 10
25.225458973
 20
45.5849996326
 30
0.0
 10
25.3714290837
 20
45.5891855133
 30
0.0
 10
25.4765616917
 20
45.5896067602
 30
0.0
 10
25.5334838474
 20
45.5892561468
 30
0.0
  0
SPLINE
  5
327
100
AcDbEntity
  8
0
100
AcDbSpline
 62
7
  6
BYLAYER
 70
0
 71
3
 72
13
 73
9
 74
0
 42
0.0000001
 43
0.0000001
 44
0.0000000001
 40
0.0
 40
0.0
 40
0.0
 40
0.0
 40
0.1765285465
 40
0.3522925492
 40
0.5201041596
 40
0.6762257807
 40
0.8331585376
 40
1.0
 40
1.0
 40
1.0
 40
1.0
 10
27.6907088967
 20
46.9446231813
 30
0.0
 10
27.6144139518
 20
46.9814841661
 30
0.0
 10
27.4552807046
 20
47.0419761696
 30
0.0
 10
27.2070282708
 20
47.0825038818
 30
0.0
 10
26.9647798707
 20
47.062861933
 30
0.0
 10
26.7476827969
 20
46.973150965
 30
0.0
 10
26.5702181804
 20
46.8221627767
 30
0.0
 10
26.4729103434
 20
46.7006725335
 30
0.0
 10
26.4236635081
 20
46.6375215474
 30
0.0
  0
SPLINE
  5
328
100
AcDbEntity
  8
0
100
AcDbSpline
 62
7
  6
BYLAYER
 70
0
 71
3
 72
20
 73
16
 74
0
 42
0.0000001
 43
0.0000001
 44
0.0000000001
 40
0.0
 40
0.0
 40
0.0
 40
0.0
 40
0.0432722231
 40
0.0929898912
 40
0.1499409576
 40
0.2141720838
 40
0.2854924173
 40
0.3643416122
 40
0.4503376173
 40
0.5423985074
 40
0.6360125071
 40
0.7269749817
 40
0.8144130433
 40
0.9031990852
 40
1.0
 40
1.0
 40
1.0
 40
1.0
 10
26.9538046854
 20
45.7916075178
 30
0.0
 10
26.9417746786
 20
45.8199607487
 30
0.0
 10
26.9190408441
 20
45.8822194441
 30
0.0
 10
26.8903860262
 20
45.9851602116
 30
0.0
 10
26.8698078403
 20
46.105275845
 30
0.0
 10
26.8605579781
 20
46.242237045
 30
0.0
 10
26.8676486335
 20
46.395042223
 30
0.0
 10
26.8967798792
 20
46.5611271833
 30
0.0
 10
26.9552549078
 20
46.7352593257
 30
0.0
 10
27.050259084
 20
46.905301871
 30
0.0
 10
27.1861637107
 20
47.0512446584
 30
0.0
 10
27.3599811014
 20
47.1461867305
 30
0.0
 10
27.5551154279
 20
47.1645893488
 30
0.0
 10
27.7437422486
 20
47.0998069927
 30
0.0
 10
27.8470067747
 20
47.0130052012
 30
0.0
 10
27.8930692232
 20
46.9617662236
 30
0.0
  0
SPLINE
  5
329
100
AcDbEntity
  8
0
100
AcDbSpline
 62
7
  6
BYLAYER
 70
0
 71
3
 72
93
 73
89
 74
0
 42
0.0000001
 43
0.0000001
 44
0.0000000001
 40
0.0
 40
0.0
 40
0.0
 40
0.0
 40
0.0014959271
 40
0.0021145508
 40
0.0026466177
 40
0.0030918798
 40
0.0034500898
 40
0.0037210001
 40
0.0039043647
 40
0.0039631419
 40
0.0039999446
 40
0.0040147602
 40
0.0040221115
 40
0.0040514743
 40
0.004102933
 40
0.0041765242
 40
0.0042722805
 40
0.0045304153
 40
0.004877589
 40
0.0053140514
 40
0.0058400519
 40
0.0064557433
 40
0.0071608917
 40
0.0079551682
 40
0.0088382452
 40
0.0108694967
 40
0.0132520564
 40
0.0159825516
 40
0.0190543984
 40
0.026192635
 40
0.0346030117
 40
0.0442021877
 40
0.0548992596
 40
0.066593026
 40
0.079182369
 40
0.0925766294
 40
0.1066916313
 40
0.1214581874
 40
0.1527233366
 40
0.1860440001
 40
0.2211463081
 40
0.2578152374
 40
0.2958541951
 40
0.3350701088
 40
0.4162644572
 40
0.4578721219
 40
0.4999070623
 40
0.5421980345
 40
0.5845854403
 40
0.6269279917
 40
0.6691053919
 40
0.7110263745
 40
0.7526329679
 40
0.7939083678
 40
0.8348841032
 40
0.8756476175
 40
0.896000888
 40
0.9061802619
 40
0.9163651756
 40
0.9265569125
 40
0.9316688443
 40
0.9367433376
 40
0.941726954
 40
0.9465944845
 40
0.9513295056
 40
0.9559241608
 40
0.9646595143
 40
0.9727068296
 40
0.9799558562
 40
0.9832382313
 40
0.9862683638
 40
0.9890277307
 40
0.9914957974
 40
0.9936515766
 40
0.9954742215
 40
0.9969475068
 40
0.9975532438
 40
0.9980725422
 40
0.9985059802
 40
0.9988540921
 40
0.9991173686
 40
0.9992962557
 40
0.9994115454
 40
0.9994621513
 40
0.9995755243
 40
0.9996609636
 40
0.9997612847
 40
1.0
 40
1.0
 40
1.0
 40
1.0
 10
11.2469287319
 20
44.6917033828
 30
0.0
 10
11.2390381072
 20
44.6945008491
 30
0.0
 10
11.2278820972
 20
44.6984467173
 30
0.0
 10
11.2139089954
 20
44.7033640872
 30
0.0
 10
11.2054836794
 20
44.7063183208
 30
0.0
 10
11.1984179024
 20
44.7087851077
 30
0.0
 10
11.1927627364
 20
44.7107488182
 30
0.0
 10
11.1884026329
 20
44.7122512318
 30
0.0
 10
11.1858037797
 20
44.7131356161
 30
0.0
 10
11.1841765002
 20
44.7136793645
 30
0.0
 10
11.1837796276
 20
44.7138021539
 30
0.0
 10
11.1832078063
 20
44.7139865054
 30
0.0
 10
11.1835662014
 20
44.71380627
 30
0.0
 10
11.183952528
 20
44.7136832604
 30
0.0
 10
11.1848075582
 20
44.7133478476
 30
0.0
 10
11.1859473066
 20
44.7129378646
 30
0.0
 10
11.1882074406
 20
44.712114438
 30
0.0
 10
11.1918931785
 20
44.7107963463
 30
0.0
 10
11.1973897704
 20
44.7088399028
 30
0.0
 10
11.2042982895
 20
44.7063970364
 30
0.0
 10
11.2126293569
 20
44.703463118
 30
0.0
 10
11.2223821101
 20
44.7000416111
 30
0.0
 10
11.2335576692
 20
44.6961396655
 30
0.0
 10
11.2461533707
 20
44.6917658758
 30
0.0
 10
11.2657724254
 20
44.6849938303
 30
0.0
 10
11.2938233377
 20
44.675407555
 30
0.0
 10
11.3317117726
 20
44.6626371654
 30
0.0
 10
11.3751825717
 20
44.648197282
 30
0.0
 10
11.4440063936
 20
44.6256560772
 30
0.0
 10
11.5432462983
 20
44.5938594431
 30
0.0
 10
11.6776095058
 20
44.55197917
 30
0.0
 10
11.8312764112
 20
44.5051113015
 30
0.0
 10
12.0027870564
 20
44.4537691356
 30
0.0
 10
12.1906149779
 20
44.3985917833
 30
0.0
 10
12.3932339867
 20
44.3402194473
 30
0.0
 10
12.6092352529
 20
44.2793637255
 30
0.0
 10
12.8373773295
 20
44.2166854539
 30
0.0
 10
13.1625889473
 20
44.1298340997
 30
0.0
 10
13.5929911629
 20
44.0203477978
 30
0.0
 10
14.1357874065
 20
43.8913253112
 30
0.0
 10
14.7101601056
 20
43.7646840736
 30
0.0
 10
15.3126331449
 20
43.6432935855
 30
0.0
 10
15.9400887966
 20
43.5299082357
 30
0.0
 10
16.8159472099
 20
43.3910832328
 30
0.0
 10
17.7164170209
 20
43.2807317359
 30
0.0
 10
18.6361069085
 20
43.2073224661
 30
0.0
 10
19.3402042044
 20
43.1734490931
 30
0.0
 10
20.0494443043
 20
43.1641670271
 30
0.0
 10
20.76026981
 20
43.1824926617
 30
0.0
 10
21.4690543466
 20
43.2314474988
 30
0.0
 10
22.1721250509
 20
43.3141780517
 30
0.0
 10
22.8657544564
 20
43.433842321
 30
0.0
 10
23.546136311
 20
43.5937180331
 30
0.0
 10
24.2093868803
 20
43.7971319034
 30
0.0
 10
24.8513816531
 20
44.0475628121
 30
0.0
 10
25.3656232669
 20
44.2983764585
 30
0.0
 10
25.7113688704
 20
44.4978257284
 30
0.0
 10
25.9044380048
 20
44.6189061312
 30
0.0
 10
26.0469704759
 20
44.713423132
 30
0.0
 10
26.1639323993
 20
44.7950962868
 30
0.0
 10
26.2565979585
 20
44.8615759111
 30
0.0
 10
26.3250068031
 20
44.9118591147
 30
0.0
 10
26.3915515976
 20
44.9623524959
 30
0.0
 10
26.4559503774
 20
45.0125181708
 30
0.0
 10
26.518138356
 20
45.0619720595
 30
0.0
 10
26.5968184705
 20
45.1254595594
 30
0.0
 10
26.6894862104
 20
45.2011281781
 30
0.0
 10
26.7934854352
 20
45.2864047571
 30
0.0
 10
26.8742438547
 20
45.3518955155
 30
0.0
 10
26.9335721197
 20
45.3992288072
 30
0.0
 10
26.9734778798
 20
45.4306165424
 30
0.0
 10
27.0100635275
 20
45.4588509057
 30
0.0
 10
27.0430452605
 20
45.4837430709
 30
0.0
 10
27.0721257352
 20
45.5050953656
 30
0.0
 10
27.0970242847
 20
45.5227367568
 30
0.0
 10
27.1151439943
 20
45.5349150268
 30
0.0
 10
27.1273863651
 20
45.5427811376
 30
0.0
 10
27.1347635717
 20
45.5473913021
 30
0.0
 10
27.1410462583
 20
45.5511980572
 30
0.0
 10
27.1459252343
 20
45.5540878125
 30
0.0
 10
27.1501525216
 20
45.5564826579
 30
0.0
 10
27.1520284307
 20
45.5575718955
 30
0.0
 10
27.155328714
 20
45.5593021121
 30
0.0
 10
27.153332428
 20
45.5584220072
 30
0.0
 10
27.1522592965
 20
45.5579829053
 30
0.0
 10
27.1506490974
 20
45.5573356083
 30
0.0
 10
27.1484553722
 20
45.5564870179
 30
0.0
 10
27.1466656474
 20
45.5558263942
 30
0.0
 10
27.1454075
 20
45.5553771351
 30
0.0
  0
SPLINE
  5
32A
100
AcDbEntity
  8
0
100
AcDbSpline
 62
7
  6
BYLAYER
 70
0
 71
3
 72
11
 73
7
 74
0
 42
0.0000001
 43
0.0000001
 44
0.0000000001
 40
0.0
 40
0.0
 40
0.0
 40
0.0
 40
0.2582654569
 40
0.5111895838
 40
0.7585142693
 40
1.0
 40
1.0
 40
1.0
 40
1.0
 10
27.6907089118
 20
46.9446231699
 30
0.0
 10
27.7079800076
 20
46.9474542204
 30
0.0
 10
27.7422724455
 20
46.9524199793
 30
0.0
 10
27.7934040876
 20
46.9577942609
 30
0.0
 10
27.8435781986
 20
46.9610282191
 30
0.0
 10
27.876702786
 20
46.9617648262
 30
0.0
 10
27.8930692295
 20
46.9617662165
 30
0.0
  0
SPLINE
  5
32B
100
AcDbEntity
  8
0
100
AcDbSpline
 62
7
  6
BYLAYER
 70
0
 71
3
 72
14
 73
10
 74
0
 42
0.0000001
 43
0.0000001
 44
0.0000000001
 40
0.0
 40
0.0
 40
0.0
 40
0.0
 40
0.12404102
 40
0.2449902594
 40
0.3715427302
 40
0.5060694481
 40
0.6515453799
 40
0.8144372443
 40
1.0
 40
1.0
 40
1.0
 40
1.0
 10
28.017620399
 20
46.7771506183
 30
0.0
 10
28.002866011
 20
46.7809264988
 30
0.0
 10
27.9740326054
 20
46.7897445439
 30
0.0
 10
27.9322368664
 20
46.8082876359
 30
0.0
 10
27.891536954
 20
46.8316751097
 30
0.0
 10
27.8488685678
 20
46.857566756
 30
0.0
 10
27.8021585088
 20
46.8854186249
 30
0.0
 10
27.7493145985
 20
46.915191126
 30
0.0
 10
27.7112236476
 20
46.9347117258
 30
0.0
 10
27.6907089055
 20
46.9446231769
 30
0.0
  0
SPLINE
  5
32C
100
AcDbEntity
  8
0
100
AcDbSpline
 62
7
  6
BYLAYER
 70
0
 71
3
 72
24
 73
20
 74
0
 42
0.0000001
 43
0.0000001
 44
0.0000000001
 40
0.0
 40
0.0
 40
0.0
 40
0.0
 40
0.0627094198
 40
0.1255351945
 40
0.1884276403
 40
0.2513262827
 40
0.3141697965
 40
0.3769057746
 40
0.4394966512
 40
0.5019285375
 40
0.5642097932
 40
0.6263736748
 40
0.6574629838
 40
0.6885467969
 40
0.7506369484
 40
0.812782897
 40
0.8750374004
 40
0.9374391618
 40
1.0
 40
1.0
 40
1.0
 40
1.0
 10
12.9645887148
 20
45.1746736302
 30
0.0
 10
12.9797632414
 20
45.1180446554
 30
0.0
 10
12.9989679381
 20
45.0013787306
 30
0.0
 10
12.9937060183
 20
44.8242349905
 30
0.0
 10
12.9540422623
 20
44.6512675538
 30
0.0
 10
12.882121037
 20
44.4890372043
 30
0.0
 10
12.7801003077
 20
44.3440080158
 30
0.0
 10
12.6524193949
 20
44.2213725437
 30
0.0
 10
12.5035128004
 20
44.1263210228
 30
0.0
 10
12.3394330676
 20
44.0619651737
 30
0.0
 10
12.166279317
 20
44.0314074165
 30
0.0
 10
12.0198711575
 20
44.0345807393
 30
0.0
 10
11.9051816689
 20
44.0545450897
 30
0.0
 10
11.7931074524
 20
44.0857319831
 30
0.0
 10
11.6595176237
 20
44.1452770161
 30
0.0
 10
11.5167288731
 20
44.2472620803
 30
0.0
 10
11.3963509527
 20
44.3753865168
 30
0.0
 10
11.3035560706
 20
44.525069953
 30
0.0
 10
11.2620641151
 20
44.6352185104
 30
0.0
 10
11.2469260362
 20
44.6917134427
 30
0.0
  0
SPLINE
  5
32D
100
AcDbEntity
  8
0
100
AcDbSpline
 62
7
  6
BYLAYER
 70
0
 71
3
 72
24
 73
20
 74
0
 42
0.0000001
 43
0.0000001
 44
0.0000000001
 40
0.0
 40
0.0
 40
0.0
 40
0.0
 40
0.0627100026
 40
0.1255363625
 40
0.1884289225
 40
0.2513276791
 40
0.3141713069
 40
0.3769073989
 40
0.4394983891
 40
0.5019303888
 40
0.5642117575
 40
0.6263757519
 40
0.6574651173
 40
0.6885489868
 40
0.7506392511
 40
0.8127853124
 40
0.8750399288
 40
0.9374404291
 40
1.0
 40
1.0
 40
1.0
 40
1.0
 10
11.2469287319
 20
44.6917033828
 30
0.0
 10
11.2317539229
 20
44.7483327358
 30
0.0
 10
11.2125488258
 20
44.8649995058
 30
0.0
 10
11.2178106436
 20
45.0421441508
 30
0.0
 10
11.2574744985
 20
45.2151120183
 30
0.0
 10
11.3293957238
 20
45.3773423682
 30
0.0
 10
11.4314164532
 20
45.5223715566
 30
0.0
 10
11.559097366
 20
45.6450070287
 30
0.0
 10
11.7080039604
 20
45.7400585496
 30
0.0
 10
11.8720836933
 20
45.8044143987
 30
0.0
 10
12.0452374439
 20
45.8349721559
 30
0.0
 10
12.1916456034
 20
45.831798833
 30
0.0
 10
12.306335092
 20
45.8118344827
 30
0.0
 10
12.4184093084
 20
45.7806475893
 30
0.0
 10
12.5519991373
 20
45.7211025561
 30
0.0
 10
12.6947878873
 20
45.6191174927
 30
0.0
 10
12.8151649242
 20
45.4909939959
 30
0.0
 10
12.9079587395
 20
45.3413130084
 30
0.0
 10
12.9494504763
 20
45.2311671833
 30
0.0
 10
12.9645887148
 20
45.1746736302
 30
0.0
  0
SPLINE
  5
32E
100
AcDbEntity
  8
0
100
AcDbSpline
 62
7
  6
BYLAYER
 70
0
 71
3
 72
11
 73
7
 74
0
 42
0.0000001
 43
0.0000001
 44
0.0000000001
 40
0.0
 40
0.0
 40
0.0
 40
0.0
 40
0.5326373352
 40
0.7671790002
 40
0.8316386747
 40
1.0
 40
1.0
 40
1.0
 40
1.0
 10
28.9623020653
 20
44.8768015274
 30
0.0
 10
29.0019133421
 20
44.8947194401
 30
0.0
 10
29.0596815378
 20
44.9187791905
 30
0.0
 10
29.1228267466
 20
44.9440356771
 30
0.0
 10
29.1598184711
 20
44.9536322784
 30
0.0
 10
29.1790127462
 20
44.95439979
 30
0.0
 10
29.1927548642
 20
44.9543979655
 30
0.0
  0
SPLINE
  5
32F
100
AcDbEntity
  8
0
100
AcDbSpline
 62
7
  6
BYLAYER
 70
0
 71
3
 72
18
 73
14
 74
0
 42
0.0000001
 43
0.0000001
 44
0.0000000001
 40
0.0
 40
0.0
 40
0.0
 40
0.0
 40
0.1405265959
 40
0.264164361
 40
0.3732460118
 40
0.4697478473
 40
0.5546300594
 40
0.6294077329
 40
0.697944123
 40
0.7649863748
 40
0.8349476475
 40
0.911666595
 40
1.0
 40
1.0
 40
1.0
 40
1.0
 10
28.3835615476
 20
45.5041825823
 30
0.0
 10
28.4290176465
 20
45.4981717964
 30
0.0
 10
28.5139394861
 20
45.4819366099
 30
0.0
 10
28.6299682607
 20
45.4438464057
 30
0.0
 10
28.7269150736
 20
45.3967950322
 30
0.0
 10
28.8058081004
 20
45.3436863958
 30
0.0
 10
28.8676982227
 20
45.287020404
 30
0.0
 10
28.9141626951
 20
45.2284210682
 30
0.0
 10
28.947435792
 20
45.1680163863
 30
0.0
 10
28.9693235216
 20
45.1042680136
 30
0.0
 10
28.980154441
 20
45.0350207456
 30
0.0
 10
28.9788925917
 20
44.9580095607
 30
0.0
 10
28.9693151608
 20
44.9047571861
 30
0.0
 10
28.9623020653
 20
44.8768015274
 30
0.0
  0
SPLINE
  5
330
100
AcDbEntity
  8
0
100
AcDbSpline
 62
7
  6
BYLAYER
 70
0
 71
3
 72
24
 73
20
 74
0
 42
0.0000001
 43
0.0000001
 44
0.0000000001
 40
0.0
 40
0.0
 40
0.0
 40
0.0
 40
0.0371743566
 40
0.0767032385
 40
0.1186146363
 40
0.1630657301
 40
0.2103787706
 40
0.2618080688
 40
0.3183965283
 40
0.3790924193
 40
0.4446457703
 40
0.5165696761
 40
0.5936884248
 40
0.6733216683
 40
0.7511365682
 40
0.8231557852
 40
0.888547357
 40
0.947405032
 40
1.0
 40
1.0
 40
1.0
 40
1.0
 10
25.5769585067
 20
44.1456296022
 30
0.0
 10
25.612186273
 20
44.1637935994
 30
0.0
 10
25.6829905902
 20
44.2050491624
 30
0.0
 10
25.7854590274
 20
44.2794776811
 30
0.0
 10
25.8871724711
 20
44.3672177398
 30
0.0
 10
25.9904667081
 20
44.4654271889
 30
0.0
 10
26.100683116
 20
44.5710862086
 30
0.0
 10
26.2262481044
 20
44.6792844769
 30
0.0
 10
26.371347266
 20
44.7858820336
 30
0.0
 10
26.5352675085
 20
44.8915237121
 30
0.0
 10
26.7172731118
 20
44.9989167417
 30
0.0
 10
26.9178135947
 20
45.1091368742
 30
0.0
 10
27.1352653506
 20
45.2195331688
 30
0.0
 10
27.3633921063
 20
45.3223347653
 30
0.0
 10
27.5927385491
 20
45.4081817162
 30
0.0
 10
27.8139295326
 20
45.4704609025
 30
0.0
 10
28.0203789784
 20
45.5070173399
 30
0.0
 10
28.2089734436
 20
45.5188491954
 30
0.0
 10
28.327969259
 20
45.5115336788
 30
0.0
 10
28.3835615476
 20
45.5041825823
 30
0.0
  0
SPLINE
  5
331
100
AcDbEntity
  8
0
100
AcDbSpline
 62
7
  6
BYLAYER
 70
0
 71
3
 72
22
 73
18
 74
0
 42
0.0000001
 43
0.0000001
 44
0.0000000001
 40
0.0
 40
0.0
 40
0.0
 40
0.0
 40
0.1461276054
 40
0.2658219818
 40
0.3648402169
 40
0.4478816046
 40
0.5187101388
 40
0.5796305707
 40
0.631754565
 40
0.6988985148
 40
0.7591565241
 40
0.8064614154
 40
0.8473636302
 40
0.8783913325
 40
0.9090312505
 40
0.9488047589
 40
1.0
 40
1.0
 40
1.0
 40
1.0
 10
24.9482267958
 20
44.0752162879
 30
0.0
 10
24.9836815751
 20
44.0919515682
 30
0.0
 10
25.0494033128
 20
44.1198061194
 30
0.0
 10
25.1411359933
 20
44.1539968651
 30
0.0
 10
25.217811417
 20
44.1800194606
 30
0.0
 10
25.2825670523
 20
44.2002938565
 30
0.0
 10
25.3379502533
 20
44.2162420311
 30
0.0
 10
25.3856811012
 20
44.2287322721
 30
0.0
 10
25.4327731856
 20
44.23970076
 30
0.0
 10
25.4800893134
 20
44.2487757314
 30
0.0
 10
25.5266577187
 20
44.2547551773
 30
0.0
 10
25.5665776493
 20
44.255137096
 30
0.0
 10
25.598475885
 20
44.2510003793
 30
0.0
 10
25.6228411253
 20
44.2319511731
 30
0.0
 10
25.6195435777
 20
44.2018574663
 30
0.0
 10
25.6025078055
 20
44.1741725973
 30
0.0
 10
25.5865024477
 20
44.1555079573
 30
0.0
 10
25.5769585067
 20
44.1456296022
 30
0.0
  0
SPLINE
  5
332
100
AcDbEntity
  8
0
100
AcDbSpline
 62
7
  6
BYLAYER
 70
0
 71
3
 72
12
 73
8
 74
0
 42
0.0000001
 43
0.0000001
 44
0.0000000001
 40
0.0
 40
0.0
 40
0.0
 40
0.0
 40
0.1472621838
 40
0.3199002594
 40
0.5184118234
 40
0.7444550456
 40
1.0
 40
1.0
 40
1.0
 40
1.0
 10
24.7502286284
 20
43.9395904615
 30
0.0
 10
24.7572997871
 20
43.9491322496
 30
0.0
 10
24.7749073247
 20
43.9681924548
 30
0.0
 10
24.8071972524
 20
43.9948577616
 30
0.0
 10
24.8471801973
 20
44.0218188201
 30
0.0
 10
24.8948133532
 20
44.0490808298
 30
0.0
 10
24.9295896166
 20
44.066419211
 30
0.0
 10
24.9482267958
 20
44.0752162879
 30
0.0
  0
SPLINE
  5
333
100
AcDbEntity
  8
0
100
AcDbSpline
 62
7
  6
BYLAYER
 70
0
 71
3
 72
10
 73
6
 74
0
 42
0.0000001
 43
0.0000001
 44
0.0000000001
 40
0.0
 40
0.0
 40
0.0
 40
0.0
 40
0.3341896847
 40
0.6687217435
 40
1.0
 40
1.0
 40
1.0
 40
1.0
 10
23.4247475775
 20
42.9520041637
 30
0.0
 10
23.4148876029
 20
42.9792301114
 30
0.0
 10
23.3996649326
 20
43.0354927285
 30
0.0
 10
23.3922499816
 20
43.1222728434
 30
0.0
 10
23.3981173904
 20
43.1800644138
 30
0.0
 10
23.4036486438
 20
43.208230543
 30
0.0
  0
SPLINE
  5
334
100
AcDbEntity
  8
0
100
AcDbSpline
 62
7
  6
BYLAYER
 70
0
 71
3
 72
48
 73
44
 74
0
 42
0.0000001
 43
0.0000001
 44
0.0000000001
 40
0.0
 40
0.0
 40
0.0
 40
0.0
 40
0.0759912871
 40
0.1438493927
 40
0.2034988516
 40
0.2548631337
 40
0.2979002124
 40
0.3163251039
 40
0.3327102466
 40
0.3470729272
 40
0.3594307712
 40
0.3698020023
 40
0.3782059996
 40
0.3816776195
 40
0.3846691056
 40
0.38718724
 40
0.3892398211
 40
0.3908367994
 40
0.3919935255
 40
0.3927428954
 40
0.3929961427
 40
0.393209475
 40
0.3937182711
 40
0.3945575661
 40
0.3974405197
 40
0.3995051947
 40
0.4019840367
 40
0.4081710885
 40
0.4159699663
 40
0.4253426495
 40
0.43624912
 40
0.4486485567
 40
0.4777609737
 40
0.5123493273
 40
0.552101749
 40
0.5967836134
 40
0.6461791034
 40
0.7000723835
 40
0.7582593487
 40
0.8205822294
 40
0.9570541671
 40
0.9783684427
 40
1.0
 40
1.0
 40
1.0
 40
1.0
 10
23.2743976996
 20
42.9714947944
 30
0.0
 10
23.2569491129
 20
42.9758615808
 30
0.0
 10
23.2238905367
 20
42.9840138128
 30
0.0
 10
23.177034802
 20
42.9951789979
 30
0.0
 10
23.1357721713
 20
43.0046633287
 30
0.0
 10
23.1001673813
 20
43.0125299479
 30
0.0
 10
23.0740393169
 20
43.0180557205
 30
0.0
 10
23.0559765972
 20
43.0216973614
 30
0.0
 10
23.0445506611
 20
43.0239145441
 30
0.0
 10
23.0345176555
 20
43.0257695654
 30
0.0
 10
23.0258670583
 20
43.0272696602
 30
0.0
 10
23.0185883327
 20
43.0284216126
 30
0.0
 10
23.0133711196
 20
43.0291397456
 30
0.0
 10
23.0098737926
 20
43.0295315339
 30
0.0
 10
23.0077566157
 20
43.0297241125
 30
0.0
 10
23.0059697025
 20
43.0298375018
 30
0.0
 10
23.0045105329
 20
43.0298738204
 30
0.0
 10
23.0033706839
 20
43.0298378876
 30
0.0
 10
23.0025505731
 20
43.0297312428
 30
0.0
 10
23.0020504481
 20
43.0295782096
 30
0.0
 10
23.0018269225
 20
43.0293863094
 30
0.0
 10
23.0017426065
 20
43.0291571329
 30
0.0
 10
23.0019443951
 20
43.0287974949
 30
0.0
 10
23.0027162093
 20
43.0281799209
 30
0.0
 10
23.0039547504
 20
43.0275463799
 30
0.0
 10
23.0055575272
 20
43.0268367309
 30
0.0
 10
23.0079192384
 20
43.0258954554
 30
0.0
 10
23.0115927311
 20
43.0245947872
 30
0.0
 10
23.0168577853
 20
43.0229041211
 30
0.0
 10
23.0232277658
 20
43.0210081183
 30
0.0
 10
23.0306766867
 20
43.0189232291
 30
0.0
 10
23.0426690145
 20
43.0157406686
 30
0.0
 10
23.0601601429
 20
43.0114320058
 30
0.0
 10
23.0840396879
 20
43.0060073578
 30
0.0
 10
23.1116104851
 20
43.0002126133
 30
0.0
 10
23.1426976866
 20
42.9941246387
 30
0.0
 10
23.1771498013
 20
42.9878171283
 30
0.0
 10
23.2148218141
 20
42.98136074
 30
0.0
 10
23.255582255
 20
42.9748244061
 30
0.0
 10
23.3157406381
 20
42.9658292378
 30
0.0
 10
23.3673894355
 20
42.9589590153
 30
0.0
 10
23.4095477819
 20
42.9538458436
 30
0.0
 10
23.419642701
 20
42.952653732
 30
0.0
 10
23.4247284262
 20
42.952061354
 30
0.0
  0
SPLINE
  5
335
100
AcDbEntity
  8
0
100
AcDbSpline
 62
7
  6
BYLAYER
 70
0
 71
3
 72
10
 73
6
 74
0
 42
0.0000001
 43
0.0000001
 44
0.0000000001
 40
0.0
 40
0.0
 40
0.0
 40
0.0
 40
0.3423401572
 40
0.6740164327
 40
1.0
 40
1.0
 40
1.0
 40
1.0
 10
29.4941904783
 20
46.2411485687
 30
0.0
 10
29.5204975811
 20
46.2569413176
 30
0.0
 10
29.5749397696
 20
46.2839240967
 30
0.0
 10
29.6614529548
 20
46.3090396374
 30
0.0
 10
29.7205488882
 20
46.3146869019
 30
0.0
 10
29.7497663281
 20
46.3146869019
 30
0.0
  0
SPLINE
  5
336
100
AcDbEntity
  8
0
100
AcDbSpline
 62
7
  6
BYLAYER
 70
0
 71
3
 72
21
 73
17
 74
0
 42
0.0000001
 43
0.0000001
 44
0.0000000001
 40
0.0
 40
0.0
 40
0.0
 40
0.0
 40
0.0776701472
 40
0.1532590157
 40
0.2265885976
 40
0.2975330058
 40
0.4320864153
 40
0.5581348682
 40
0.6188417618
 40
0.6785416253
 40
0.7377602055
 40
0.7970501261
 40
0.84643764
 40
0.8965626129
 40
0.9476783503
 40
1.0
 40
1.0
 40
1.0
 40
1.0
 10
30.306777792
 20
45.8249758384
 30
0.0
 10
30.2968267546
 20
45.8504217629
 30
0.0
 10
30.2752340866
 20
45.8998954111
 30
0.0
 10
30.2373854384
 20
45.9701442242
 30
0.0
 10
30.1948773647
 20
46.0348904465
 30
0.0
 10
30.1335944836
 20
46.1116199651
 30
0.0
 10
30.0474889327
 20
46.191615028
 30
0.0
 10
29.9483733362
 20
46.2484781398
 30
0.0
 10
29.8659193811
 20
46.2760116197
 30
0.0
 10
29.8036482365
 20
46.2878475028
 30
0.0
 10
29.7408427063
 20
46.2910191475
 30
0.0
 10
29.6818163046
 20
46.285774947
 30
0.0
 10
29.6271359517
 20
46.2738002943
 30
0.0
 10
29.5768432342
 20
46.2567878142
 30
0.0
 10
29.5277116658
 20
46.2341128531
 30
0.0
 10
29.4963300841
 20
46.2155594977
 30
0.0
 10
29.4809572935
 20
46.2054373684
 30
0.0
  0
SPLINE
  5
337
100
AcDbEntity
  8
0
100
AcDbSpline
 62
7
  6
BYLAYER
 70
0
 71
3
 72
33
 73
29
 74
0
 42
0.0000001
 43
0.0000001
 44
0.0000000001
 40
0.0
 40
0.0
 40
0.0
 40
0.0
 40
0.0337428143
 40
0.0665814433
 40
0.0984385538
 40
0.1292594557
 40
0.1877144847
 40
0.2424746428
 40
0.2688479858
 40
0.2947838373
 40
0.3205106014
 40
0.3462683584
 40
0.3723062388
 40
0.3988507694
 40
0.4260882518
 40
0.4541718773
 40
0.4832224626
 40
0.5132997479
 40
0.5764826449
 40
0.6095919923
 40
0.6435859023
 40
0.713683722
 40
0.7857145125
 40
0.8583397908
 40
0.8944596143
 40
0.9302157143
 40
0.965446813
 40
1.0
 40
1.0
 40
1.0
 40
1.0
 10
29.1927548642
 20
44.9543979655
 30
0.0
 10
29.2027059016
 20
44.928952041
 30
0.0
 10
29.2242985696
 20
44.8794783928
 30
0.0
 10
29.2621472176
 20
44.8092295796
 30
0.0
 10
29.3046552919
 20
44.7444833575
 30
0.0
 10
29.36593817
 20
44.6677538379
 30
0.0
 10
29.4520437421
 20
44.5877587824
 30
0.0
 10
29.5511592702
 20
44.5308956466
 30
0.0
 10
29.6336133572
 20
44.503362213
 30
0.0
 10
29.6958841125
 20
44.4915261932
 30
0.0
 10
29.7586910889
 20
44.4883550565
 30
0.0
 10
29.821420103
 20
44.493926794
 30
0.0
 10
29.8834054581
 20
44.5083046746
 30
0.0
 10
29.944040427
 20
44.5311955019
 30
0.0
 10
30.0027579849
 20
44.5623170736
 30
0.0
 10
30.0589857625
 20
44.6013922217
 30
0.0
 10
30.1121281767
 20
44.6481166364
 30
0.0
 10
30.1793645972
 20
44.7210236209
 30
0.0
 10
30.2373106766
 20
44.8061943787
 30
0.0
 10
30.2850626385
 20
44.9003525721
 30
0.0
 10
30.3271653759
 20
45.0032777393
 30
0.0
 10
30.3656805508
 20
45.1411923248
 30
0.0
 10
30.3879011733
 20
45.3141969831
 30
0.0
 10
30.3865731021
 20
45.4610800884
 30
0.0
 10
30.3731844635
 20
45.5773984676
 30
0.0
 10
30.3571905716
 20
45.6627134537
 30
0.0
 10
30.3354226056
 20
45.745434339
 30
0.0
 10
30.3169606714
 20
45.7988886566
 30
0.0
 10
30.3067825392
 20
45.8249636887
 30
0.0
  0
SPLINE
  5
338
100
AcDbEntity
  8
0
100
AcDbSpline
 62
7
  6
BYLAYER
 70
0
 71
3
 72
15
 73
11
 74
0
 42
0.0000001
 43
0.0000001
 44
0.0000000001
 40
0.0
 40
0.0
 40
0.0
 40
0.0
 40
0.0805091521
 40
0.1621054134
 40
0.3728970555
 40
0.5854284124
 40
0.6911339656
 40
0.7957750126
 40
0.8988795331
 40
1.0
 40
1.0
 40
1.0
 40
1.0
 10
29.172673876
 20
45.7689410432
 30
0.0
 10
29.165714732
 20
45.7477712519
 30
0.0
 10
29.1529788336
 20
45.7047428866
 30
0.0
 10
29.1294921153
 20
45.6042227269
 30
0.0
 10
29.111628489
 20
45.4651583194
 30
0.0
 10
29.1129599351
 20
45.3182948605
 30
0.0
 10
29.1263485531
 20
45.2019715319
 30
0.0
 10
29.1423435008
 20
45.1166538581
 30
0.0
 10
29.1641128574
 20
45.0339299185
 30
0.0
 10
29.1825760265
 20
44.9804737518
 30
0.0
 10
29.1927548642
 20
44.9543979655
 30
0.0
  0
SPLINE
  5
339
100
AcDbEntity
  8
0
100
AcDbSpline
 62
7
  6
BYLAYER
 70
0
 71
3
 72
14
 73
10
 74
0
 42
0.0000001
 43
0.0000001
 44
0.0000000001
 40
0.0
 40
0.0
 40
0.0
 40
0.0
 40
0.1160333708
 40
0.239346409
 40
0.3746095711
 40
0.5221334055
 40
0.6789722299
 40
0.8401952328
 40
1.0
 40
1.0
 40
1.0
 40
1.0
 10
29.7497663281
 20
44.4646869019
 30
0.0
 10
29.6874947509
 20
44.4646869019
 30
0.0
 10
29.5578662318
 20
44.491896726
 30
0.0
 10
29.387223653
 20
44.6051368258
 30
0.0
 10
29.2485719969
 20
44.7768705848
 30
0.0
 10
29.1495155493
 20
44.993269861
 30
0.0
 10
29.0958754305
 20
45.2391191146
 30
0.0
 10
29.091506907
 20
45.4970865161
 30
0.0
 10
29.12281707
 20
45.6679921611
 30
0.0
 10
29.1474012192
 20
45.7501554181
 30
0.0
  0
SPLINE
  5
33A
100
AcDbEntity
  8
0
100
AcDbSpline
 62
7
  6
BYLAYER
 70
0
 71
3
 72
10
 73
6
 74
0
 42
0.0000001
 43
0.0000001
 44
0.0000000001
 40
0.0
 40
0.0
 40
0.0
 40
0.0
 40
0.3423401572
 40
0.6740164327
 40
1.0
 40
1.0
 40
1.0
 40
1.0
 10
30.0053421778
 20
44.5382252351
 30
0.0
 10
29.9790350751
 20
44.5224324863
 30
0.0
 10
29.9245928866
 20
44.4954497072
 30
0.0
 10
29.8380797013
 20
44.4703341665
 30
0.0
 10
29.778983768
 20
44.4646869019
 30
0.0
 10
29.7497663281
 20
44.4646869019
 30
0.0
  0
SPLINE
  5
33B
100
AcDbEntity
  8
0
100
AcDbSpline
 62
7
  6
BYLAYER
 70
0
 71
3
 72
17
 73
13
 74
0
 42
0.0000001
 43
0.0000001
 44
0.0000000001
 40
0.0
 40
0.0
 40
0.0
 40
0.0
 40
0.0818491356
 40
0.1687303789
 40
0.2637934895
 40
0.3672574296
 40
0.477105401
 40
0.5899656029
 40
0.7019000357
 40
0.8091361968
 40
0.9088383288
 40
1.0
 40
1.0
 40
1.0
 40
1.0
 10
29.7497663281
 20
46.3146869019
 30
0.0
 10
29.810420254
 20
46.3146869019
 30
0.0
 10
29.9365645625
 20
46.2889489746
 30
0.0
 10
30.1038974657
 20
46.1812177952
 30
0.0
 10
30.2413590721
 20
46.0170222213
 30
0.0
 10
30.3415352842
 20
45.8094583974
 30
0.0
 10
30.3989652274
 20
45.5729986212
 30
0.0
 10
30.4101383806
 20
45.3237604733
 30
0.0
 10
30.3742776337
 20
45.0787801504
 30
0.0
 10
30.2932634014
 20
44.8548491469
 30
0.0
 10
30.1718977823
 20
44.6677479775
 30
0.0
 10
30.0632618135
 20
44.5729957026
 30
0.0
 10
30.0053421778
 20
44.5382252351
 30
0.0
  0
SPLINE
  5
33C
100
AcDbEntity
  8
0
100
AcDbSpline
 62
7
  6
BYLAYER
 70
0
 71
3
 72
44
 73
40
 74
0
 42
0.0000001
 43
0.0000001
 44
0.0000000001
 40
0.0
 40
0.0
 40
0.0
 40
0.0
 40
0.0164457209
 40
0.0351036549
 40
0.0557640556
 40
0.0783556523
 40
0.1025945078
 40
0.1289571201
 40
0.1584585952
 40
0.1921593274
 40
0.2301554622
 40
0.2716908682
 40
0.315160032
 40
0.3583799474
 40
0.3987817234
 40
0.4350199574
 40
0.4668472218
 40
0.4950466826
 40
0.5204328754
 40
0.5432871682
 40
0.5639676598
 40
0.5833068987
 40
0.6023967069
 40
0.6226640416
 40
0.6456268101
 40
0.6719914639
 40
0.7015149161
 40
0.7335052119
 40
0.7673249507
 40
0.802460754
 40
0.8365090896
 40
0.8672480532
 40
0.8940837925
 40
0.9176090654
 40
0.9383102844
 40
0.9564768648
 40
0.9725004263
 40
0.9868709356
 40
1.0
 40
1.0
 40
1.0
 40
1.0
 10
28.9623020653
 20
44.8768015274
 30
0.0
 10
28.9535368639
 20
44.8418616094
 30
0.0
 10
28.9284674631
 20
44.7688192376
 30
0.0
 10
28.8735786182
 20
44.6593833116
 30
0.0
 10
28.7992736277
 20
44.5456462413
 30
0.0
 10
28.7070798495
 20
44.4298656831
 30
0.0
 10
28.5980214468
 20
44.3121947719
 30
0.0
 10
28.4713936885
 20
44.1906351827
 30
0.0
 10
28.3239550732
 20
44.0611492945
 30
0.0
 10
28.1529857588
 20
43.9200302961
 30
0.0
 10
27.9582513935
 20
43.7663984097
 30
0.0
 10
27.7430831316
 20
43.6042117463
 30
0.0
 10
27.5137184332
 20
43.4420059092
 30
0.0
 10
27.2790783855
 20
43.2919320803
 30
0.0
 10
27.0486840243
 20
43.1655167752
 30
0.0
 10
26.8316188851
 20
43.0682808272
 30
0.0
 10
26.632996221
 20
42.9969940484
 30
0.0
 10
26.4533269658
 20
42.9445621681
 30
0.0
 10
26.2909488178
 20
42.9036898871
 30
0.0
 10
26.1443536989
 20
42.8676403098
 30
0.0
 10
26.0114797962
 20
42.8313031157
 30
0.0
 10
25.8884013333
 20
42.790883525
 30
0.0
 10
25.7688572434
 20
42.74335891
 30
0.0
 10
25.6448062482
 20
42.6863135883
 30
0.0
 10
25.5077022671
 20
42.6197010964
 30
0.0
 10
25.3501301775
 20
42.5487796906
 30
0.0
 10
25.1686793454
 20
42.4836942293
 30
0.0
 10
24.9657669776
 20
42.4329138202
 30
0.0
 10
24.7466558428
 20
42.4006147452
 30
0.0
 10
24.5208013629
 20
42.390952619
 30
0.0
 10
24.3019600671
 20
42.4057301126
 30
0.0
 10
24.1041250653
 20
42.4421621454
 30
0.0
 10
23.9341745834
 20
42.4953909418
 30
0.0
 10
23.7922272914
 20
42.5602765898
 30
0.0
 10
23.6760475851
 20
42.6330313513
 30
0.0
 10
23.583622305
 20
42.7105508777
 30
0.0
 10
23.5124332172
 20
42.7900849576
 30
0.0
 10
23.4597341523
 20
42.8699316273
 30
0.0
 10
23.4345163534
 20
42.9249526142
 30
0.0
 10
23.4247245414
 20
42.9519920627
 30
0.0
  0
SPLINE
  5
33D
100
AcDbEntity
  8
0
100
AcDbSpline
 62
7
  6
BYLAYER
 70
0
 71
3
 72
72
 73
68
 74
0
 42
0.0000001
 43
0.0000001
 44
0.0000000001
 40
0.0
 40
0.0
 40
0.0
 40
0.0
 40
0.0024323392
 40
0.0044869028
 40
0.0062043991
 40
0.0076256627
 40
0.0087876402
 40
0.0097110155
 40
0.0104122491
 40
0.0106846759
 40
0.0109076699
 40
0.0110827964
 40
0.0112098737
 40
0.0113201156
 40
0.0114330482
 40
0.0115659117
 40
0.0117521139
 40
0.0119927948
 40
0.0122890517
 40
0.0130525141
 40
0.0140507719
 40
0.0152919262
 40
0.0167817364
 40
0.0185168391
 40
0.0227007955
 40
0.0277930683
 40
0.0337134645
 40
0.0475752399
 40
0.0630133212
 40
0.0708804234
 40
0.0785493831
 40
0.085775731
 40
0.0923317951
 40
0.0952947726
 40
0.0980009803
 40
0.1004559612
 40
0.1028486514
 40
0.1081028964
 40
0.1142703907
 40
0.1216373683
 40
0.1303559732
 40
0.1405117815
 40
0.1520833742
 40
0.1650139408
 40
0.1792033625
 40
0.210905806
 40
0.2463168369
 40
0.2847033501
 40
0.3254137939
 40
0.3679852033
 40
0.412036621
 40
0.4573516347
 40
0.5038137621
 40
0.5515421308
 40
0.6007804858
 40
0.6520650854
 40
0.7061683774
 40
0.7638126806
 40
0.7940216807
 40
0.8249456316
 40
0.8562816127
 40
0.8874921369
 40
0.9179947252
 40
0.9472036343
 40
0.9746101467
 40
0.9875664781
 40
1.0
 40
1.0
 40
1.0
 40
1.0
 10
24.7371206345
 20
43.6948798491
 30
0.0
 10
24.7322494718
 20
43.6960962774
 30
0.0
 10
24.7232607659
 20
43.6983302349
 30
0.0
 10
24.7108092436
 20
43.7013282809
 30
0.0
 10
24.7003625766
 20
43.7037347219
 30
0.0
 10
24.6916823924
 20
43.7056009051
 30
0.0
 10
24.6845752086
 20
43.706970822
 30
0.0
 10
24.678898127
 20
43.707918597
 30
0.0
 10
24.6750249115
 20
43.7084544098
 30
0.0
 10
24.6725584971
 20
43.7087170192
 30
0.0
 10
24.6712007271
 20
43.7088383231
 30
0.0
 10
24.6700620746
 20
43.7088921354
 30
0.0
 10
24.6693512008
 20
43.708929597
 30
0.0
 10
24.6682013422
 20
43.7087982149
 30
0.0
 10
24.6692683914
 20
43.7082801649
 30
0.0
 10
24.6699770712
 20
43.7080655168
 30
0.0
 10
24.6711411227
 20
43.7077089596
 30
0.0
 10
24.6725619457
 20
43.7073362493
 30
0.0
 10
24.6751776039
 20
43.7066833065
 30
0.0
 10
24.6793116486
 20
43.7057380227
 30
0.0
 10
24.6853727307
 20
43.7044233849
 30
0.0
 10
24.6929072245
 20
43.7028514188
 30
0.0
 10
24.7019419453
 20
43.7010152299
 30
0.0
 10
24.7169520491
 20
43.6980848268
 30
0.0
 10
24.7393233012
 20
43.694053601
 30
0.0
 10
24.7703113502
 20
43.6891618503
 30
0.0
 10
24.8212068246
 20
43.6823366668
 30
0.0
 10
24.8936054754
 20
43.6754087685
 30
0.0
 10
24.9702545781
 20
43.6714238455
 30
0.0
 10
25.0341948563
 20
43.6706659295
 30
0.0
 10
25.0811829414
 20
43.6714546152
 30
0.0
 10
25.1254147978
 20
43.6736755381
 30
0.0
 10
25.1598729702
 20
43.6765060626
 30
0.0
 10
25.1849507966
 20
43.6793380707
 30
0.0
 10
25.201568176
 20
43.6816131074
 30
0.0
 10
25.216944653
 20
43.6842157633
 30
0.0
 10
25.2374171227
 20
43.6881805344
 30
0.0
 10
25.2653504516
 20
43.6939348787
 30
0.0
 10
25.3030048699
 20
43.7032742775
 30
0.0
 10
25.3471527923
 20
43.7159938516
 30
0.0
 10
25.398722928
 20
43.7325907561
 30
0.0
 10
25.458027391
 20
43.7534140983
 30
0.0
 10
25.5248955621
 20
43.7788709689
 30
0.0
 10
25.5987833977
 20
43.8092134938
 30
0.0
 10
25.7101242502
 20
43.8576715674
 30
0.0
 10
25.8621765912
 20
43.9287790136
 30
0.0
 10
26.0569042584
 20
44.0263257922
 30
0.0
 10
26.2658350605
 20
44.1369020162
 30
0.0
 10
26.4854795807
 20
44.2587132393
 30
0.0
 10
26.7137911344
 20
44.3889514683
 30
0.0
 10
26.9495612212
 20
44.5252827955
 30
0.0
 10
27.1922547252
 20
44.6656840118
 30
0.0
 10
27.4422445746
 20
44.8086296414
 30
0.0
 10
27.7008168015
 20
44.9528538674
 30
0.0
 10
27.9704306001
 20
45.0976770342
 30
0.0
 10
28.2556694754
 20
45.2410074494
 30
0.0
 10
28.560814799
 20
45.3830816891
 30
0.0
 10
28.831801087
 20
45.4949639036
 30
0.0
 10
29.0622294408
 20
45.5788266121
 30
0.0
 10
29.2435383742
 20
45.6386022452
 30
0.0
 10
29.4287177623
 20
45.6929236292
 30
0.0
 10
29.6150148002
 20
45.7399122339
 30
0.0
 10
29.7989836944
 20
45.7774231179
 30
0.0
 10
29.9768089836
 20
45.8047214583
 30
0.0
 10
30.1198403635
 20
45.8185920664
 30
0.0
 10
30.22870465
 20
45.8240418546
 30
0.0
 10
30.2811136573
 20
45.8249604241
 30
0.0
 10
30.3067825392
 20
45.8249636887
 30
0.0
  0
SPLINE
  5
33E
100
AcDbEntity
  8
0
100
AcDbSpline
 62
7
  6
BYLAYER
 70
0
 71
3
 72
12
 73
8
 74
0
 42
0.0000001
 43
0.0000001
 44
0.0000000001
 40
0.0
 40
0.0
 40
0.0
 40
0.0
 40
0.1985678472
 40
0.393147778
 40
0.7045837589
 40
0.854436504
 40
1.0
 40
1.0
 40
1.0
 40
1.0
 10
28.3835541529
 20
45.5041837589
 30
0.0
 10
28.4149413253
 20
45.5136632515
 30
0.0
 10
28.4774820579
 20
45.5311408507
 30
0.0
 10
28.5909255565
 20
45.557073117
 30
0.0
 10
28.6981000145
 20
45.5738038425
 30
0.0
 10
28.7980101909
 20
45.5818911923
 30
0.0
 10
28.8467828599
 20
45.5832760695
 30
0.0
 10
28.8708255521
 20
45.5832805216
 30
0.0
  0
SPLINE
  5
33F
100
AcDbEntity
  8
0
100
AcDbSpline
 62
7
  6
BYLAYER
 70
0
 71
3
 72
60
 73
56
 74
0
 42
0.0000001
 43
0.0000001
 44
0.0000000001
 40
0.0
 40
0.0
 40
0.0
 40
0.0
 40
0.0028798432
 40
0.0051629311
 40
0.0068774885
 40
0.0075303905
 40
0.0080517474
 40
0.0084450939
 40
0.0085948717
 40
0.00871398
 40
0.0088028713
 40
0.0088361321
 40
0.0088620192
 40
0.0088806054
 40
0.0088919976
 40
0.0088965513
 40
0.0089005417
 40
0.0089287387
 40
0.0089847914
 40
0.0090683873
 40
0.0091791179
 40
0.0093165559
 40
0.0094802675
 40
0.0096698165
 40
0.0098847653
 40
0.0103891145
 40
0.0109898366
 40
0.0124664986
 40
0.0142869645
 40
0.0164234666
 40
0.0188518605
 40
0.0215623672
 40
0.0245487568
 40
0.0278047743
 40
0.0313271846
 40
0.0351248725
 40
0.0435937414
 40
0.0533163064
 40
0.0644360525
 40
0.0914226952
 40
0.1254061717
 40
0.1666877399
 40
0.2149105585
 40
0.2695165743
 40
0.3297182843
 40
0.3946963455
 40
0.4636943202
 40
0.5359900051
 40
0.610910991
 40
0.6878201852
 40
0.7661348988
 40
0.8453136523
 40
0.9248667085
 40
0.9624616258
 40
1.0
 40
1.0
 40
1.0
 40
1.0
 10
17.0524141236
 20
43.6019168312
 30
0.0
 10
17.0464052444
 20
43.6036586793
 30
0.0
 10
17.0356294887
 20
43.6067709903
 30
0.0
 10
17.0212581764
 20
43.610857241
 30
0.0
 10
17.011527443
 20
43.6135747395
 30
0.0
 10
17.0054733835
 20
43.6152283504
 30
0.0
 10
17.0021840637
 20
43.6161101224
 30
0.0
 10
16.999946396
 20
43.6166945424
 30
0.0
 10
16.9985515015
 20
43.617045699
 30
0.0
 10
16.9977956435
 20
43.6172290053
 30
0.0
 10
16.9972860535
 20
43.6173467889
 30
0.0
 10
16.9969695367
 20
43.6174125219
 30
0.0
 10
16.996806997
 20
43.6174447563
 30
0.0
 10
16.9966793691
 20
43.6174622981
 30
0.0
 10
16.9966187434
 20
43.6174723122
 30
0.0
 10
16.9965548941
 20
43.6174661491
 30
0.0
 10
16.9966368009
 20
43.6173917972
 30
0.0
 10
16.9967968023
 20
43.6173581879
 30
0.0
 10
16.9971518307
 20
43.6172061956
 30
0.0
 10
16.997661809
 20
43.6170471551
 30
0.0
 10
16.9983504883
 20
43.6168214174
 30
0.0
 10
16.9992039062
 20
43.6165573532
 30
0.0
 10
17.0002238589
 20
43.6162456465
 30
0.0
 10
17.0014060962
 20
43.6158911662
 30
0.0
 10
17.0032993539
 20
43.6153306591
 30
0.0
 10
17.0060529099
 20
43.6145298647
 30
0.0
 10
17.0114457479
 20
43.6129888575
 30
0.0
 10
17.0196023766
 20
43.6107140114
 30
0.0
 10
17.0309934735
 20
43.6076181396
 30
0.0
 10
17.0444026923
 20
43.6040653266
 30
0.0
 10
17.0597059379
 20
43.6001128186
 30
0.0
 10
17.0768135673
 20
43.5957640529
 30
0.0
 10
17.0956742404
 20
43.5910138857
 30
0.0
 10
17.1162502633
 20
43.5858526806
 30
0.0
 10
17.1385360135
 20
43.5802634324
 30
0.0
 10
17.1718077059
 20
43.5719254372
 30
0.0
 10
17.2181491509
 20
43.5603305547
 30
0.0
 10
17.2799369206
 20
43.5449353893
 30
0.0
 10
17.3808886125
 20
43.5203347529
 30
0.0
 10
17.5335169181
 20
43.4851947261
 30
0.0
 10
17.7510216717
 20
43.4399973582
 30
0.0
 10
18.014623914
 20
43.390112299
 30
0.0
 10
18.3230713776
 20
43.3364511643
 30
0.0
 10
18.6728004896
 20
43.2804352616
 30
0.0
 10
19.0594992844
 20
43.2253810361
 30
0.0
 10
19.4783060632
 20
43.1746178712
 30
0.0
 10
19.9242913615
 20
43.1305987151
 30
0.0
 10
20.3927607183
 20
43.0957661909
 30
0.0
 10
20.8791620109
 20
43.0724280902
 30
0.0
 10
21.3791226437
 20
43.0628844722
 30
0.0
 10
21.8884032985
 20
43.0694395133
 30
0.0
 10
22.4028833038
 20
43.0943945478
 30
0.0
 10
22.827875514
 20
43.1319334162
 30
0.0
 10
23.161496986
 20
43.1724309873
 30
0.0
 10
23.3230663136
 20
43.1956790105
 30
0.0
 10
23.4036486886
 20
43.208231213
 30
0.0
  0
SPLINE
  5
340
100
AcDbEntity
  8
0
100
AcDbSpline
 62
7
  6
BYLAYER
 70
0
 71
3
 72
88
 73
84
 74
0
 42
0.0000001
 43
0.0000001
 44
0.0000000001
 40
0.0
 40
0.0
 40
0.0
 40
0.0
 40
0.0019893339
 40
0.0036180834
 40
0.0048819576
 40
0.0053757251
 40
0.0057766642
 40
0.0060842389
 40
0.006202848
 40
0.0062979166
 40
0.006336603
 40
0.0063693803
 40
0.0063962409
 40
0.0064171782
 40
0.0064321876
 40
0.0064412722
 40
0.0064444985
 40
0.0064475354
 40
0.006471295
 40
0.006518964
 40
0.0065906359
 40
0.0066863845
 40
0.0068062799
 40
0.0069503908
 40
0.0071187854
 40
0.0073115317
 40
0.0077703473
 40
0.0083273645
 40
0.0097380954
 40
0.0115479082
 40
0.0137609863
 40
0.0163797581
 40
0.0193996366
 40
0.0228143044
 40
0.0266174756
 40
0.0308014231
 40
0.0353525508
 40
0.0454961271
 40
0.0569232925
 40
0.0694903873
 40
0.0830525813
 40
0.0974794625
 40
0.1284636395
 40
0.1617178873
 40
0.1968428488
 40
0.2335443701
 40
0.2716487446
 40
0.3514479969
 40
0.4349017609
 40
0.4775638026
 40
0.52061026
 40
0.5638720891
 40
0.6071905699
 40
0.6504257111
 40
0.6934593708
 40
0.7362054344
 40
0.7786130027
 40
0.8206745511
 40
0.8415910471
 40
0.8624448607
 40
0.8832491043
 40
0.893541235
 40
0.9035553633
 40
0.9226582738
 40
0.9316943166
 40
0.940342942
 40
0.956321705
 40
0.9635518331
 40
0.9702072382
 40
0.976235755
 40
0.9815801647
 40
0.9861862015
 40
0.9900165202
 40
0.9930503565
 40
0.9953148681
 40
0.9968690712
 40
0.9978517582
 40
0.9984325996
 40
0.9988377226
 40
0.99904768
 40
0.9992956935
 40
0.9996051266
 40
1.0
 40
1.0
 40
1.0
 40
1.0
 10
15.3591026351
 20
43.0644627483
 30
0.0
 10
15.350579682
 20
43.0669347194
 30
0.0
 10
15.3350743301
 20
43.0714158705
 30
0.0
 10
15.3141350209
 20
43.0774010452
 30
0.0
 10
15.2995974189
 20
43.0815072273
 30
0.0
 10
15.290321984
 20
43.0840932405
 30
0.0
 10
15.2851518513
 20
43.0855196584
 30
0.0
 10
15.2815917212
 20
43.086488563
 30
0.0
 10
15.2793450402
 20
43.0870885102
 30
0.0
 10
15.2782564576
 20
43.0873744251
 30
0.0
 10
15.2775364901
 20
43.0875592785
 30
0.0
 10
15.277112181
 20
43.0876664786
 30
0.0
 10
15.2767602917
 20
43.0877521294
 30
0.0
 10
15.2764947672
 20
43.0878162914
 30
0.0
 10
15.2762821189
 20
43.0878592327
 30
0.0
 10
15.2761914548
 20
43.0878815276
 30
0.0
 10
15.2760842177
 20
43.0878888639
 30
0.0
 10
15.2762604161
 20
43.0877931241
 30
0.0
 10
15.2765036144
 20
43.0877397369
 30
0.0
 10
15.2771618753
 20
43.0875055693
 30
0.0
 10
15.2780543034
 20
43.0872429089
 30
0.0
 10
15.2792919416
 20
43.0868660022
 30
0.0
 10
15.2808269846
 20
43.0864136077
 30
0.0
 10
15.282679583
 20
43.0858707878
 30
0.0
 10
15.2848437409
 20
43.0852431203
 30
0.0
 10
15.2883587105
 20
43.0842303576
 30
0.0
 10
15.2935428238
 20
43.0827504484
 30
0.0
 10
15.3039583278
 20
43.0798022719
 30
0.0
 10
15.3201856471
 20
43.0752591978
 30
0.0
 10
15.3435439289
 20
43.0687852619
 30
0.0
 10
15.3721128844
 20
43.0609355316
 30
0.0
 10
15.405905681
 20
43.0517241519
 30
0.0
 10
15.4449011829
 20
43.0412182017
 30
0.0
 10
15.4890396832
 20
43.0294925251
 30
0.0
 10
15.5382479549
 20
43.0166271858
 30
0.0
 10
15.5924205496
 20
43.0027091959
 30
0.0
 10
15.6740734174
 20
42.9820909516
 30
0.0
 10
15.7872349767
 20
42.9542824694
 30
0.0
 10
15.9354149012
 20
42.9191552698
 30
0.0
 10
16.0986934099
 20
42.881624404
 30
0.0
 10
16.2752561886
 20
42.8421680519
 30
0.0
 10
16.532304976
 20
42.7861865615
 30
0.0
 10
16.8757576223
 20
42.7141552645
 30
0.0
 10
17.3106672504
 20
42.6285046812
 30
0.0
 10
17.7719983231
 20
42.5452742092
 30
0.0
 10
18.2562287712
 20
42.4675838908
 30
0.0
 10
18.9392136942
 20
42.3715052119
 30
0.0
 10
19.8322863531
 20
42.2728157951
 30
0.0
 10
20.7495275998
 20
42.2153429573
 30
0.0
 10
21.5041091611
 20
42.200851949
 30
0.0
 10
22.0794950731
 20
42.2083578052
 30
0.0
 10
22.6571961709
 20
42.2364969014
 30
0.0
 10
23.2342005414
 20
42.2875722824
 30
0.0
 10
23.8074270601
 20
42.3638877107
 30
0.0
 10
24.3737193519
 20
42.4679961658
 30
0.0
 10
24.9298558704
 20
42.602458819
 30
0.0
 10
25.4724742494
 20
42.7699802044
 30
0.0
 10
25.9113704426
 20
42.9397195806
 30
0.0
 10
26.2519418836
 20
43.0943921395
 30
0.0
 10
26.5011470309
 20
43.2203564951
 30
0.0
 10
26.7031530917
 20
43.3340755867
 30
0.0
 10
26.8603362447
 20
43.4285692144
 30
0.0
 10
27.0089190444
 20
43.5225556394
 30
0.0
 10
27.150368151
 20
43.6172535182
 30
0.0
 10
27.2852920879
 20
43.7106671693
 30
0.0
 10
27.4081398599
 20
43.7970356525
 30
0.0
 10
27.5238798036
 20
43.8795003449
 30
0.0
 10
27.6326105901
 20
43.9564782155
 30
0.0
 10
27.7054396946
 20
44.0073477783
 30
0.0
 10
27.7719199413
 20
44.0526082409
 30
0.0
 10
27.8313889007
 20
44.0919112271
 30
0.0
 10
27.8832342764
 20
44.1249502696
 30
0.0
 10
27.9269387737
 20
44.1515676957
 30
0.0
 10
27.9623061525
 20
44.1717673714
 30
0.0
 10
27.9893585084
 20
44.1860130217
 30
0.0
 10
28.0087561681
 20
44.1951293363
 30
0.0
 10
28.0216870145
 20
44.2002567987
 30
0.0
 10
28.0300165097
 20
44.2030796993
 30
0.0
 10
28.0352329966
 20
44.2042255202
 30
0.0
 10
28.0390190336
 20
44.2049259731
 30
0.0
 10
28.0424142925
 20
44.2053799617
 30
0.0
 10
28.0466531682
 20
44.2056880316
 30
0.0
 10
28.049797616
 20
44.2057431693
 30
0.0
 10
28.0515578178
 20
44.2057462174
 30
0.0
  0
SPLINE
  5
341
100
AcDbEntity
  8
0
100
AcDbSpline
 62
7
  6
BYLAYER
 70
0
 71
3
 72
18
 73
14
 74
0
 42
0.0000001
 43
0.0000001
 44
0.0000000001
 40
0.0
 40
0.0
 40
0.0
 40
0.0
 40
0.1396029501
 40
0.27453595
 40
0.4003404034
 40
0.513294072
 40
0.6118977662
 40
0.6975710411
 40
0.7728140468
 40
0.8391222238
 40
0.8980409202
 40
0.9511732275
 40
1.0
 40
1.0
 40
1.0
 40
1.0
 10
24.7502286284
 20
43.9395904615
 30
0.0
 10
24.6760228266
 20
43.9271288239
 30
0.0
 10
24.5303330475
 20
43.9010804003
 30
0.0
 10
24.3195792787
 20
43.8544029606
 30
0.0
 10
24.1254585038
 20
43.8002002633
 30
0.0
 10
23.954077958
 20
43.7388355113
 30
0.0
 10
23.8085074517
 20
43.6713232723
 30
0.0
 10
23.6883387191
 20
43.5991309427
 30
0.0
 10
23.5917145523
 20
43.5232838916
 30
0.0
 10
23.5167416487
 20
43.4449240364
 30
0.0
 10
23.461520579
 20
43.3657327796
 30
0.0
 10
23.4239274696
 20
43.2871737827
 30
0.0
 10
23.4087201176
 20
43.2340549397
 30
0.0
 10
23.4036488011
 20
43.2082309362
 30
0.0
  0
SPLINE
  5
342
100
AcDbEntity
  8
0
100
AcDbSpline
 62
7
  6
BYLAYER
 70
0
 71
3
 72
16
 73
12
 74
0
 42
0.0000001
 43
0.0000001
 44
0.0000000001
 40
0.0
 40
0.0
 40
0.0
 40
0.0
 40
0.1069963393
 40
0.2224208924
 40
0.3436656775
 40
0.4669969967
 40
0.5883404448
 40
0.7039574177
 40
0.8111949836
 40
0.9092592036
 40
1.0
 40
1.0
 40
1.0
 40
1.0
 10
28.0699670441
 20
44.1532227462
 30
0.0
 10
28.0218759239
 20
44.2039842701
 30
0.0
 10
27.9367859024
 20
44.3240819147
 30
0.0
 10
27.8510300992
 20
44.5333017672
 30
0.0
 10
27.8060419155
 20
44.7657103849
 30
0.0
 10
27.8044907163
 20
45.006173275
 30
0.0
 10
27.8463270709
 20
45.239312497
 30
0.0
 10
27.9290507263
 20
45.4502251189
 30
0.0
 10
28.0481598103
 20
45.6253822854
 30
0.0
 10
28.19719927
 20
45.7528632413
 30
0.0
 10
28.3145625966
 20
45.7997916887
 30
0.0
 10
28.3727904932
 20
45.8110244486
 30
0.0
  0
SPLINE
  5
343
100
AcDbEntity
  8
0
100
AcDbSpline
 62
7
  6
BYLAYER
 70
0
 71
3
 72
10
 73
6
 74
0
 42
0.0000001
 43
0.0000001
 44
0.0000000001
 40
0.0
 40
0.0
 40
0.0
 40
0.0
 40
0.3165988011
 40
0.6467166035
 40
1.0
 40
1.0
 40
1.0
 40
1.0
 10
28.4611928296
 20
43.9695120079
 30
0.0
 10
28.4144224929
 20
43.9695120079
 30
0.0
 10
28.3183108943
 20
43.9844143442
 30
0.0
 10
28.1835620056
 20
44.0491014318
 30
0.0
 10
28.1058606964
 20
44.1153359912
 30
0.0
 10
28.0699670441
 20
44.1532227462
 30
0.0
  0
SPLINE
  5
344
100
AcDbEntity
  8
0
100
AcDbSpline
 62
7
  6
BYLAYER
 70
0
 71
3
 72
16
 73
12
 74
0
 42
0.0000001
 43
0.0000001
 44
0.0000000001
 40
0.0
 40
0.0
 40
0.0
 40
0.0
 40
0.1085648202
 40
0.2260061597
 40
0.3492302312
 40
0.4739091344
 40
0.5954591737
 40
0.7099005072
 40
0.8148196955
 40
0.9103571903
 40
1.0
 40
1.0
 40
1.0
 40
1.0
 10
28.852418615
 20
45.6358012697
 30
0.0
 10
28.9034006396
 20
45.5819883153
 30
0.0
 10
28.9927870649
 20
45.4535663346
 30
0.0
 10
29.07966794
 20
45.2296218001
 30
0.0
 10
29.120609074
 20
44.9818373218
 30
0.0
 10
29.1129373447
 20
44.7281235709
 30
0.0
 10
29.0573394239
 20
44.4864744174
 30
0.0
 10
28.9574170076
 20
44.2739976198
 30
0.0
 10
28.8189924029
 20
44.1059215214
 30
0.0
 10
28.6499756169
 20
43.9957971615
 30
0.0
 10
28.5224011167
 20
43.9695120079
 30
0.0
 10
28.4611928296
 20
43.9695120079
 30
0.0
  0
SPLINE
  5
345
100
AcDbEntity
  8
0
100
AcDbSpline
 62
7
  6
BYLAYER
 70
0
 71
3
 72
32
 73
28
 74
0
 42
0.0000001
 43
0.0000001
 44
0.0000000001
 40
0.0
 40
0.0
 40
0.0
 40
0.0
 40
0.0589931129
 40
0.0870685513
 40
0.1142925521
 40
0.1408179151
 40
0.1668486408
 40
0.1926073231
 40
0.2183316034
 40
0.2442723033
 40
0.2706626643
 40
0.2976984937
 40
0.3255439524
 40
0.3543316955
 40
0.3841336149
 40
0.4467704584
 40
0.4796302171
 40
0.5134001929
 40
0.5831506067
 40
0.6549990213
 40
0.7276238032
 40
0.7996370175
 40
0.8697181406
 40
0.9036864631
 40
0.9367760756
 40
0.9689017992
 40
1.0
 40
1.0
 40
1.0
 40
1.0
 10
28.0515578805
 20
44.2057461428
 30
0.0
 10
28.0823309204
 20
44.1691703817
 30
0.0
 10
28.1330931383
 20
44.1192996965
 30
0.0
 10
28.209292228
 20
44.0664815341
 30
0.0
 10
28.2680235502
 20
44.0354304014
 30
0.0
 10
28.3287187821
 20
44.0127764984
 30
0.0
 10
28.3907365144
 20
43.9986493846
 30
0.0
 10
28.4534601507
 20
43.9931580967
 30
0.0
 10
28.516273597
 20
43.9964099693
 30
0.0
 10
28.5785148523
 20
44.0084953539
 30
0.0
 10
28.6395664186
 20
44.0291456365
 30
0.0
 10
28.6988533278
 20
44.0580992911
 30
0.0
 10
28.755796407
 20
44.0950995928
 30
0.0
 10
28.8097931667
 20
44.1398631538
 30
0.0
 10
28.8783712764
 20
44.2102972855
 30
0.0
 10
28.9378775278
 20
44.2933451354
 30
0.0
 10
28.9873265835
 20
44.385690982
 30
0.0
 10
29.0313313799
 20
44.4870983564
 30
0.0
 10
29.0723752732
 20
44.6236535326
 30
0.0
 10
29.0977416958
 20
44.7958101564
 30
0.0
 10
29.0993520244
 20
44.9716640083
 30
0.0
 10
29.0766594256
 20
45.1445935499
 30
0.0
 10
29.0381634618
 20
45.2824628901
 30
0.0
 10
28.9958521151
 20
45.385244516
 30
0.0
 10
28.959306723
 20
45.4568635874
 30
0.0
 10
28.9180098596
 20
45.5231470347
 30
0.0
 10
28.8870356322
 20
45.5639823506
 30
0.0
 10
28.8708255521
 20
45.5832805216
 30
0.0
  0
SPLINE
  5
346
100
AcDbEntity
  8
0
100
AcDbSpline
 62
7
  6
BYLAYER
 70
0
 71
3
 72
25
 73
21
 74
0
 42
0.0000001
 43
0.0000001
 44
0.0000000001
 40
0.0
 40
0.0
 40
0.0
 40
0.0
 40
0.0321207292
 40
0.0648050626
 40
0.0982726239
 40
0.1327088953
 40
0.169727479
 40
0.2080502071
 40
0.2885958486
 40
0.3308506973
 40
0.3742760076
 40
0.4639690941
 40
0.5563600309
 40
0.6497493097
 40
0.7423521649
 40
0.8324705154
 40
0.8761503665
 40
0.9187003
 40
0.9600107865
 40
1.0
 40
1.0
 40
1.0
 40
1.0
 10
28.3967883076
 20
45.7898900335
 30
0.0
 10
28.376740863
 20
45.7870108029
 30
0.0
 10
28.3367386342
 20
45.7784547075
 30
0.0
 10
28.2782135102
 20
45.7578397361
 30
0.0
 10
28.2213657198
 20
45.7295690725
 30
0.0
 10
28.1659241219
 20
45.6933730245
 30
0.0
 10
28.1125922887
 20
45.6491606939
 30
0.0
 10
28.0440145101
 20
45.5787268355
 30
0.0
 10
27.9845081096
 20
45.4956788626
 30
0.0
 10
27.9350590799
 20
45.4033330374
 30
0.0
 10
27.8910542766
 20
45.3019256574
 30
0.0
 10
27.8500103868
 20
45.1653704841
 30
0.0
 10
27.8246439631
 20
44.9932138593
 30
0.0
 10
27.8230336349
 20
44.8173600076
 30
0.0
 10
27.8457262335
 20
44.6444304661
 30
0.0
 10
27.8842221098
 20
44.5065614396
 30
0.0
 10
27.9265331676
 20
44.4037803821
 30
0.0
 10
27.9630780355
 20
44.3321620787
 30
0.0
 10
28.0043742698
 20
44.2658792573
 30
0.0
 10
28.0353480007
 20
44.2250442611
 30
0.0
 10
28.0515578178
 20
44.2057462174
 30
0.0
  0
LINE
  5
347
100
AcDbEntity
  8
0
100
AcDbLine
 62
7
  6
BYLAYER
 10
28.852418615
 20
45.6358012697
 11
28.9232010136
 21
45.6357255559
  0
SPLINE
  5
348
100
AcDbEntity
  8
0
100
AcDbSpline
 62
7
  6
BYLAYER
 70
0
 71
3
 72
25
 73
21
 74
0
 42
0.0000001
 43
0.0000001
 44
0.0000000001
 40
0.0
 40
0.0
 40
0.0
 40
0.0
 40
0.0628267063
 40
0.1258118723
 40
0.1888812192
 40
0.2519469427
 40
0.314921731
 40
0.3463904744
 40
0.3778069649
 40
0.440404257
 40
0.5027722778
 40
0.5339101679
 40
0.5650041843
 40
0.6269990668
 40
0.6889083066
 40
0.7508212372
 40
0.8128266604
 40
0.8749978351
 40
0.9373843158
 40
1.0
 40
1.0
 40
1.0
 40
1.0
 10
17.0524141236
 20
43.6019168312
 30
0.0
 10
17.0691814169
 20
43.545695637
 30
0.0
 10
17.091661113
 20
43.4298350398
 30
0.0
 10
17.0916218771
 20
43.2526377114
 30
0.0
 10
17.0572585851
 20
43.0785817578
 30
0.0
 10
16.9905556308
 20
42.9142263468
 30
0.0
 10
16.90947873
 20
42.7905894395
 30
0.0
 10
16.8316121068
 20
42.7026046265
 30
0.0
 10
16.7458534333
 20
42.6227886734
 30
0.0
 10
16.6248743639
 20
42.539672991
 30
0.0
 10
16.4903228809
 20
42.4816296299
 30
0.0
 10
16.3778132694
 20
42.4520287495
 30
0.0
 10
16.2632913623
 20
42.4337353691
 30
0.0
 10
16.1177432369
 20
42.4321990215
 30
0.0
 10
15.946559075
 20
42.4653827655
 30
0.0
 10
15.7852198365
 20
42.5316391729
 30
0.0
 10
15.6402486733
 20
42.6290252091
 30
0.0
 10
15.5168448876
 20
42.7532204392
 30
0.0
 10
15.4202214657
 20
42.8998786079
 30
0.0
 10
15.3758165755
 20
43.0084537725
 30
0.0
 10
15.3591026681
 20
43.0644626379
 30
0.0
  0
SPLINE
  5
349
100
AcDbEntity
  8
0
100
AcDbSpline
 62
7
  6
BYLAYER
 70
0
 71
3
 72
25
 73
21
 74
0
 42
0.0000001
 43
0.0000001
 44
0.0000000001
 40
0.0
 40
0.0
 40
0.0
 40
0.0
 40
0.0628267027
 40
0.1258118651
 40
0.1888812096
 40
0.2519469309
 40
0.314921717
 40
0.3463904591
 40
0.3778069485
 40
0.4404042383
 40
0.5027722569
 40
0.5339101459
 40
0.5650041611
 40
0.6269990414
 40
0.6889082789
 40
0.7508212073
 40
0.8128266283
 40
0.8749978007
 40
0.9373842986
 40
1.0
 40
1.0
 40
1.0
 40
1.0
 10
15.3591026351
 20
43.0644627483
 30
0.0
 10
15.3423353426
 20
43.1206839415
 30
0.0
 10
15.3198556478
 20
43.2365445364
 30
0.0
 10
15.319894884
 20
43.4137418622
 30
0.0
 10
15.3542581758
 20
43.5877978146
 30
0.0
 10
15.4209611301
 20
43.7521532256
 30
0.0
 10
15.5020380309
 20
43.8757901328
 30
0.0
 10
15.5799046541
 20
43.9637749458
 30
0.0
 10
15.6656633276
 20
44.043590899
 30
0.0
 10
15.786642397
 20
44.1267065814
 30
0.0
 10
15.92119388
 20
44.1847499425
 30
0.0
 10
16.0337034915
 20
44.2143508229
 30
0.0
 10
16.1482253985
 20
44.2326442033
 30
0.0
 10
16.293773524
 20
44.2341805509
 30
0.0
 10
16.4649576859
 20
44.2009968068
 30
0.0
 10
16.6262969244
 20
44.1347403995
 30
0.0
 10
16.7712680876
 20
44.0373543633
 30
0.0
 10
16.894671886
 20
43.9131591203
 30
0.0
 10
16.991295324
 20
43.7665009175
 30
0.0
 10
17.0357002183
 20
43.6579257146
 30
0.0
 10
17.0524141241
 20
43.6019168296
 30
0.0
  0
SPLINE
  5
34A
100
AcDbEntity
  8
0
100
AcDbSpline
 62
7
  6
BYLAYER
 70
0
 71
3
 72
24
 73
20
 74
0
 42
0.0000001
 43
0.0000001
 44
0.0000000001
 40
0.0
 40
0.0
 40
0.0
 40
0.0
 40
0.0323097785
 40
0.0650291156
 40
0.1313788782
 40
0.1985467263
 40
0.2658518448
 40
0.3325982346
 40
0.3981660109
 40
0.4620720322
 40
0.5240799163
 40
0.5842097991
 40
0.6428063037
 40
0.7004632115
 40
0.7579598188
 40
0.8161041074
 40
0.8755743145
 40
0.9368267371
 40
1.0
 40
1.0
 40
1.0
 40
1.0
 10
24.7371206345
 20
43.6948798491
 30
0.0
 10
24.7457022432
 20
43.6679726905
 30
0.0
 10
24.7604304656
 20
43.6130594282
 30
0.0
 10
24.7801113817
 20
43.499885163
 30
0.0
 10
24.7861185475
 20
43.3540369882
 30
0.0
 10
24.7632900392
 20
43.1793341217
 30
0.0
 10
24.7119420733
 20
43.0104070634
 30
0.0
 10
24.6334309158
 20
42.8538130761
 30
0.0
 10
24.5311783206
 20
42.7151874051
 30
0.0
 10
24.4084689871
 20
42.6001685573
 30
0.0
 10
24.2702337748
 20
42.5127810462
 30
0.0
 10
24.1213028346
 20
42.457080333
 30
0.0
 10
23.9675818049
 20
42.4348834238
 30
0.0
 10
23.8150579317
 20
42.4479374547
 30
0.0
 10
23.6698518117
 20
42.4951879014
 30
0.0
 10
23.538042204
 20
42.5752768731
 30
0.0
 10
23.4244695549
 20
42.6843008993
 30
0.0
 10
23.3338605625
 20
42.8181638582
 30
0.0
 10
23.2911710725
 20
42.9189832953
 30
0.0
 10
23.2743960968
 20
42.9714998158
 30
0.0
  0
SPLINE
  5
34B
100
AcDbEntity
  8
0
100
AcDbSpline
 62
7
  6
BYLAYER
 70
0
 71
3
 72
24
 73
20
 74
0
 42
0.0000001
 43
0.0000001
 44
0.0000000001
 40
0.0
 40
0.0
 40
0.0
 40
0.0
 40
0.0323097708
 40
0.0650291
 40
0.131378846
 40
0.1985466966
 40
0.2658518177
 40
0.3325982099
 40
0.3981659887
 40
0.4620720123
 40
0.5240798987
 40
0.5842097837
 40
0.6428062905
 40
0.7004632004
 40
0.7579598099
 40
0.8161041006
 40
0.8755743099
 40
0.9368267348
 40
1.0
 40
1.0
 40
1.0
 40
1.0
 10
23.2743960968
 20
42.9714998158
 30
0.0
 10
23.2658144934
 20
42.998406968
 30
0.0
 10
23.2510862801
 20
43.0533202163
 30
0.0
 10
23.2314053768
 20
43.1664944508
 30
0.0
 10
23.2253982155
 20
43.3123426006
 30
0.0
 10
23.2482267217
 20
43.4870454507
 30
0.0
 10
23.2995746876
 20
43.655972509
 30
0.0
 10
23.3780858451
 20
43.8125664963
 30
0.0
 10
23.4803384403
 20
43.9511921672
 30
0.0
 10
23.6030477737
 20
44.066211015
 30
0.0
 10
23.7412829861
 20
44.1535985261
 30
0.0
 10
23.8902139262
 20
44.2092992394
 30
0.0
 10
24.043934956
 20
44.2314961486
 30
0.0
 10
24.1964588292
 20
44.2184421177
 30
0.0
 10
24.3416649492
 20
44.171191671
 30
0.0
 10
24.4734745568
 20
44.0911026993
 30
0.0
 10
24.587047206
 20
43.982078673
 30
0.0
 10
24.6776561984
 20
43.8482157142
 30
0.0
 10
24.7203456884
 20
43.7473962771
 30
0.0
 10
24.7371206641
 20
43.6948797566
 30
0.0
  0
ENDSEC
  0
SECTION
  2
OBJECTS
  0
DICTIONARY
  5
C
100
AcDbDictionary
280
0
281
1
  3
ACAD_GROUP
350
D
  3
ACAD_MLINESTYLE
350
17
  3
ACAD_LAYOUT
350
1A
  3
ACAD_PLOTSETTINGS
350
19
  3
ACAD_PLOTSTYLENAME
350
E
  0
DICTIONARY
  5
D
102
{ACAD_REACTORS
330
C
102
}
100
AcDbDictionary
280
0
281
1
  0
ACDBDICTIONARYWDFLT
  5
E
102
{ACAD_REACTORS
330
C
102
}
100
AcDbDictionary
281
1
  3
Normal
350
F
100
AcDbDictionaryWithDefault
340
F
  0
DICTIONARY
  5
17
102
{ACAD_REACTORS
330
C
102
}
100
AcDbDictionary
280
0
281
1
  3
Standard
350
18
  0
DICTIONARY
  5
19
102
{ACAD_REACTORS
330
C
102
}
100
AcDbDictionary
281
1
  0
DICTIONARY
  5
1A
102
{ACAD_REACTORS
330
C
102
}
100
AcDbDictionary
281
1
  3
Model
350
34C
  3
Layout1
350
34D
  0
ACDBPLACEHOLDER
  5
F
102
{ACAD_REACTORS
330
E
102
}
  0
MLINESTYLE
  5
18
102
{ACAD_REACTORS
330
17
102
}
100
AcDbMlineStyle
  2
STANDARD
 70
0
  3

 62
256
 51
90.0
 52
90.0
 71
2
 49
0.5
 62
256
  6
BYLAYER
 49
-0.5
 62
256
  6
BYLAYER
  0
LAYOUT
  5
34C
102
{ACAD_REACTORS
330
1A
102
}
100
AcDbPlotSettings
  1

  2
none_device
  4

  6

 40
0.0
 41
0.0
 42
0.0
 43
0.0
 44
210.0
 45
297.0
 46
0.0
 47
0.0
 48
0.0
 49
0.0
140
0.0
141
0.0
142
1.0
143
1.0
 70
1024
 72
1
 73
0
 74
0
  7

 75
0
147
1.0
148
0.0
149
0.0
100
AcDbLayout
  1
Model
 70
0
 71
0
 10
0.0
 20
0.0
 11
210.0
 21
297.0
 12
0.0
 22
0.0
 32
0.0
 14
0.0
 24
0.0
 34
0.0
 15
0.0
 25
0.0
 35
0.0
146
0.0
 13
0.0
 23
0.0
 33
0.0
 16
1.0
 26
0.0
 36
0.0
 17
0.0
 27
1.0
 37
0.0
 76
0
330
210
345
0
346
0
  0
LAYOUT
  5
34D
102
{ACAD_REACTORS
330
1A
102
}
100
AcDbPlotSettings
  1

  2
none_device
  4

  6

 40
0.0
 41
0.0
 42
0.0
 43
0.0
 44
210.0
 45
297.0
 46
0.0
 47
0.0
 48
0.0
 49
0.0
140
0.0
141
0.0
142
1.0
143
1.0
 70
0
 72
1
 73
0
 74
0
  7

 75
0
147
1.0
148
0.0
149
0.0
100
AcDbLayout
  1
Layout1
 70
0
 71
1
 10
0.0
 20
0.0
 11
210.0
 21
297.0
 12
0.0
 22
0.0
 32
0.0
 14
0.0
 24
0.0
 34
0.0
 15
0.0
 25
0.0
 35
0.0
146
0.0
 13
0.0
 23
0.0
 33
0.0
 16
1.0
 26
0.0
 36
0.0
 17
0.0
 27
1.0
 37
0.0
 76
0
330
211
345
0
346
0
  0
ENDSEC
  0
EOF
