999
DXF file: C:\Users\sesa63760\Dev\_Creo\CAD\MCADID0004241_3D-CAD\drw0001_4.dxf
999
Pro/ENGINEER 2019471 by Parametric Technology Corporation
  0
SECTION
  2
HEADER
  9
$ACADVER
  1
AC1024
  9
$DWGCODEPAGE
  3
ANSI_1252
  9
$EXTMAX
 10
576.928698218
 20
815.9420160511
 30
0.0
  9
$EXTMIN
 10
0.0
 20
0.0
 30
0.0
  9
$LIMMIN
 10
0.0
 20
0.0
  9
$LIMMAX
 10
576.928698218
 20
815.9420160511
  9
$VIEWCTR
 10
288.464349109
 20
407.9710080256
  9
$VIEWSIZE
 40
815.9420160511
  9
$CLAYER
  8
0
  9
$LTSCALE
 40
53.1873314167
  9
$CELTYPE
  6
BYLAYER
  9
$DIMSCALE
 40
1.0
  9
$DIMASZ
 40
6.8681987883
  9
$DIMEXO
 40
1.0
  9
$DIMDLI
 40
36.747610797
  9
$DIMEXE
 40
1.0
  9
$DIMCEN
 40
8.7033815045
  9
$DIMLFAC
 40
1.0
  9
$DIMBLK
  1
_FILLED
  9
$DIMALT
 70
0
  9
$DIMALTF
 40
0.0393700787
  9
$DIMTXT
 40
9.6154783036
  9
$DIMTOL
 70
1
  9
$DIMLIM
 70
0
  9
$DIMTFAC
 40
1.0
  9
$DIMTP
 40
0.01
  9
$DIMTM
 40
0.01
  9
$DIMGAP
 40
0.625
  9
$DIMDSEP
 70
46
  9
$AUNITS
 70
0
  9
$PDMODE
 70
3
  9
$PDSIZE
 40
0.3125
  9
$HANDSEED
  5
3FE
  9
$TILEMODE
 70
1
  9
$MEASUREMENT
 70
1
  9
$INSUNITS
 70
4
  0
ENDSEC
  0
SECTION
  2
CLASSES
  0
CLASS
  1
ACDBDICTIONARYWDFLT
  2
AcDbDictionaryWithDefault
  3
AutoCAD 2000
 90
0
 91
1
280
0
281
0
  0
CLASS
  1
ACDBPLACEHOLDER
  2
AcDbPlaceHolder
  3
AutoCAD 2000
 90
0
 91
1
280
0
281
0
  0
CLASS
  1
LAYOUT
  2
AcDbLayout
  3
AutoCAD 2000
 90
0
 91
0
280
0
281
0
  0
ENDSEC
  0
SECTION
  2
TABLES
  0
TABLE
  2
VPORT
  5
8
100
AcDbSymbolTable
 70
2
  0
VPORT
  5
1F4
100
AcDbSymbolTableRecord
100
AcDbViewportTableRecord
  2
*ACTIVE
 70
0
 10
0.0
 20
0.0
 11
1.0
 21
1.0
 12
288.464349109
 22
407.9710080256
 13
0.0
 23
0.0
 14
1.0
 24
1.0
 15
0.0
 25
0.0
 16
0.0
 26
0.0
 36
1.0
 17
0.0
 27
0.0
 37
0.0
 40
815.9420160511
 41
0.7070707071
 42
50.0
 43
0.0
 44
0.0
 50
0.0
 51
0.0
 71
0
 72
100
 73
1
 74
1
 75
0
 76
0
 77
0
 78
0
  0
ENDTAB
  0
TABLE
  2
LTYPE
  5
5
100
AcDbSymbolTable
 70
6
  0
LTYPE
  5
14
100
AcDbSymbolTableRecord
100
AcDbLinetypeTableRecord
  2
BYBLOCK
 70
0
  3

 72
65
 73
0
 40
0.0
  0
LTYPE
  5
15
100
AcDbSymbolTableRecord
100
AcDbLinetypeTableRecord
  2
BYLAYER
 70
0
  3

 72
65
 73
0
 40
0.0
  0
LTYPE
  5
16
100
AcDbSymbolTableRecord
100
AcDbLinetypeTableRecord
  2
CONTINUOUS
 70
64
  3
Solid line
 72
65
 73
0
 40
0.0
  0
LTYPE
  5
1F5
100
AcDbSymbolTableRecord
100
AcDbLinetypeTableRecord
  2
CENTER
 70
64
  3
____ _ ____ _ ____ _ ____ _ ____ _ ____ _ ____
 72
65
 73
4
 40
0.6
 49
0.375
 74
0
 49
-0.075
 74
0
 49
0.075
 74
0
 49
-0.075
 74
0
  0
LTYPE
  5
1F6
100
AcDbSymbolTableRecord
100
AcDbLinetypeTableRecord
  2
HIDDEN
 70
64
  3
- - - - - - - - - - - - - - - - - - - -
 72
65
 73
2
 40
0.2
 49
0.1
 74
0
 49
-0.1
 74
0
  0
LTYPE
  5
1F7
100
AcDbSymbolTableRecord
100
AcDbLinetypeTableRecord
  2
PHANTOM
 70
64
  3
_____ _ _ _____ _ _ _____ _ _ _____
 72
65
 73
6
 40
0.8
 49
0.45
 74
0
 49
-0.05
 74
0
 49
0.1
 74
0
 49
-0.05
 74
0
 49
0.1
 74
0
 49
-0.05
 74
0
  0
LTYPE
  5
1F8
100
AcDbSymbolTableRecord
100
AcDbLinetypeTableRecord
  2
DOT
 70
64
  3
. . . . . . . . . . . . . . . . . . . .
 72
65
 73
2
 40
0.2
 49
0.1
 74
0
 49
-0.1
 74
0
  0
LTYPE
  5
1F9
100
AcDbSymbolTableRecord
100
AcDbLinetypeTableRecord
  2
DASHED
 70
64
  3
- - - - - - - - - - - - - - - - - - - -
 72
65
 73
2
 40
0.2
 49
0.1
 74
0
 49
-0.1
 74
0
  0
ENDTAB
  0
TABLE
  2
LAYER
  5
2
100
AcDbSymbolTable
 70
36
  0
LAYER
  5
10
100
AcDbSymbolTableRecord
100
AcDbLayerTableRecord
  2
0
 70
0
 62
7
  6
CONTINUOUS
370
-3
390
F
  0
LAYER
  5
1FA
100
AcDbSymbolTableRecord
100
AcDbLayerTableRecord
  2
DEFAULT_1
 70
0
 62
7
  6
CENTER
370
-3
390
F
  0
LAYER
  5
1FB
100
AcDbSymbolTableRecord
100
AcDbLayerTableRecord
  2
DEFAULT_2
 70
0
 62
7
  6
HIDDEN
370
-3
390
F
  0
LAYER
  5
1FC
100
AcDbSymbolTableRecord
100
AcDbLayerTableRecord
  2
DEFAULT_3
 70
0
 62
7
  6
PHANTOM
370
-3
390
F
  0
LAYER
  5
1FD
100
AcDbSymbolTableRecord
100
AcDbLayerTableRecord
  2
00_COMPONENTS
 70
0
 62
7
  6
CONTINUOUS
370
-3
390
F
  0
LAYER
  5
1FE
100
AcDbSymbolTableRecord
100
AcDbLayerTableRecord
  2
01_1_DEFAULT_DATUMS
 70
0
 62
7
  6
CONTINUOUS
370
-3
390
F
  0
LAYER
  5
1FF
100
AcDbSymbolTableRecord
100
AcDbLayerTableRecord
  2
01_PLANES
 70
0
 62
7
  6
CONTINUOUS
370
-3
390
F
  0
LAYER
  5
200
100
AcDbSymbolTableRecord
100
AcDbLayerTableRecord
  2
02_COORD_SYS
 70
0
 62
7
  6
CONTINUOUS
370
-3
390
F
  0
LAYER
  5
201
100
AcDbSymbolTableRecord
100
AcDbLayerTableRecord
  2
03_AXES
 70
0
 62
7
  6
CONTINUOUS
370
-3
390
F
  0
LAYER
  5
202
100
AcDbSymbolTableRecord
100
AcDbLayerTableRecord
  2
04_POINTS
 70
0
 62
7
  6
CONTINUOUS
370
-3
390
F
  0
LAYER
  5
203
100
AcDbSymbolTableRecord
100
AcDbLayerTableRecord
  2
05_CURVES
 70
0
 62
7
  6
CONTINUOUS
370
-3
390
F
  0
LAYER
  5
204
100
AcDbSymbolTableRecord
100
AcDbLayerTableRecord
  2
06_SURFS
 70
0
 62
7
  6
CONTINUOUS
370
-3
390
F
  0
LAYER
  5
205
100
AcDbSymbolTableRecord
100
AcDbLayerTableRecord
  2
07_COSMETICS
 70
0
 62
7
  6
CONTINUOUS
370
-3
390
F
  0
LAYER
  5
206
100
AcDbSymbolTableRecord
100
AcDbLayerTableRecord
  2
10_NOTES
 70
0
 62
7
  6
CONTINUOUS
370
-3
390
F
  0
LAYER
  5
207
100
AcDbSymbolTableRecord
100
AcDbLayerTableRecord
  2
11_NOTES_PUB
 70
0
 62
7
  6
CONTINUOUS
370
-3
390
F
  0
LAYER
  5
208
100
AcDbSymbolTableRecord
100
AcDbLayerTableRecord
  2
13_REF_GTOL
 70
0
 62
7
  6
CONTINUOUS
370
-3
390
F
  0
LAYER
  5
209
100
AcDbSymbolTableRecord
100
AcDbLayerTableRecord
  2
16_MISC
 70
0
 62
7
  6
CONTINUOUS
370
-3
390
F
  0
LAYER
  5
20A
100
AcDbSymbolTableRecord
100
AcDbLayerTableRecord
  2
17_NO_PRINT
 70
0
 62
7
  6
CONTINUOUS
370
-3
390
F
  0
LAYER
  5
20B
100
AcDbSymbolTableRecord
100
AcDbLayerTableRecord
  2
18_DATUM_CAMS_JOINTS
 70
0
 62
7
  6
CONTINUOUS
370
-3
390
F
  0
LAYER
  5
20C
100
AcDbSymbolTableRecord
100
AcDbLayerTableRecord
  2
19_DATUM_FUNCTIONAL
 70
0
 62
7
  6
CONTINUOUS
370
-3
390
F
  0
LAYER
  5
20D
100
AcDbSymbolTableRecord
100
AcDbLayerTableRecord
  2
20_DATUM_KINEMATIC_SCHEME
 70
0
 62
7
  6
CONTINUOUS
370
-3
390
F
  0
LAYER
  5
20E
100
AcDbSymbolTableRecord
100
AcDbLayerTableRecord
  2
3
 70
0
 62
7
  6
CONTINUOUS
370
-3
390
F
  0
LAYER
  5
20F
100
AcDbSymbolTableRecord
100
AcDbLayerTableRecord
  2
4
 70
0
 62
7
  6
CONTINUOUS
370
-3
390
F
  0
ENDTAB
  0
TABLE
  2
STYLE
  5
3
100
AcDbSymbolTable
 70
1
  0
STYLE
  5
11
100
AcDbSymbolTableRecord
100
AcDbTextStyleTableRecord
  2
STANDARD
 70
0
 40
0.0
 41
1.0
 50
0.0
 71
0
 42
0.2
  3
ARIAL.TTF
  4

  0
STYLE
  5
210
100
AcDbSymbolTableRecord
100
AcDbTextStyleTableRecord
  2
TEXTSTYLE_1
 70
0
 40
0.0
 41
0.8
 50
0.0
 71
0
 42
0.2
  3
gdt
  4

  0
ENDTAB
  0
TABLE
  2
VIEW
  5
6
100
AcDbSymbolTable
 70
0
  0
ENDTAB
  0
TABLE
  2
UCS
  5
7
100
AcDbSymbolTable
 70
0
  0
ENDTAB
  0
TABLE
  2
APPID
  5
9
100
AcDbSymbolTable
 70
1
  0
APPID
  5
211
100
AcDbSymbolTableRecord
100
AcDbRegAppTableRecord
  2
ACAD
 70
0
  0
ENDTAB
  0
TABLE
  2
BLOCK_RECORD
  5
1
100
AcDbSymbolTable
 70
0
  0
BLOCK_RECORD
  5
212
100
AcDbSymbolTableRecord
100
AcDbBlockTableRecord
  2
*Model_Space
  0
BLOCK_RECORD
  5
213
100
AcDbSymbolTableRecord
100
AcDbBlockTableRecord
  2
*Paper_Space
  0
BLOCK_RECORD
  5
214
100
AcDbSymbolTableRecord
100
AcDbBlockTableRecord
  2
_FILLED
  0
ENDTAB
  0
TABLE
  2
DIMSTYLE
  5
A
100
AcDbSymbolTable
 70
1
100
AcDbDimStyleTable
 71
0
  0
DIMSTYLE
105
215
100
AcDbSymbolTableRecord
100
AcDbDimStyleTableRecord
  2
STANDARD
 70
0
  3

  4

 40
1.0
 41
6.8681987883
 42
1.0
 43
0.38
 44
1.0
 45
0.0
 46
0.0
 47
0.01
 48
0.01
140
9.6154783036
141
0.09
142
0.0
143
25.4
144
1.0
145
0.0
146
1.0
147
0.625
 71
1
 72
0
 73
0
 74
0
 75
0
 76
0
 77
1
 78
8
 79
2
170
0
171
1
172
0
173
0
174
0
175
0
176
0
177
0
178
0
270
2
179
2
271
2
272
2
273
2
274
2
275
0
280
0
281
0
282
0
283
1
284
8
285
0
286
0
287
3
288
0
340
11
278
46
341
214
342
214
343
214
344
214
  0
ENDTAB
  0
ENDSEC
  0
SECTION
  2
BLOCKS
  0
BLOCK
  5
20
100
AcDbEntity
  8
0
100
AcDbBlockBegin
  2
*Model_Space
 70
0
 10
0.0
 20
0.0
 30
0.0
  3
*Model_Space
  1

  0
ENDBLK
  5
21
100
AcDbEntity
  8
0
100
AcDbBlockEnd
  0
BLOCK
  5
1C
100
AcDbEntity
  8
0
100
AcDbBlockBegin
  2
*Paper_Space
 70
0
 10
0.0
 20
0.0
 30
0.0
  3
*Paper_Space
  1

  0
ENDBLK
  5
1D
100
AcDbEntity
  8
0
100
AcDbBlockEnd
  0
BLOCK
  5
216
100
AcDbEntity
  8
0
100
AcDbBlockBegin
  2
_FILLED
 70
64
 10
0.0
 20
0.0
  3
_FILLED
  1

  0
SOLID
  5
217
100
AcDbEntity
  8
0
  6
BYBLOCK
 62
0
100
AcDbTrace
 10
0.0
 20
0.0
 11
-1.0
 21
0.25
 12
-1.0
 22
-0.25
 13
-1.0
 23
-0.25
  0
ENDBLK
  5
218
100
AcDbEntity
  8
0
  6
BYBLOCK
 62
0
100
AcDbBlockEnd
  0
ENDSEC
  0
SECTION
  2
ENTITIES
  0
LINE
  5
219
100
AcDbEntity
  8
0
100
AcDbLine
 62
7
  6
BYLAYER
 10
388.4849656089
 20
58.4242447234
 11
382.8845922416
 21
58.4242447234
  0
LINE
  5
21A
100
AcDbEntity
  8
0
100
AcDbLine
 62
7
  6
BYLAYER
 10
346.4844905718
 20
58.4242447234
 11
340.8850672846
 21
58.4242447234
  0
LINE
  5
21B
100
AcDbEntity
  8
0
100
AcDbLine
 62
7
  6
BYLAYER
 10
240.8358347204
 20
58.4242447234
 11
235.2354613531
 21
58.4242447234
  0
LINE
  5
21C
100
AcDbEntity
  8
0
100
AcDbLine
 62
7
  6
BYLAYER
 10
198.8353596833
 20
58.4242447234
 11
193.2359363961
 21
58.4242447234
  0
LINE
  5
21D
100
AcDbEntity
  8
0
100
AcDbLine
 62
7
  6
BYLAYER
 10
193.524183826
 20
58.5241345849
 11
240.546737113
 21
58.5241345849
  0
LINE
  5
21E
100
AcDbEntity
  8
0
100
AcDbLine
 62
7
  6
BYLAYER
 10
341.1733147145
 20
58.5241345849
 11
388.1958680015
 21
58.5241345849
  0
LINE
  5
21F
100
AcDbEntity
  8
0
100
AcDbLine
 62
7
  6
BYLAYER
 10
389.4850670349
 20
59.4242447234
 11
389.163540591
 21
59.4242447234
  0
LINE
  5
220
100
AcDbEntity
  8
0
100
AcDbLine
 62
7
  6
BYLAYER
 10
340.2056436286
 20
59.4242447234
 11
339.8850670379
 21
59.4242447234
  0
LINE
  5
221
100
AcDbEntity
  8
0
100
AcDbLine
 62
7
  6
BYLAYER
 10
241.8359361464
 20
59.4242447234
 11
241.5144097025
 21
59.4242447234
  0
LINE
  5
222
100
AcDbEntity
  8
0
100
AcDbLine
 62
7
  6
BYLAYER
 10
192.55651274
 20
59.4242447234
 11
192.2359361494
 21
59.4242447234
  0
LINE
  5
223
100
AcDbEntity
  8
0
100
AcDbLine
 62
7
  6
BYLAYER
 10
389.6845919949
 20
59.5241345849
 11
389.4850670349
 21
59.5241345849
  0
LINE
  5
224
100
AcDbEntity
  8
0
100
AcDbLine
 62
7
  6
BYLAYER
 10
389.1959970187
 20
59.5241345849
 11
340.1731869712
 21
59.5241345849
  0
LINE
  5
225
100
AcDbEntity
  8
0
100
AcDbLine
 62
7
  6
BYLAYER
 10
339.8850670379
 20
59.5241345849
 11
339.6845919949
 21
59.5241345849
  0
LINE
  5
226
100
AcDbEntity
  8
0
100
AcDbLine
 62
7
  6
BYLAYER
 10
242.0354611064
 20
59.5241345849
 11
241.8359361464
 21
59.5241345849
  0
LINE
  5
227
100
AcDbEntity
  8
0
100
AcDbLine
 62
7
  6
BYLAYER
 10
192.2359361494
 20
59.5241345849
 11
192.0354611064
 21
59.5241345849
  0
LINE
  5
228
100
AcDbEntity
  8
0
100
AcDbLine
 62
7
  6
BYLAYER
 10
241.5468661302
 20
59.5241345849
 11
192.5240560827
 21
59.5241345849
  0
LINE
  5
229
100
AcDbEntity
  8
0
100
AcDbLine
 62
7
  6
BYLAYER
 10
192.0354611064
 20
60.524134516
 11
192.2359361494
 21
60.524134516
  0
LINE
  5
22A
100
AcDbEntity
  8
0
100
AcDbLine
 62
7
  6
BYLAYER
 10
241.8359361464
 20
60.5241345278
 11
242.0354611064
 21
60.5241345278
  0
LINE
  5
22B
100
AcDbEntity
  8
0
100
AcDbLine
 62
7
  6
BYLAYER
 10
339.6845919949
 20
60.524134516
 11
339.8850670379
 21
60.524134516
  0
LINE
  5
22C
100
AcDbEntity
  8
0
100
AcDbLine
 62
7
  6
BYLAYER
 10
389.4850670349
 20
60.5241345278
 11
389.6845919949
 21
60.5241345278
  0
LINE
  5
22D
100
AcDbEntity
  8
0
100
AcDbLine
 62
7
  6
BYLAYER
 10
192.2359361494
 20
61.0242447234
 11
192.5240560827
 21
61.0242447234
  0
LINE
  5
22E
100
AcDbEntity
  8
0
100
AcDbLine
 62
7
  6
BYLAYER
 10
241.5468661302
 20
61.0242447234
 11
241.8359361464
 21
61.0242447234
  0
LINE
  5
22F
100
AcDbEntity
  8
0
100
AcDbLine
 62
7
  6
BYLAYER
 10
339.8850670379
 20
61.0242447234
 11
340.1731869712
 21
61.0242447234
  0
LINE
  5
230
100
AcDbEntity
  8
0
100
AcDbLine
 62
7
  6
BYLAYER
 10
389.1959970187
 20
61.0242447234
 11
389.4850670349
 21
61.0242447234
  0
LINE
  5
231
100
AcDbEntity
  8
0
100
AcDbLine
 62
7
  6
BYLAYER
 10
389.6845919949
 20
61.5241345849
 11
389.1382829401
 21
61.5241345849
  0
LINE
  5
232
100
AcDbEntity
  8
0
100
AcDbLine
 62
7
  6
BYLAYER
 10
340.2309010498
 20
61.5241345849
 11
339.6845919949
 21
61.5241345849
  0
LINE
  5
233
100
AcDbEntity
  8
0
100
AcDbLine
 62
7
  6
BYLAYER
 10
242.0354611064
 20
61.5241345849
 11
241.4891520516
 21
61.5241345849
  0
LINE
  5
234
100
AcDbEntity
  8
0
100
AcDbLine
 62
7
  6
BYLAYER
 10
192.5817701612
 20
61.5241345849
 11
192.0354611064
 21
61.5241345849
  0
LINE
  5
235
100
AcDbEntity
  8
0
100
AcDbLine
 62
7
  6
BYLAYER
 10
192.0354611064
 20
76.0241345849
 11
242.0354611064
 21
76.0241345849
  0
LINE
  5
236
100
AcDbEntity
  8
0
100
AcDbLine
 62
7
  6
BYLAYER
 10
339.6845919949
 20
76.0241345849
 11
389.6845919949
 21
76.0241345849
  0
LINE
  5
237
100
AcDbEntity
  8
3
100
AcDbLine
 62
7
  6
BYLAYER
 10
389.685067038
 20
76.0242575319
 11
383.6840864589
 21
76.0242575319
  0
LINE
  5
238
100
AcDbEntity
  8
3
100
AcDbLine
 62
7
  6
BYLAYER
 10
345.686047617
 20
76.0242575319
 11
339.685067038
 21
76.0242575319
  0
LINE
  5
239
100
AcDbEntity
  8
3
100
AcDbLine
 62
7
  6
BYLAYER
 10
242.0359361495
 20
76.0242575319
 11
236.0349555704
 21
76.0242575319
  0
LINE
  5
23A
100
AcDbEntity
  8
3
100
AcDbLine
 62
7
  6
BYLAYER
 10
198.0369167285
 20
76.0242575319
 11
192.0359361495
 21
76.0242575319
  0
LINE
  5
23B
100
AcDbEntity
  8
3
100
AcDbLine
 62
7
  6
BYLAYER
 10
198.2352970008
 20
76.0242575319
 11
235.8352970008
 21
76.0242575319
  0
LINE
  5
23C
100
AcDbEntity
  8
3
100
AcDbLine
 62
7
  6
BYLAYER
 10
345.8844278893
 20
76.0242575319
 11
383.4844278893
 21
76.0242575319
  0
LINE
  5
23D
100
AcDbEntity
  8
0
100
AcDbLine
 62
7
  6
BYLAYER
 10
200.7861889175
 20
748.5242447234
 11
200.2861889175
 21
748.0242447234
  0
LINE
  5
23E
100
AcDbEntity
  8
0
100
AcDbLine
 62
7
  6
BYLAYER
 10
220.5361869388
 20
752.5242447234
 11
220.0361889175
 21
752.0242468819
  0
LINE
  5
23F
100
AcDbEntity
  8
0
100
AcDbLine
 62
7
  6
BYLAYER
 10
218.7861889175
 20
748.5242447234
 11
218.2861889175
 21
748.0242447234
  0
LINE
  5
240
100
AcDbEntity
  8
0
100
AcDbLine
 62
7
  6
BYLAYER
 10
218.7861889175
 20
743.5242447234
 11
218.2861889175
 21
743.0242447234
  0
LINE
  5
241
100
AcDbEntity
  8
4
100
AcDbLine
 62
7
  6
BYLAYER
 10
399.8738127214
 20
103.3724198466
 11
389.685067038
 21
103.3724198466
  0
LINE
  5
242
100
AcDbEntity
  8
3
100
AcDbLine
 62
7
  6
BYLAYER
 10
252.2246818329
 20
103.3724198466
 11
242.0359361495
 21
103.3724198466
  0
LINE
  5
243
100
AcDbEntity
  8
0
100
AcDbLine
 62
7
  6
BYLAYER
 10
233.5861889175
 20
742.0242447234
 11
233.7861889175
 21
742.2242447234
  0
LINE
  5
244
100
AcDbEntity
  8
3
100
AcDbLine
 62
7
  6
BYLAYER
 10
242.0359361495
 20
153.3724198466
 11
252.2246818329
 21
153.3724198466
  0
LINE
  5
245
100
AcDbEntity
  8
4
100
AcDbLine
 62
7
  6
BYLAYER
 10
389.685067038
 20
153.3724198466
 11
399.8738127214
 21
153.3724198466
  0
LINE
  5
246
100
AcDbEntity
  8
0
100
AcDbLine
 62
7
  6
BYLAYER
 10
348.435319806
 20
748.5242447234
 11
347.935319806
 21
748.0242447234
  0
LINE
  5
247
100
AcDbEntity
  8
0
100
AcDbLine
 62
7
  6
BYLAYER
 10
368.1853178273
 20
752.5242447234
 11
367.685319806
 21
752.0242468819
  0
LINE
  5
248
100
AcDbEntity
  8
0
100
AcDbLine
 62
7
  6
BYLAYER
 10
366.435319806
 20
748.5242447234
 11
365.935319806
 21
748.0242447234
  0
LINE
  5
249
100
AcDbEntity
  8
0
100
AcDbLine
 62
7
  6
BYLAYER
 10
366.435319806
 20
743.5242447234
 11
365.935319806
 21
743.0242447234
  0
LINE
  5
24A
100
AcDbEntity
  8
0
100
AcDbLine
 62
7
  6
BYLAYER
 10
381.235319806
 20
742.0242447234
 11
381.435319806
 21
742.2242447234
  0
LINE
  5
24B
100
AcDbEntity
  8
0
100
AcDbLine
 62
7
  6
BYLAYER
 10
192.0354611064
 20
59.5241345849
 11
192.0354611064
 21
76.0241345849
  0
LINE
  5
24C
100
AcDbEntity
  8
3
100
AcDbLine
 62
7
  6
BYLAYER
 10
192.0359361495
 20
724.5242575319
 11
192.0359361495
 21
76.0242575319
  0
LINE
  5
24D
100
AcDbEntity
  8
0
100
AcDbLine
 62
7
  6
BYLAYER
 10
192.0361889175
 20
741.0242447234
 11
192.0361889175
 21
724.5242447234
  0
LINE
  5
24E
100
AcDbEntity
  8
0
100
AcDbLine
 62
7
  6
BYLAYER
 10
192.2359361494
 20
61.0242447234
 11
192.2359361494
 21
59.4242447234
  0
LINE
  5
24F
100
AcDbEntity
  8
0
100
AcDbLine
 62
7
  6
BYLAYER
 10
192.2361889175
 20
741.1242447234
 11
192.2361889175
 21
739.5242447234
  0
LINE
  5
250
100
AcDbEntity
  8
0
100
AcDbLine
 62
7
  6
BYLAYER
 10
192.42022163
 20
61.5241345849
 11
192.42022163
 21
76.0241345849
  0
LINE
  5
251
100
AcDbEntity
  8
3
100
AcDbLine
 62
7
  6
BYLAYER
 10
192.4206966731
 20
76.0242575319
 11
192.4206966731
 21
724.5242575319
  0
LINE
  5
252
100
AcDbEntity
  8
0
100
AcDbLine
 62
7
  6
BYLAYER
 10
192.420949441
 20
724.5242447234
 11
192.420949441
 21
739.0242447234
  0
LINE
  5
253
100
AcDbEntity
  8
0
100
AcDbLine
 62
7
  6
BYLAYER
 10
192.5240560827
 20
61.1394455685
 11
192.5240560827
 21
59.5241345849
  0
LINE
  5
254
100
AcDbEntity
  8
0
100
AcDbLine
 62
7
  6
BYLAYER
 10
192.5247838937
 20
741.0242447234
 11
192.5247838937
 21
739.4089337228
  0
LINE
  5
255
100
AcDbEntity
  8
0
100
AcDbLine
 62
7
  6
BYLAYER
 10
192.5817701612
 20
59.5241345849
 11
192.5817701612
 21
61.5241345849
  0
LINE
  5
256
100
AcDbEntity
  8
0
100
AcDbLine
 62
7
  6
BYLAYER
 10
192.5824979723
 20
739.0242447234
 11
192.5824979723
 21
741.0242447234
  0
LINE
  5
257
100
AcDbEntity
  8
0
100
AcDbLine
 62
7
  6
BYLAYER
 10
193.6210160367
 20
76.0241345849
 11
193.6210160367
 21
59.5241345849
  0
LINE
  5
258
100
AcDbEntity
  8
3
100
AcDbLine
 62
7
  6
BYLAYER
 10
193.6214910797
 20
724.5242575319
 11
193.6214910797
 21
76.0242575319
  0
LINE
  5
259
100
AcDbEntity
  8
0
100
AcDbLine
 62
7
  6
BYLAYER
 10
193.6217438477
 20
741.0242447234
 11
193.6217438477
 21
724.5242447234
  0
LINE
  5
25A
100
AcDbEntity
  8
0
100
AcDbLine
 62
7
  6
BYLAYER
 10
195.5440639319
 20
58.5241345849
 11
195.5440639319
 21
76.0241345849
  0
LINE
  5
25B
100
AcDbEntity
  8
3
100
AcDbLine
 62
7
  6
BYLAYER
 10
195.544538975
 20
376.0242575319
 11
195.544538975
 21
724.5242575319
  0
LINE
  5
25C
100
AcDbEntity
  8
0
100
AcDbLine
 62
7
  6
BYLAYER
 10
195.544791743
 20
724.5242447234
 11
195.544791743
 21
742.0242447234
  0
LINE
  5
25D
100
AcDbEntity
  8
3
100
AcDbLine
 62
7
  6
BYLAYER
 10
195.672693863
 20
76.0242575319
 11
195.672693863
 21
376.0242575319
  0
LINE
  5
25E
100
AcDbEntity
  8
0
100
AcDbLine
 62
7
  6
BYLAYER
 10
195.7993931289
 20
76.0241345849
 11
195.7993931289
 21
58.5241345849
  0
LINE
  5
25F
100
AcDbEntity
  8
0
100
AcDbLine
 62
7
  6
BYLAYER
 10
195.80012094
 20
742.0242447234
 11
195.80012094
 21
724.5242447234
  0
LINE
  5
260
100
AcDbEntity
  8
3
100
AcDbLine
 62
7
  6
BYLAYER
 10
195.800848751
 20
724.5242575319
 11
195.800848751
 21
376.0242575319
  0
LINE
  5
261
100
AcDbEntity
  8
0
100
AcDbLine
 62
7
  6
BYLAYER
 10
197.5882475109
 20
59.5241345849
 11
197.5882475109
 21
76.0241345849
  0
LINE
  5
262
100
AcDbEntity
  8
0
100
AcDbLine
 62
7
  6
BYLAYER
 10
197.588975322
 20
724.5242447234
 11
197.588975322
 21
741.0242447234
  0
LINE
  5
263
100
AcDbEntity
  8
3
100
AcDbLine
 62
7
  6
BYLAYER
 10
197.589703133
 20
76.0242575319
 11
197.589703133
 21
724.5242575319
  0
LINE
  5
264
100
AcDbEntity
  8
0
100
AcDbLine
 62
7
  6
BYLAYER
 10
197.9826747019
 20
76.0241345849
 11
197.9826747019
 21
59.5241345849
  0
LINE
  5
265
100
AcDbEntity
  8
0
100
AcDbLine
 62
7
  6
BYLAYER
 10
197.983402513
 20
741.0242447234
 11
197.983402513
 21
724.5242447234
  0
LINE
  5
266
100
AcDbEntity
  8
3
100
AcDbLine
 62
7
  6
BYLAYER
 10
197.984130324
 20
724.5242575319
 11
197.984130324
 21
76.0242575319
  0
LINE
  5
267
100
AcDbEntity
  8
0
100
AcDbLine
 62
7
  6
BYLAYER
 10
198.0354611064
 20
59.5241345849
 11
198.0354611064
 21
76.0241345849
  0
LINE
  5
268
100
AcDbEntity
  8
0
100
AcDbLine
 62
7
  6
BYLAYER
 10
198.0361889175
 20
724.5242447234
 11
198.0361889175
 21
741.0242447234
  0
LINE
  5
269
100
AcDbEntity
  8
3
100
AcDbLine
 62
7
  6
BYLAYER
 10
198.0369167285
 20
76.0242575319
 11
198.0369167285
 21
724.5242575319
  0
LINE
  5
26A
100
AcDbEntity
  8
3
100
AcDbLine
 62
7
  6
BYLAYER
 10
198.2352970008
 20
76.0242575319
 11
198.2352970008
 21
724.5242739909
  0
LINE
  5
26B
100
AcDbEntity
  8
0
100
AcDbLine
 62
7
  6
BYLAYER
 10
200.2861889175
 20
742.0242447234
 11
200.2861889175
 21
748.0242447234
  0
LINE
  5
26C
100
AcDbEntity
  8
0
100
AcDbLine
 62
7
  6
BYLAYER
 10
203.9094289175
 20
749.7242447234
 11
203.9094289175
 21
748.5242447234
  0
LINE
  5
26D
100
AcDbEntity
  8
0
100
AcDbLine
 62
7
  6
BYLAYER
 10
207.3344289175
 20
748.5242447234
 11
207.3344289175
 21
750.0242447234
  0
LINE
  5
26E
100
AcDbEntity
  8
0
100
AcDbLine
 62
7
  6
BYLAYER
 10
208.7344289175
 20
748.5242447234
 11
208.7344289175
 21
750.0242447234
  0
LINE
  5
26F
100
AcDbEntity
  8
0
100
AcDbLine
 62
7
  6
BYLAYER
 10
212.1594289175
 20
748.5242447234
 11
212.1594289175
 21
749.7242447234
  0
LINE
  5
270
100
AcDbEntity
  8
0
100
AcDbLine
 62
7
  6
BYLAYER
 10
215.7861889175
 20
742.0242447234
 11
215.7861889175
 21
748.0242447234
  0
LINE
  5
271
100
AcDbEntity
  8
0
100
AcDbLine
 62
7
  6
BYLAYER
 10
218.2861889175
 20
742.0242447234
 11
218.2861889175
 21
748.0242447234
  0
LINE
  5
272
100
AcDbEntity
  8
0
100
AcDbLine
 62
7
  6
BYLAYER
 10
220.0361889175
 20
752.0242437859
 11
220.0361889175
 21
744.5242447234
  0
LINE
  5
273
100
AcDbEntity
  8
0
100
AcDbLine
 62
7
  6
BYLAYER
 10
220.5361889175
 20
743.5242447234
 11
220.5361889175
 21
744.5242447234
  0
LINE
  5
274
100
AcDbEntity
  8
0
100
AcDbLine
 62
7
  6
BYLAYER
 10
231.5361889175
 20
743.5242447234
 11
231.5361889175
 21
744.5242447234
  0
LINE
  5
275
100
AcDbEntity
  8
0
100
AcDbLine
 62
7
  6
BYLAYER
 10
232.0361889175
 20
744.5242447234
 11
232.0361889175
 21
752.0242437859
  0
LINE
  5
276
100
AcDbEntity
  8
0
100
AcDbLine
 62
7
  6
BYLAYER
 10
233.7861889175
 20
742.0242447234
 11
233.7861889175
 21
748.0242447234
  0
LINE
  5
277
100
AcDbEntity
  8
3
100
AcDbLine
 62
7
  6
BYLAYER
 10
235.8352970008
 20
724.5242739909
 11
235.8352970008
 21
76.0242575319
  0
LINE
  5
278
100
AcDbEntity
  8
3
100
AcDbLine
 62
7
  6
BYLAYER
 10
236.0349555704
 20
724.5242575319
 11
236.0349555704
 21
76.0242575319
  0
LINE
  5
279
100
AcDbEntity
  8
0
100
AcDbLine
 62
7
  6
BYLAYER
 10
236.0354611064
 20
76.0241345849
 11
236.0354611064
 21
59.5241345849
  0
LINE
  5
27A
100
AcDbEntity
  8
0
100
AcDbLine
 62
7
  6
BYLAYER
 10
236.0361889175
 20
741.0242447234
 11
236.0361889175
 21
724.5242447234
  0
LINE
  5
27B
100
AcDbEntity
  8
3
100
AcDbLine
 62
7
  6
BYLAYER
 10
236.0877419749
 20
76.0242575319
 11
236.0877419749
 21
724.5242575319
  0
LINE
  5
27C
100
AcDbEntity
  8
0
100
AcDbLine
 62
7
  6
BYLAYER
 10
236.0882475109
 20
59.5241345849
 11
236.0882475109
 21
76.0241345849
  0
LINE
  5
27D
100
AcDbEntity
  8
0
100
AcDbLine
 62
7
  6
BYLAYER
 10
236.088975322
 20
724.5242447234
 11
236.088975322
 21
741.0242447234
  0
LINE
  5
27E
100
AcDbEntity
  8
3
100
AcDbLine
 62
7
  6
BYLAYER
 10
236.4821691659
 20
724.5242575319
 11
236.4821691659
 21
76.0242575319
  0
LINE
  5
27F
100
AcDbEntity
  8
0
100
AcDbLine
 62
7
  6
BYLAYER
 10
236.4826747019
 20
76.0241345849
 11
236.4826747019
 21
59.5241345849
  0
LINE
  5
280
100
AcDbEntity
  8
0
100
AcDbLine
 62
7
  6
BYLAYER
 10
236.483402513
 20
741.0242447234
 11
236.483402513
 21
724.5242447234
  0
LINE
  5
281
100
AcDbEntity
  8
3
100
AcDbLine
 62
7
  6
BYLAYER
 10
238.2710235479
 20
376.0242575319
 11
238.2710235479
 21
724.5242575319
  0
LINE
  5
282
100
AcDbEntity
  8
0
100
AcDbLine
 62
7
  6
BYLAYER
 10
238.2715290839
 20
58.5241345849
 11
238.2715290839
 21
76.0241345849
  0
LINE
  5
283
100
AcDbEntity
  8
0
100
AcDbLine
 62
7
  6
BYLAYER
 10
238.272256895
 20
724.5242447234
 11
238.272256895
 21
742.0242447234
  0
LINE
  5
284
100
AcDbEntity
  8
3
100
AcDbLine
 62
7
  6
BYLAYER
 10
238.3991784359
 20
76.0242575319
 11
238.3991784359
 21
376.0242575319
  0
LINE
  5
285
100
AcDbEntity
  8
0
100
AcDbLine
 62
7
  6
BYLAYER
 10
238.5268582809
 20
76.0241345849
 11
238.5268582809
 21
58.5241345849
  0
LINE
  5
286
100
AcDbEntity
  8
3
100
AcDbLine
 62
7
  6
BYLAYER
 10
238.5273333239
 20
724.5242575319
 11
238.5273333239
 21
376.0242575319
  0
LINE
  5
287
100
AcDbEntity
  8
0
100
AcDbLine
 62
7
  6
BYLAYER
 10
238.5275860919
 20
742.0242447234
 11
238.5275860919
 21
724.5242447234
  0
LINE
  5
288
100
AcDbEntity
  8
0
100
AcDbLine
 62
7
  6
BYLAYER
 10
240.4499061762
 20
59.5241345849
 11
240.4499061762
 21
76.0241345849
  0
LINE
  5
289
100
AcDbEntity
  8
3
100
AcDbLine
 62
7
  6
BYLAYER
 10
240.4503812192
 20
76.0242575319
 11
240.4503812192
 21
724.5242575319
  0
LINE
  5
28A
100
AcDbEntity
  8
0
100
AcDbLine
 62
7
  6
BYLAYER
 10
240.4506339872
 20
724.5242447234
 11
240.4506339872
 21
741.0242447234
  0
LINE
  5
28B
100
AcDbEntity
  8
0
100
AcDbLine
 62
7
  6
BYLAYER
 10
241.4891520516
 20
61.5241345849
 11
241.4891520516
 21
59.5241345849
  0
LINE
  5
28C
100
AcDbEntity
  8
0
100
AcDbLine
 62
7
  6
BYLAYER
 10
241.4898798626
 20
741.0242447234
 11
241.4898798626
 21
739.0242447234
  0
LINE
  5
28D
100
AcDbEntity
  8
0
100
AcDbLine
 62
7
  6
BYLAYER
 10
241.5468661302
 20
59.5241345849
 11
241.5468661302
 21
61.1394455855
  0
LINE
  5
28E
100
AcDbEntity
  8
0
100
AcDbLine
 62
7
  6
BYLAYER
 10
241.5475939412
 20
739.4089337398
 11
241.5475939412
 21
741.0242447234
  0
LINE
  5
28F
100
AcDbEntity
  8
0
100
AcDbLine
 62
7
  6
BYLAYER
 10
241.6507005828
 20
76.0241345849
 11
241.6507005828
 21
61.5241345849
  0
LINE
  5
290
100
AcDbEntity
  8
3
100
AcDbLine
 62
7
  6
BYLAYER
 10
241.6511756259
 20
724.5242575319
 11
241.6511756259
 21
76.0242575319
  0
LINE
  5
291
100
AcDbEntity
  8
0
100
AcDbLine
 62
7
  6
BYLAYER
 10
241.6514283939
 20
739.0242447234
 11
241.6514283939
 21
724.5242447234
  0
LINE
  5
292
100
AcDbEntity
  8
0
100
AcDbLine
 62
7
  6
BYLAYER
 10
241.8359361464
 20
59.4242447234
 11
241.8359361464
 21
61.0242447234
  0
LINE
  5
293
100
AcDbEntity
  8
0
100
AcDbLine
 62
7
  6
BYLAYER
 10
241.8361889175
 20
739.5242447234
 11
241.8361889175
 21
741.1242447234
  0
LINE
  5
294
100
AcDbEntity
  8
0
100
AcDbLine
 62
7
  6
BYLAYER
 10
242.0354611064
 20
59.5241345849
 11
242.0354611064
 21
61.5104025382
  0
LINE
  5
295
100
AcDbEntity
  8
0
100
AcDbLine
 62
7
  6
BYLAYER
 10
242.0354611064
 20
61.5241345849
 11
242.0354611064
 21
76.0241345849
  0
LINE
  5
296
100
AcDbEntity
  8
3
100
AcDbLine
 62
7
  6
BYLAYER
 10
242.0359361495
 20
76.0242575319
 11
242.0359361495
 21
724.5242575319
  0
LINE
  5
297
100
AcDbEntity
  8
0
100
AcDbLine
 62
7
  6
BYLAYER
 10
242.0361889175
 20
724.5242447234
 11
242.0361889175
 21
741.0242447234
  0
LINE
  5
298
100
AcDbEntity
  8
3
100
AcDbLine
 62
7
  6
BYLAYER
 10
245.2246818329
 20
699.7073223075
 11
245.2246818329
 21
649.7073223075
  0
LINE
  5
299
100
AcDbEntity
  8
3
100
AcDbLine
 62
7
  6
BYLAYER
 10
245.2246818329
 20
153.3724198466
 11
245.2246818329
 21
103.3724198466
  0
LINE
  5
29A
100
AcDbEntity
  8
3
100
AcDbLine
 62
7
  6
BYLAYER
 10
252.2246818329
 20
103.3724198466
 11
252.2246818329
 21
153.3724198466
  0
LINE
  5
29B
100
AcDbEntity
  8
3
100
AcDbLine
 62
7
  6
BYLAYER
 10
252.2246818329
 20
649.7073223075
 11
252.2246818329
 21
699.7073223075
  0
LINE
  5
29C
100
AcDbEntity
  8
3
100
AcDbLine
 62
7
  6
BYLAYER
 10
386.1764642124
 20
376.0242575319
 11
385.9201544364
 21
376.0242575319
  0
LINE
  5
29D
100
AcDbEntity
  8
3
100
AcDbLine
 62
7
  6
BYLAYER
 10
343.4499796395
 20
376.0242575319
 11
343.1936698635
 21
376.0242575319
  0
LINE
  5
29E
100
AcDbEntity
  8
3
100
AcDbLine
 62
7
  6
BYLAYER
 10
238.5273333239
 20
376.0242575319
 11
238.2710235479
 21
376.0242575319
  0
LINE
  5
29F
100
AcDbEntity
  8
3
100
AcDbLine
 62
7
  6
BYLAYER
 10
195.800848751
 20
376.0242575319
 11
195.544538975
 21
376.0242575319
  0
LINE
  5
2A0
100
AcDbEntity
  8
0
100
AcDbLine
 62
7
  6
BYLAYER
 10
339.6845919949
 20
59.5241345849
 11
339.6845919949
 21
76.0241345849
  0
LINE
  5
2A1
100
AcDbEntity
  8
3
100
AcDbLine
 62
7
  6
BYLAYER
 10
339.685067038
 20
724.5242575319
 11
339.685067038
 21
76.0242575319
  0
LINE
  5
2A2
100
AcDbEntity
  8
0
100
AcDbLine
 62
7
  6
BYLAYER
 10
339.685319806
 20
739.0242447234
 11
339.685319806
 21
724.5242447234
  0
LINE
  5
2A3
100
AcDbEntity
  8
0
100
AcDbLine
 62
7
  6
BYLAYER
 10
339.685319806
 20
741.0242447234
 11
339.685319806
 21
739.0379774843
  0
LINE
  5
2A4
100
AcDbEntity
  8
0
100
AcDbLine
 62
7
  6
BYLAYER
 10
339.8850670379
 20
61.0242447234
 11
339.8850670379
 21
59.4242447234
  0
LINE
  5
2A5
100
AcDbEntity
  8
0
100
AcDbLine
 62
7
  6
BYLAYER
 10
339.885319806
 20
741.1242447234
 11
339.885319806
 21
739.5242447234
  0
LINE
  5
2A6
100
AcDbEntity
  8
0
100
AcDbLine
 62
7
  6
BYLAYER
 10
340.0693525185
 20
61.5241345849
 11
340.0693525185
 21
76.0241345849
  0
LINE
  5
2A7
100
AcDbEntity
  8
3
100
AcDbLine
 62
7
  6
BYLAYER
 10
340.0698275616
 20
76.0242575319
 11
340.0698275616
 21
724.5242575319
  0
LINE
  5
2A8
100
AcDbEntity
  8
0
100
AcDbLine
 62
7
  6
BYLAYER
 10
340.0700803296
 20
724.5242447234
 11
340.0700803296
 21
739.0242447234
  0
LINE
  5
2A9
100
AcDbEntity
  8
0
100
AcDbLine
 62
7
  6
BYLAYER
 10
340.1731869712
 20
61.1394455685
 11
340.1731869712
 21
59.5241345849
  0
LINE
  5
2AA
100
AcDbEntity
  8
0
100
AcDbLine
 62
7
  6
BYLAYER
 10
340.1739147822
 20
741.0242447234
 11
340.1739147822
 21
739.4089337228
  0
LINE
  5
2AB
100
AcDbEntity
  8
0
100
AcDbLine
 62
7
  6
BYLAYER
 10
340.2309010498
 20
59.5241345849
 11
340.2309010498
 21
61.5241345849
  0
LINE
  5
2AC
100
AcDbEntity
  8
0
100
AcDbLine
 62
7
  6
BYLAYER
 10
340.2316288608
 20
739.0242447234
 11
340.2316288608
 21
741.0242447234
  0
LINE
  5
2AD
100
AcDbEntity
  8
0
100
AcDbLine
 62
7
  6
BYLAYER
 10
341.2701469252
 20
76.0241345849
 11
341.2701469252
 21
59.5241345849
  0
LINE
  5
2AE
100
AcDbEntity
  8
3
100
AcDbLine
 62
7
  6
BYLAYER
 10
341.2706219682
 20
724.5242575319
 11
341.2706219682
 21
76.0242575319
  0
LINE
  5
2AF
100
AcDbEntity
  8
0
100
AcDbLine
 62
7
  6
BYLAYER
 10
341.2708747362
 20
741.0242447234
 11
341.2708747362
 21
724.5242447234
  0
LINE
  5
2B0
100
AcDbEntity
  8
0
100
AcDbLine
 62
7
  6
BYLAYER
 10
343.1931948205
 20
58.5241345849
 11
343.1931948205
 21
76.0241345849
  0
LINE
  5
2B1
100
AcDbEntity
  8
3
100
AcDbLine
 62
7
  6
BYLAYER
 10
343.1936698635
 20
376.0242575319
 11
343.1936698635
 21
724.5242575319
  0
LINE
  5
2B2
100
AcDbEntity
  8
0
100
AcDbLine
 62
7
  6
BYLAYER
 10
343.1939226315
 20
724.5242447234
 11
343.1939226315
 21
742.0242447234
  0
LINE
  5
2B3
100
AcDbEntity
  8
3
100
AcDbLine
 62
7
  6
BYLAYER
 10
343.3218247515
 20
76.0242575319
 11
343.3218247515
 21
376.0242575319
  0
LINE
  5
2B4
100
AcDbEntity
  8
0
100
AcDbLine
 62
7
  6
BYLAYER
 10
343.4485240174
 20
76.0241345849
 11
343.4485240174
 21
58.5241345849
  0
LINE
  5
2B5
100
AcDbEntity
  8
0
100
AcDbLine
 62
7
  6
BYLAYER
 10
343.4492518285
 20
742.0242447234
 11
343.4492518285
 21
724.5242447234
  0
LINE
  5
2B6
100
AcDbEntity
  8
3
100
AcDbLine
 62
7
  6
BYLAYER
 10
343.4499796395
 20
724.5242575319
 11
343.4499796395
 21
376.0242575319
  0
LINE
  5
2B7
100
AcDbEntity
  8
0
100
AcDbLine
 62
7
  6
BYLAYER
 10
345.2373783994
 20
59.5241345849
 11
345.2373783994
 21
76.0241345849
  0
LINE
  5
2B8
100
AcDbEntity
  8
0
100
AcDbLine
 62
7
  6
BYLAYER
 10
345.2381062105
 20
724.5242447234
 11
345.2381062105
 21
741.0242447234
  0
LINE
  5
2B9
100
AcDbEntity
  8
3
100
AcDbLine
 62
7
  6
BYLAYER
 10
345.2388340215
 20
76.0242575319
 11
345.2388340215
 21
724.5242575319
  0
LINE
  5
2BA
100
AcDbEntity
  8
0
100
AcDbLine
 62
7
  6
BYLAYER
 10
345.6318055904
 20
76.0241345849
 11
345.6318055904
 21
59.5241345849
  0
LINE
  5
2BB
100
AcDbEntity
  8
0
100
AcDbLine
 62
7
  6
BYLAYER
 10
345.6325334015
 20
741.0242447234
 11
345.6325334015
 21
724.5242447234
  0
LINE
  5
2BC
100
AcDbEntity
  8
3
100
AcDbLine
 62
7
  6
BYLAYER
 10
345.6332612125
 20
724.5242575319
 11
345.6332612125
 21
76.0242575319
  0
LINE
  5
2BD
100
AcDbEntity
  8
0
100
AcDbLine
 62
7
  6
BYLAYER
 10
345.6845919949
 20
59.5241345849
 11
345.6845919949
 21
76.0241345849
  0
LINE
  5
2BE
100
AcDbEntity
  8
0
100
AcDbLine
 62
7
  6
BYLAYER
 10
345.685319806
 20
724.5242447234
 11
345.685319806
 21
741.0242447234
  0
LINE
  5
2BF
100
AcDbEntity
  8
3
100
AcDbLine
 62
7
  6
BYLAYER
 10
345.686047617
 20
76.0242575319
 11
345.686047617
 21
724.5242575319
  0
LINE
  5
2C0
100
AcDbEntity
  8
3
100
AcDbLine
 62
7
  6
BYLAYER
 10
345.8844278893
 20
76.0242575319
 11
345.8844278893
 21
724.5242739909
  0
LINE
  5
2C1
100
AcDbEntity
  8
0
100
AcDbLine
 62
7
  6
BYLAYER
 10
347.935319806
 20
742.0242447234
 11
347.935319806
 21
748.0242447234
  0
LINE
  5
2C2
100
AcDbEntity
  8
0
100
AcDbLine
 62
7
  6
BYLAYER
 10
351.558559806
 20
749.7242447234
 11
351.558559806
 21
748.5242447234
  0
LINE
  5
2C3
100
AcDbEntity
  8
0
100
AcDbLine
 62
7
  6
BYLAYER
 10
358.0630958871
 20
748.5242447234
 11
358.0630958871
 21
749.7242447234
  0
LINE
  5
2C4
100
AcDbEntity
  8
0
100
AcDbLine
 62
7
  6
BYLAYER
 10
358.6180529479
 20
748.5242447234
 11
358.6180529479
 21
750.0242447234
  0
LINE
  5
2C5
100
AcDbEntity
  8
0
100
AcDbLine
 62
7
  6
BYLAYER
 10
359.0530453807
 20
749.7242447234
 11
359.0530453807
 21
748.5242447234
  0
LINE
  5
2C6
100
AcDbEntity
  8
0
100
AcDbLine
 62
7
  6
BYLAYER
 10
359.808559806
 20
749.7242447234
 11
359.808559806
 21
748.5242447234
  0
LINE
  5
2C7
100
AcDbEntity
  8
0
100
AcDbLine
 62
7
  6
BYLAYER
 10
363.435319806
 20
742.0242447234
 11
363.435319806
 21
748.0242447234
  0
LINE
  5
2C8
100
AcDbEntity
  8
0
100
AcDbLine
 62
7
  6
BYLAYER
 10
365.935319806
 20
742.0242447234
 11
365.935319806
 21
748.0242447234
  0
LINE
  5
2C9
100
AcDbEntity
  8
0
100
AcDbLine
 62
7
  6
BYLAYER
 10
367.685319806
 20
752.0242437859
 11
367.685319806
 21
744.5242447234
  0
LINE
  5
2CA
100
AcDbEntity
  8
0
100
AcDbLine
 62
7
  6
BYLAYER
 10
368.185319806
 20
743.5242447234
 11
368.185319806
 21
744.5242447234
  0
LINE
  5
2CB
100
AcDbEntity
  8
0
100
AcDbLine
 62
7
  6
BYLAYER
 10
379.185319806
 20
743.5242447234
 11
379.185319806
 21
744.5242447234
  0
LINE
  5
2CC
100
AcDbEntity
  8
0
100
AcDbLine
 62
7
  6
BYLAYER
 10
379.685319806
 20
744.5242447234
 11
379.685319806
 21
752.0242437859
  0
LINE
  5
2CD
100
AcDbEntity
  8
0
100
AcDbLine
 62
7
  6
BYLAYER
 10
381.435319806
 20
742.0242447234
 11
381.435319806
 21
748.0242447234
  0
LINE
  5
2CE
100
AcDbEntity
  8
3
100
AcDbLine
 62
7
  6
BYLAYER
 10
383.4844278893
 20
724.5242739909
 11
383.4844278893
 21
76.0242575319
  0
LINE
  5
2CF
100
AcDbEntity
  8
3
100
AcDbLine
 62
7
  6
BYLAYER
 10
383.6840864589
 20
724.5242575319
 11
383.6840864589
 21
76.0242575319
  0
LINE
  5
2D0
100
AcDbEntity
  8
0
100
AcDbLine
 62
7
  6
BYLAYER
 10
383.6845919949
 20
76.0241345849
 11
383.6845919949
 21
59.5241345849
  0
LINE
  5
2D1
100
AcDbEntity
  8
0
100
AcDbLine
 62
7
  6
BYLAYER
 10
383.685319806
 20
741.0242447234
 11
383.685319806
 21
724.5242447234
  0
LINE
  5
2D2
100
AcDbEntity
  8
3
100
AcDbLine
 62
7
  6
BYLAYER
 10
383.7368728634
 20
76.0242575319
 11
383.7368728634
 21
724.5242575319
  0
LINE
  5
2D3
100
AcDbEntity
  8
0
100
AcDbLine
 62
7
  6
BYLAYER
 10
383.7373783994
 20
59.5241345849
 11
383.7373783994
 21
76.0241345849
  0
LINE
  5
2D4
100
AcDbEntity
  8
0
100
AcDbLine
 62
7
  6
BYLAYER
 10
383.7381062105
 20
724.5242447234
 11
383.7381062105
 21
741.0242447234
  0
LINE
  5
2D5
100
AcDbEntity
  8
3
100
AcDbLine
 62
7
  6
BYLAYER
 10
384.1313000544
 20
724.5242575319
 11
384.1313000544
 21
76.0242575319
  0
LINE
  5
2D6
100
AcDbEntity
  8
0
100
AcDbLine
 62
7
  6
BYLAYER
 10
384.1318055904
 20
76.0241345849
 11
384.1318055904
 21
59.5241345849
  0
LINE
  5
2D7
100
AcDbEntity
  8
0
100
AcDbLine
 62
7
  6
BYLAYER
 10
384.1325334015
 20
741.0242447234
 11
384.1325334015
 21
724.5242447234
  0
LINE
  5
2D8
100
AcDbEntity
  8
3
100
AcDbLine
 62
7
  6
BYLAYER
 10
385.9201544364
 20
376.0242575319
 11
385.9201544364
 21
724.5242575319
  0
LINE
  5
2D9
100
AcDbEntity
  8
0
100
AcDbLine
 62
7
  6
BYLAYER
 10
385.9206599724
 20
58.5241345849
 11
385.9206599724
 21
76.0241345849
  0
LINE
  5
2DA
100
AcDbEntity
  8
0
100
AcDbLine
 62
7
  6
BYLAYER
 10
385.9213877835
 20
724.5242447234
 11
385.9213877835
 21
742.0242447234
  0
LINE
  5
2DB
100
AcDbEntity
  8
3
100
AcDbLine
 62
7
  6
BYLAYER
 10
386.0483093244
 20
76.0242575319
 11
386.0483093244
 21
376.0242575319
  0
LINE
  5
2DC
100
AcDbEntity
  8
0
100
AcDbLine
 62
7
  6
BYLAYER
 10
386.1759891694
 20
76.0241345849
 11
386.1759891694
 21
58.5241345849
  0
LINE
  5
2DD
100
AcDbEntity
  8
3
100
AcDbLine
 62
7
  6
BYLAYER
 10
386.1764642124
 20
724.5242575319
 11
386.1764642124
 21
376.0242575319
  0
LINE
  5
2DE
100
AcDbEntity
  8
0
100
AcDbLine
 62
7
  6
BYLAYER
 10
386.1767169805
 20
742.0242447234
 11
386.1767169805
 21
724.5242447234
  0
LINE
  5
2DF
100
AcDbEntity
  8
0
100
AcDbLine
 62
7
  6
BYLAYER
 10
388.0990370647
 20
59.5241345849
 11
388.0990370647
 21
76.0241345849
  0
LINE
  5
2E0
100
AcDbEntity
  8
3
100
AcDbLine
 62
7
  6
BYLAYER
 10
388.0995121077
 20
76.0242575319
 11
388.0995121077
 21
724.5242575319
  0
LINE
  5
2E1
100
AcDbEntity
  8
0
100
AcDbLine
 62
7
  6
BYLAYER
 10
388.0997648757
 20
724.5242447234
 11
388.0997648757
 21
741.0242447234
  0
LINE
  5
2E2
100
AcDbEntity
  8
0
100
AcDbLine
 62
7
  6
BYLAYER
 10
389.1382829401
 20
61.5241345849
 11
389.1382829401
 21
59.5241345849
  0
LINE
  5
2E3
100
AcDbEntity
  8
0
100
AcDbLine
 62
7
  6
BYLAYER
 10
389.1390107512
 20
741.0242447234
 11
389.1390107512
 21
739.0242447234
  0
LINE
  5
2E4
100
AcDbEntity
  8
0
100
AcDbLine
 62
7
  6
BYLAYER
 10
389.1959970187
 20
59.5241345849
 11
389.1959970187
 21
61.1394455855
  0
LINE
  5
2E5
100
AcDbEntity
  8
0
100
AcDbLine
 62
7
  6
BYLAYER
 10
389.1967248297
 20
739.4089337398
 11
389.1967248297
 21
741.0242447234
  0
LINE
  5
2E6
100
AcDbEntity
  8
0
100
AcDbLine
 62
7
  6
BYLAYER
 10
389.2998314714
 20
76.0241345849
 11
389.2998314714
 21
61.5241345849
  0
LINE
  5
2E7
100
AcDbEntity
  8
3
100
AcDbLine
 62
7
  6
BYLAYER
 10
389.3003065144
 20
724.5242575319
 11
389.3003065144
 21
76.0242575319
  0
LINE
  5
2E8
100
AcDbEntity
  8
0
100
AcDbLine
 62
7
  6
BYLAYER
 10
389.3005592824
 20
739.0242447234
 11
389.3005592824
 21
724.5242447234
  0
LINE
  5
2E9
100
AcDbEntity
  8
0
100
AcDbLine
 62
7
  6
BYLAYER
 10
389.4850670349
 20
59.4242447234
 11
389.4850670349
 21
61.0242447234
  0
LINE
  5
2EA
100
AcDbEntity
  8
0
100
AcDbLine
 62
7
  6
BYLAYER
 10
389.485319806
 20
739.5242447234
 11
389.485319806
 21
741.1242447234
  0
LINE
  5
2EB
100
AcDbEntity
  8
0
100
AcDbLine
 62
7
  6
BYLAYER
 10
389.6845919949
 20
59.5241345849
 11
389.6845919949
 21
76.0241345849
  0
LINE
  5
2EC
100
AcDbEntity
  8
3
100
AcDbLine
 62
7
  6
BYLAYER
 10
389.685067038
 20
76.0242575319
 11
389.685067038
 21
724.5242575319
  0
LINE
  5
2ED
100
AcDbEntity
  8
0
100
AcDbLine
 62
7
  6
BYLAYER
 10
389.685319806
 20
724.5242447234
 11
389.685319806
 21
741.0242447234
  0
LINE
  5
2EE
100
AcDbEntity
  8
4
100
AcDbLine
 62
7
  6
BYLAYER
 10
392.8738127214
 20
699.7073223075
 11
392.8738127214
 21
649.7073223075
  0
LINE
  5
2EF
100
AcDbEntity
  8
4
100
AcDbLine
 62
7
  6
BYLAYER
 10
392.8738127214
 20
153.3724198466
 11
392.8738127214
 21
103.3724198466
  0
LINE
  5
2F0
100
AcDbEntity
  8
4
100
AcDbLine
 62
7
  6
BYLAYER
 10
399.8738127214
 20
103.3724198466
 11
399.8738127214
 21
153.3724198466
  0
LINE
  5
2F1
100
AcDbEntity
  8
4
100
AcDbLine
 62
7
  6
BYLAYER
 10
399.8738127214
 20
649.7073223075
 11
399.8738127214
 21
699.7073223075
  0
LINE
  5
2F2
100
AcDbEntity
  8
0
100
AcDbLine
 62
7
  6
BYLAYER
 10
218.4861889175
 20
742.0242447234
 11
218.2861889175
 21
742.2242447234
  0
LINE
  5
2F3
100
AcDbEntity
  8
0
100
AcDbLine
 62
7
  6
BYLAYER
 10
215.2861889175
 20
748.5242447234
 11
215.7861889175
 21
748.0242447234
  0
LINE
  5
2F4
100
AcDbEntity
  8
0
100
AcDbLine
 62
7
  6
BYLAYER
 10
233.2861889175
 20
743.5242447234
 11
233.7861889175
 21
743.0242447234
  0
LINE
  5
2F5
100
AcDbEntity
  8
0
100
AcDbLine
 62
7
  6
BYLAYER
 10
233.2861889175
 20
748.5242447234
 11
233.7861889175
 21
748.0242447234
  0
LINE
  5
2F6
100
AcDbEntity
  8
0
100
AcDbLine
 62
7
  6
BYLAYER
 10
231.5361908961
 20
752.5242447234
 11
232.0361889175
 21
752.0242468819
  0
LINE
  5
2F7
100
AcDbEntity
  8
4
100
AcDbLine
 62
7
  6
BYLAYER
 10
399.8738127214
 20
649.7073223075
 11
389.685067038
 21
649.7073223075
  0
LINE
  5
2F8
100
AcDbEntity
  8
3
100
AcDbLine
 62
7
  6
BYLAYER
 10
252.2246818329
 20
649.7073223075
 11
242.0359361495
 21
649.7073223075
  0
LINE
  5
2F9
100
AcDbEntity
  8
0
100
AcDbLine
 62
7
  6
BYLAYER
 10
366.135319806
 20
742.0242447234
 11
365.935319806
 21
742.2242447234
  0
LINE
  5
2FA
100
AcDbEntity
  8
0
100
AcDbLine
 62
7
  6
BYLAYER
 10
362.935319806
 20
748.5242447234
 11
363.435319806
 21
748.0242447234
  0
LINE
  5
2FB
100
AcDbEntity
  8
3
100
AcDbLine
 62
7
  6
BYLAYER
 10
242.0359361495
 20
699.7073223075
 11
252.2246818329
 21
699.7073223075
  0
LINE
  5
2FC
100
AcDbEntity
  8
4
100
AcDbLine
 62
7
  6
BYLAYER
 10
389.685067038
 20
699.7073223075
 11
399.8738127214
 21
699.7073223075
  0
LINE
  5
2FD
100
AcDbEntity
  8
0
100
AcDbLine
 62
7
  6
BYLAYER
 10
380.935319806
 20
743.5242447234
 11
381.435319806
 21
743.0242447234
  0
LINE
  5
2FE
100
AcDbEntity
  8
0
100
AcDbLine
 62
7
  6
BYLAYER
 10
380.935319806
 20
748.5242447234
 11
381.435319806
 21
748.0242447234
  0
LINE
  5
2FF
100
AcDbEntity
  8
0
100
AcDbLine
 62
7
  6
BYLAYER
 10
379.1853217846
 20
752.5242447234
 11
379.685319806
 21
752.0242468819
  0
LINE
  5
300
100
AcDbEntity
  8
0
100
AcDbLine
 62
7
  6
BYLAYER
 10
389.685319806
 20
724.5242447234
 11
339.685319806
 21
724.5242447234
  0
LINE
  5
301
100
AcDbEntity
  8
0
100
AcDbLine
 62
7
  6
BYLAYER
 10
242.0361889175
 20
724.5242447234
 11
192.0361889175
 21
724.5242447234
  0
LINE
  5
302
100
AcDbEntity
  8
3
100
AcDbLine
 62
7
  6
BYLAYER
 10
192.0359361495
 20
724.5242575319
 11
198.0369167285
 21
724.5242575319
  0
LINE
  5
303
100
AcDbEntity
  8
3
100
AcDbLine
 62
7
  6
BYLAYER
 10
236.0349555704
 20
724.5242575319
 11
242.0359361495
 21
724.5242575319
  0
LINE
  5
304
100
AcDbEntity
  8
3
100
AcDbLine
 62
7
  6
BYLAYER
 10
339.685067038
 20
724.5242575319
 11
345.686047617
 21
724.5242575319
  0
LINE
  5
305
100
AcDbEntity
  8
3
100
AcDbLine
 62
7
  6
BYLAYER
 10
383.6840864589
 20
724.5242575319
 11
389.685067038
 21
724.5242575319
  0
LINE
  5
306
100
AcDbEntity
  8
3
100
AcDbLine
 62
7
  6
BYLAYER
 10
383.4844278893
 20
724.5242739909
 11
345.8844278893
 21
724.5242739909
  0
LINE
  5
307
100
AcDbEntity
  8
3
100
AcDbLine
 62
7
  6
BYLAYER
 10
235.8352970008
 20
724.5242739909
 11
198.2352970008
 21
724.5242739909
  0
LINE
  5
308
100
AcDbEntity
  8
0
100
AcDbLine
 62
7
  6
BYLAYER
 10
381.685319806
 20
738.0242447234
 11
365.6853366199
 21
738.0242447234
  0
LINE
  5
309
100
AcDbEntity
  8
0
100
AcDbLine
 62
7
  6
BYLAYER
 10
363.685319806
 20
738.0242447234
 11
347.6853366199
 21
738.0242447234
  0
LINE
  5
30A
100
AcDbEntity
  8
0
100
AcDbLine
 62
7
  6
BYLAYER
 10
234.0361889175
 20
738.0242447234
 11
218.0362057314
 21
738.0242447234
  0
LINE
  5
30B
100
AcDbEntity
  8
0
100
AcDbLine
 62
7
  6
BYLAYER
 10
216.0361889175
 20
738.0242447234
 11
200.0362057314
 21
738.0242447234
  0
LINE
  5
30C
100
AcDbEntity
  8
0
100
AcDbLine
 62
7
  6
BYLAYER
 10
200.1413979463
 20
738.0354389744
 11
215.9309632958
 21
738.0354389744
  0
LINE
  5
30D
100
AcDbEntity
  8
0
100
AcDbLine
 62
7
  6
BYLAYER
 10
218.1413979463
 20
738.0354389744
 11
233.9309632958
 21
738.0354389744
  0
LINE
  5
30E
100
AcDbEntity
  8
0
100
AcDbLine
 62
7
  6
BYLAYER
 10
347.7905288348
 20
738.0354389744
 11
363.5800941843
 21
738.0354389744
  0
LINE
  5
30F
100
AcDbEntity
  8
0
100
AcDbLine
 62
7
  6
BYLAYER
 10
365.7905288348
 20
738.0354389744
 11
381.5800941843
 21
738.0354389744
  0
LINE
  5
310
100
AcDbEntity
  8
0
100
AcDbLine
 62
7
  6
BYLAYER
 10
381.7908144662
 20
739.0129889066
 11
365.5798421814
 21
739.0129889066
  0
LINE
  5
311
100
AcDbEntity
  8
0
100
AcDbLine
 62
7
  6
BYLAYER
 10
234.1416835777
 20
739.0129889066
 11
217.9307112929
 21
739.0129889066
  0
LINE
  5
312
100
AcDbEntity
  8
0
100
AcDbLine
 62
7
  6
BYLAYER
 10
363.7906162906
 20
739.0130316405
 11
347.5800403566
 21
739.0130316405
  0
LINE
  5
313
100
AcDbEntity
  8
0
100
AcDbLine
 62
7
  6
BYLAYER
 10
216.1414854021
 20
739.0130316405
 11
199.930909468
 21
739.0130316405
  0
LINE
  5
314
100
AcDbEntity
  8
0
100
AcDbLine
 62
7
  6
BYLAYER
 10
192.0361889175
 20
739.0242447234
 11
192.5824979723
 21
739.0242447234
  0
LINE
  5
315
100
AcDbEntity
  8
0
100
AcDbLine
 62
7
  6
BYLAYER
 10
241.4898798626
 20
739.0242447234
 11
242.0361889175
 21
739.0242447234
  0
LINE
  5
316
100
AcDbEntity
  8
0
100
AcDbLine
 62
7
  6
BYLAYER
 10
339.685319806
 20
739.0242447234
 11
340.2316288608
 21
739.0242447234
  0
LINE
  5
317
100
AcDbEntity
  8
0
100
AcDbLine
 62
7
  6
BYLAYER
 10
389.1390107512
 20
739.0242447234
 11
389.685319806
 21
739.0242447234
  0
LINE
  5
318
100
AcDbEntity
  8
0
100
AcDbLine
 62
7
  6
BYLAYER
 10
389.485319806
 20
739.5242447234
 11
389.1967248297
 21
739.5242447234
  0
LINE
  5
319
100
AcDbEntity
  8
0
100
AcDbLine
 62
7
  6
BYLAYER
 10
340.1739147822
 20
739.5242447234
 11
339.885319806
 21
739.5242447234
  0
LINE
  5
31A
100
AcDbEntity
  8
0
100
AcDbLine
 62
7
  6
BYLAYER
 10
241.8361889175
 20
739.5242447234
 11
241.5475939412
 21
739.5242447234
  0
LINE
  5
31B
100
AcDbEntity
  8
0
100
AcDbLine
 62
7
  6
BYLAYER
 10
192.5247838937
 20
739.5242447234
 11
192.2361889175
 21
739.5242447234
  0
LINE
  5
31C
100
AcDbEntity
  8
0
100
AcDbLine
 62
7
  6
BYLAYER
 10
389.685319806
 20
740.0242447923
 11
389.485319806
 21
740.0242447923
  0
LINE
  5
31D
100
AcDbEntity
  8
0
100
AcDbLine
 62
7
  6
BYLAYER
 10
339.885319806
 20
740.0242447805
 11
339.685319806
 21
740.0242447805
  0
LINE
  5
31E
100
AcDbEntity
  8
0
100
AcDbLine
 62
7
  6
BYLAYER
 10
242.0361889175
 20
740.0242447923
 11
241.8361889175
 21
740.0242447923
  0
LINE
  5
31F
100
AcDbEntity
  8
0
100
AcDbLine
 62
7
  6
BYLAYER
 10
192.2361889175
 20
740.0242447805
 11
192.0361889175
 21
740.0242447805
  0
LINE
  5
320
100
AcDbEntity
  8
0
100
AcDbLine
 62
7
  6
BYLAYER
 10
192.0361889175
 20
741.0242447234
 11
192.2361889175
 21
741.0242447234
  0
LINE
  5
321
100
AcDbEntity
  8
0
100
AcDbLine
 62
7
  6
BYLAYER
 10
241.8361889175
 20
741.0242447234
 11
242.0361889175
 21
741.0242447234
  0
LINE
  5
322
100
AcDbEntity
  8
0
100
AcDbLine
 62
7
  6
BYLAYER
 10
192.5247838937
 20
741.0242447234
 11
241.5475939412
 21
741.0242447234
  0
LINE
  5
323
100
AcDbEntity
  8
0
100
AcDbLine
 62
7
  6
BYLAYER
 10
339.685319806
 20
741.0242447234
 11
339.885319806
 21
741.0242447234
  0
LINE
  5
324
100
AcDbEntity
  8
0
100
AcDbLine
 62
7
  6
BYLAYER
 10
389.485319806
 20
741.0242447234
 11
389.685319806
 21
741.0242447234
  0
LINE
  5
325
100
AcDbEntity
  8
0
100
AcDbLine
 62
7
  6
BYLAYER
 10
340.1739147822
 20
741.0242447234
 11
389.1967248297
 21
741.0242447234
  0
LINE
  5
326
100
AcDbEntity
  8
0
100
AcDbLine
 62
7
  6
BYLAYER
 10
192.2361889175
 20
741.1242447234
 11
192.5572761078
 21
741.1242447234
  0
LINE
  5
327
100
AcDbEntity
  8
0
100
AcDbLine
 62
7
  6
BYLAYER
 10
241.5151014971
 20
741.1242447234
 11
241.8361889175
 21
741.1242447234
  0
LINE
  5
328
100
AcDbEntity
  8
0
100
AcDbLine
 62
7
  6
BYLAYER
 10
339.885319806
 20
741.1242447234
 11
340.2064069963
 21
741.1242447234
  0
LINE
  5
329
100
AcDbEntity
  8
0
100
AcDbLine
 62
7
  6
BYLAYER
 10
389.1642323857
 20
741.1242447234
 11
389.485319806
 21
741.1242447234
  0
LINE
  5
32A
100
AcDbEntity
  8
0
100
AcDbLine
 62
7
  6
BYLAYER
 10
193.5250058085
 20
742.0242447234
 11
240.5473704454
 21
742.0242447234
  0
LINE
  5
32B
100
AcDbEntity
  8
0
100
AcDbLine
 62
7
  6
BYLAYER
 10
341.174136697
 20
742.0242447234
 11
388.1965013339
 21
742.0242447234
  0
LINE
  5
32C
100
AcDbEntity
  8
0
100
AcDbLine
 62
7
  6
BYLAYER
 10
193.2362903435
 20
742.1242447234
 11
198.8361886708
 21
742.1242447234
  0
LINE
  5
32D
100
AcDbEntity
  8
0
100
AcDbLine
 62
7
  6
BYLAYER
 10
235.2362903435
 20
742.1242447234
 11
240.8361886708
 21
742.1242447234
  0
LINE
  5
32E
100
AcDbEntity
  8
0
100
AcDbLine
 62
7
  6
BYLAYER
 10
340.885421232
 20
742.1242447234
 11
346.4853195593
 21
742.1242447234
  0
LINE
  5
32F
100
AcDbEntity
  8
0
100
AcDbLine
 62
7
  6
BYLAYER
 10
382.885421232
 20
742.1242447234
 11
388.4853195593
 21
742.1242447234
  0
LINE
  5
330
100
AcDbEntity
  8
0
100
AcDbLine
 62
7
  6
BYLAYER
 10
381.435319806
 20
742.2242447234
 11
365.935319806
 21
742.2242447234
  0
LINE
  5
331
100
AcDbEntity
  8
0
100
AcDbLine
 62
7
  6
BYLAYER
 10
233.7861889175
 20
742.2242447234
 11
218.2861889175
 21
742.2242447234
  0
LINE
  5
332
100
AcDbEntity
  8
0
100
AcDbLine
 62
7
  6
BYLAYER
 10
218.2861889175
 20
743.0242447234
 11
233.7861889175
 21
743.0242447234
  0
LINE
  5
333
100
AcDbEntity
  8
0
100
AcDbLine
 62
7
  6
BYLAYER
 10
365.935319806
 20
743.0242447234
 11
381.435319806
 21
743.0242447234
  0
LINE
  5
334
100
AcDbEntity
  8
0
100
AcDbLine
 62
7
  6
BYLAYER
 10
363.435319806
 20
743.5242447234
 11
347.935319806
 21
743.5242447234
  0
LINE
  5
335
100
AcDbEntity
  8
0
100
AcDbLine
 62
7
  6
BYLAYER
 10
215.7861889175
 20
743.5242447234
 11
200.2861889175
 21
743.5242447234
  0
LINE
  5
336
100
AcDbEntity
  8
0
100
AcDbLine
 62
7
  6
BYLAYER
 10
218.2861889175
 20
743.5242447234
 11
233.7861889175
 21
743.5242447234
  0
LINE
  5
337
100
AcDbEntity
  8
0
100
AcDbLine
 62
7
  6
BYLAYER
 10
365.935319806
 20
743.5242447234
 11
381.435319806
 21
743.5242447234
  0
LINE
  5
338
100
AcDbEntity
  8
0
100
AcDbLine
 62
7
  6
BYLAYER
 10
379.685319806
 20
744.5242447234
 11
367.685319806
 21
744.5242447234
  0
LINE
  5
339
100
AcDbEntity
  8
0
100
AcDbLine
 62
7
  6
BYLAYER
 10
232.0361889175
 20
744.5242447234
 11
220.0361889175
 21
744.5242447234
  0
LINE
  5
33A
100
AcDbEntity
  8
0
100
AcDbLine
 62
7
  6
BYLAYER
 10
381.4353155232
 20
746.5242447234
 11
379.685319806
 21
746.5242447234
  0
LINE
  5
33B
100
AcDbEntity
  8
0
100
AcDbLine
 62
7
  6
BYLAYER
 10
367.685319806
 20
746.5242447234
 11
365.9353240888
 21
746.5242447234
  0
LINE
  5
33C
100
AcDbEntity
  8
0
100
AcDbLine
 62
7
  6
BYLAYER
 10
363.4353155232
 20
746.5242447234
 11
347.9353240888
 21
746.5242447234
  0
LINE
  5
33D
100
AcDbEntity
  8
0
100
AcDbLine
 62
7
  6
BYLAYER
 10
233.7861846346
 20
746.5242447234
 11
232.0361889175
 21
746.5242447234
  0
LINE
  5
33E
100
AcDbEntity
  8
0
100
AcDbLine
 62
7
  6
BYLAYER
 10
220.0361889175
 20
746.5242447234
 11
218.2861932003
 21
746.5242447234
  0
LINE
  5
33F
100
AcDbEntity
  8
0
100
AcDbLine
 62
7
  6
BYLAYER
 10
215.7861846346
 20
746.5242447234
 11
200.2861932003
 21
746.5242447234
  0
LINE
  5
340
100
AcDbEntity
  8
0
100
AcDbLine
 62
7
  6
BYLAYER
 10
200.2861889175
 20
748.0242447234
 11
215.7861889175
 21
748.0242447234
  0
LINE
  5
341
100
AcDbEntity
  8
0
100
AcDbLine
 62
7
  6
BYLAYER
 10
218.2861889175
 20
748.0242447234
 11
220.0361889175
 21
748.0242447234
  0
LINE
  5
342
100
AcDbEntity
  8
0
100
AcDbLine
 62
7
  6
BYLAYER
 10
232.0361889175
 20
748.0242447234
 11
233.7861889175
 21
748.0242447234
  0
LINE
  5
343
100
AcDbEntity
  8
0
100
AcDbLine
 62
7
  6
BYLAYER
 10
347.935319806
 20
748.0242447234
 11
363.435319806
 21
748.0242447234
  0
LINE
  5
344
100
AcDbEntity
  8
0
100
AcDbLine
 62
7
  6
BYLAYER
 10
365.935319806
 20
748.0242447234
 11
367.685319806
 21
748.0242447234
  0
LINE
  5
345
100
AcDbEntity
  8
0
100
AcDbLine
 62
7
  6
BYLAYER
 10
379.685319806
 20
748.0242447234
 11
381.435319806
 21
748.0242447234
  0
LINE
  5
346
100
AcDbEntity
  8
0
100
AcDbLine
 62
7
  6
BYLAYER
 10
200.7861929202
 20
748.5242447234
 11
215.2861849147
 21
748.5242447234
  0
LINE
  5
347
100
AcDbEntity
  8
0
100
AcDbLine
 62
7
  6
BYLAYER
 10
218.7861929202
 20
748.5242447234
 11
220.0361889175
 21
748.5242447234
  0
LINE
  5
348
100
AcDbEntity
  8
0
100
AcDbLine
 62
7
  6
BYLAYER
 10
232.0361889175
 20
748.5242447234
 11
233.2861849147
 21
748.5242447234
  0
LINE
  5
349
100
AcDbEntity
  8
0
100
AcDbLine
 62
7
  6
BYLAYER
 10
348.4353238088
 20
748.5242447234
 11
362.9353158032
 21
748.5242447234
  0
LINE
  5
34A
100
AcDbEntity
  8
0
100
AcDbLine
 62
7
  6
BYLAYER
 10
366.4353238088
 20
748.5242447234
 11
367.685319806
 21
748.5242447234
  0
LINE
  5
34B
100
AcDbEntity
  8
0
100
AcDbLine
 62
7
  6
BYLAYER
 10
379.685319806
 20
748.5242447234
 11
380.9353158032
 21
748.5242447234
  0
LINE
  5
34C
100
AcDbEntity
  8
0
100
AcDbLine
 62
7
  6
BYLAYER
 10
203.9094289175
 20
749.7242447234
 11
207.3344289175
 21
749.7242447234
  0
LINE
  5
34D
100
AcDbEntity
  8
0
100
AcDbLine
 62
7
  6
BYLAYER
 10
208.7344289175
 20
749.7242447234
 11
212.1594289175
 21
749.7242447234
  0
LINE
  5
34E
100
AcDbEntity
  8
0
100
AcDbLine
 62
7
  6
BYLAYER
 10
351.558559806
 20
749.7242447234
 11
358.0630958871
 21
749.7242447234
  0
LINE
  5
34F
100
AcDbEntity
  8
0
100
AcDbLine
 62
7
  6
BYLAYER
 10
359.0530453807
 20
749.7242447234
 11
359.808559806
 21
749.7242447234
  0
LINE
  5
350
100
AcDbEntity
  8
0
100
AcDbLine
 62
7
  6
BYLAYER
 10
204.2094404433
 20
750.0242447234
 11
211.8593981527
 21
750.0242447234
  0
LINE
  5
351
100
AcDbEntity
  8
0
100
AcDbLine
 62
7
  6
BYLAYER
 10
351.8585379147
 20
750.0242447234
 11
359.5086201739
 21
750.0242447234
  0
LINE
  5
352
100
AcDbEntity
  8
0
100
AcDbLine
 62
7
  6
BYLAYER
 10
220.0361889175
 20
752.0242437859
 11
232.0361889175
 21
752.0242437859
  0
LINE
  5
353
100
AcDbEntity
  8
0
100
AcDbLine
 62
7
  6
BYLAYER
 10
367.685319806
 20
752.0242437859
 11
379.685319806
 21
752.0242437859
  0
LINE
  5
354
100
AcDbEntity
  8
0
100
AcDbLine
 62
7
  6
BYLAYER
 10
220.5361883532
 20
752.5242447234
 11
231.5361836161
 21
752.5242447234
  0
LINE
  5
355
100
AcDbEntity
  8
0
100
AcDbLine
 62
7
  6
BYLAYER
 10
368.1853192417
 20
752.5242447234
 11
379.1853145046
 21
752.5242447234
  0
ARC
  5
356
100
AcDbEntity
  8
0
100
AcDbCircle
 62
7
  6
BYLAYER
 10
198.8354611093
 20
59.4242447234
 40
1.0
100
AcDbArc
 50
270.0
 51
292.3676490044
  0
ARC
  5
357
100
AcDbEntity
  8
0
100
AcDbCircle
 62
7
  6
BYLAYER
 10
193.2359361494
 20
59.4242447234
 40
1.0
100
AcDbArc
 50
180.0
 51
270.0
  0
ARC
  5
358
100
AcDbEntity
  8
0
100
AcDbCircle
 62
7
  6
BYLAYER
 10
197.8359361494
 20
59.4242447234
 40
1.0
100
AcDbArc
 50
270.0
 51
292.3676490044
  0
ARC
  5
359
100
AcDbEntity
  8
0
100
AcDbCircle
 62
7
  6
BYLAYER
 10
193.5240560827
 20
59.5241345849
 40
1.0
100
AcDbArc
 50
180.0
 51
270.0
  0
ARC
  5
35A
100
AcDbEntity
  8
0
100
AcDbCircle
 62
7
  6
BYLAYER
 10
197.0354611064
 20
59.5241345849
 40
1.0
100
AcDbArc
 50
270.0
 51
360.0
  0
ARC
  5
35B
100
AcDbEntity
  8
0
100
AcDbCircle
 62
7
  6
BYLAYER
 10
193.0354611064
 20
59.5241345849
 40
1.0
100
AcDbArc
 50
180.0
 51
249.9315512353
  0
ARC
  5
35C
100
AcDbEntity
  8
0
100
AcDbCircle
 62
7
  6
BYLAYER
 10
193.5433018695
 20
59.4354590168
 40
0.9113244319
100
AcDbArc
 50
268.9031685191
 51
269.9995120839
  0
ARC
  5
35D
100
AcDbEntity
  8
0
100
AcDbCircle
 62
7
  6
BYLAYER
 10
192.5354611064
 20
61.5241345849
 40
0.5
100
AcDbArc
 50
180.0
 51
268.8357968818
  0
ARC
  5
35E
100
AcDbEntity
  8
0
100
AcDbCircle
 62
7
  6
BYLAYER
 10
235.2354611064
 20
59.4242447234
 40
1.0
100
AcDbArc
 50
247.6323509956
 51
270.0
  0
ARC
  5
35F
100
AcDbEntity
  8
0
100
AcDbCircle
 62
7
  6
BYLAYER
 10
236.2359361464
 20
59.4242447234
 40
1.0
100
AcDbArc
 50
247.6323509956
 51
270.0
  0
ARC
  5
360
100
AcDbEntity
  8
0
100
AcDbCircle
 62
7
  6
BYLAYER
 10
240.8359361464
 20
59.4242447234
 40
1.0
100
AcDbArc
 50
270.0
 51
360.0
  0
ARC
  5
361
100
AcDbEntity
  8
0
100
AcDbCircle
 62
7
  6
BYLAYER
 10
240.5468661302
 20
59.5241345849
 40
1.0
100
AcDbArc
 50
270.0
 51
360.0
  0
ARC
  5
362
100
AcDbEntity
  8
0
100
AcDbCircle
 62
7
  6
BYLAYER
 10
241.0354611064
 20
59.5241345849
 40
1.0
100
AcDbArc
 50
290.1402792355
 51
359.9999999999
  0
ARC
  5
363
100
AcDbEntity
  8
0
100
AcDbCircle
 62
7
  6
BYLAYER
 10
237.0354611064
 20
59.5241345849
 40
1.0
100
AcDbArc
 50
180.0
 51
270.0
  0
ARC
  5
364
100
AcDbEntity
  8
0
100
AcDbCircle
 62
7
  6
BYLAYER
 10
240.5276204167
 20
59.4346027539
 40
0.910468169
100
AcDbArc
 50
270.0004837625
 51
271.0800850327
  0
ARC
  5
365
100
AcDbEntity
  8
0
100
AcDbCircle
 62
7
  6
BYLAYER
 10
241.5354611064
 20
61.5241345849
 40
0.5
100
AcDbArc
 50
271.1642031186
 51
360.0
  0
ARC
  5
366
100
AcDbEntity
  8
0
100
AcDbCircle
 62
7
  6
BYLAYER
 10
241.8977072362
 20
61.1164502828
 40
0.351195612
100
AcDbArc
 50
168.8863826965
 51
177.9822952044
  0
ARC
  5
367
100
AcDbEntity
  8
0
100
AcDbCircle
 62
7
  6
BYLAYER
 10
198.8361889175
 20
741.1242447234
 40
1.0
100
AcDbArc
 50
67.6076884452
 51
90.0
  0
ARC
  5
368
100
AcDbEntity
  8
0
100
AcDbCircle
 62
7
  6
BYLAYER
 10
197.8361889175
 20
741.1242447234
 40
1.0
100
AcDbArc
 50
67.6076884452
 51
90.0
  0
ARC
  5
369
100
AcDbEntity
  8
0
100
AcDbCircle
 62
7
  6
BYLAYER
 10
193.2361889175
 20
741.1242447234
 40
1.0
100
AcDbArc
 50
90.0
 51
180.0
  0
ARC
  5
36A
100
AcDbEntity
  8
0
100
AcDbCircle
 62
7
  6
BYLAYER
 10
193.5247838937
 20
741.0242447234
 40
1.0
100
AcDbArc
 50
90.0
 51
180.0
  0
ARC
  5
36B
100
AcDbEntity
  8
0
100
AcDbCircle
 62
7
  6
BYLAYER
 10
193.0361889175
 20
741.0242447234
 40
1.0
100
AcDbArc
 50
110.1126910722
 51
180.0000000001
  0
ARC
  5
36C
100
AcDbEntity
  8
0
100
AcDbCircle
 62
7
  6
BYLAYER
 10
197.0361889175
 20
741.0242447234
 40
1.0
100
AcDbArc
 50
0.0
 51
90.0
  0
ARC
  5
36D
100
AcDbEntity
  8
0
100
AcDbCircle
 62
7
  6
BYLAYER
 10
193.5440296072
 20
741.1137765532
 40
0.9104681702
100
AcDbArc
 50
90.0004837633
 51
91.0800850321
  0
ARC
  5
36E
100
AcDbEntity
  8
0
100
AcDbCircle
 62
7
  6
BYLAYER
 10
192.5361889175
 20
739.0242447234
 40
0.5
100
AcDbArc
 50
91.1642031186
 51
180.0
  0
ARC
  5
36F
100
AcDbEntity
  8
0
100
AcDbCircle
 62
7
  6
BYLAYER
 10
200.0362065799
 20
738.5242449062
 40
0.4999999534
100
AcDbArc
 50
102.1571786862
 51
282.1569797606
  0
ARC
  5
370
100
AcDbEntity
  8
0
100
AcDbCircle
 62
7
  6
BYLAYER
 10
216.036171255
 20
738.5242449062
 40
0.4999999534
100
AcDbArc
 50
257.8430202394
 51
77.8428213138
  0
ARC
  5
371
100
AcDbEntity
  8
0
100
AcDbCircle
 62
7
  6
BYLAYER
 10
192.1739427874
 20
739.4319290255
 40
0.3511956123
100
AcDbArc
 50
348.8863826993
 51
357.9822949635
  0
ARC
  5
372
100
AcDbEntity
  8
0
100
AcDbCircle
 62
7
  6
BYLAYER
 10
211.8594289175
 20
749.7242447234
 40
0.3
100
AcDbArc
 50
0.0
 51
90.0
  0
ARC
  5
373
100
AcDbEntity
  8
0
100
AcDbCircle
 62
7
  6
BYLAYER
 10
204.2094289175
 20
749.7242447234
 40
0.3
100
AcDbArc
 50
90.0
 51
180.0
  0
ARC
  5
374
100
AcDbEntity
  8
0
100
AcDbCircle
 62
7
  6
BYLAYER
 10
235.2361889175
 20
741.1242447234
 40
1.0
100
AcDbArc
 50
90.0
 51
112.3923115548
  0
ARC
  5
375
100
AcDbEntity
  8
0
100
AcDbCircle
 62
7
  6
BYLAYER
 10
240.8361889175
 20
741.1242447234
 40
1.0
100
AcDbArc
 50
0.0
 51
90.0
  0
ARC
  5
376
100
AcDbEntity
  8
0
100
AcDbCircle
 62
7
  6
BYLAYER
 10
236.2361889175
 20
741.1242447234
 40
1.0
100
AcDbArc
 50
90.0
 51
112.3923115548
  0
ARC
  5
377
100
AcDbEntity
  8
0
100
AcDbCircle
 62
7
  6
BYLAYER
 10
240.5475939412
 20
741.0242447234
 40
1.0
100
AcDbArc
 50
0.0
 51
90.0
  0
ARC
  5
378
100
AcDbEntity
  8
0
100
AcDbCircle
 62
7
  6
BYLAYER
 10
241.0361889175
 20
741.0242447234
 40
1.0
100
AcDbArc
 50
0.0
 51
69.8873089279
  0
ARC
  5
379
100
AcDbEntity
  8
0
100
AcDbCircle
 62
7
  6
BYLAYER
 10
237.0361889175
 20
741.0242447234
 40
1.0
100
AcDbArc
 50
90.0
 51
180.0
  0
ARC
  5
37A
100
AcDbEntity
  8
0
100
AcDbCircle
 62
7
  6
BYLAYER
 10
240.5283481544
 20
741.1129202899
 40
0.9113244335
100
AcDbArc
 50
88.9031685201
 51
89.9995120829
  0
ARC
  5
37B
100
AcDbEntity
  8
0
100
AcDbCircle
 62
7
  6
BYLAYER
 10
241.5361889175
 20
739.0242447234
 40
0.5
100
AcDbArc
 50
0.0
 51
88.8357968818
  0
ARC
  5
37C
100
AcDbEntity
  8
0
100
AcDbCircle
 62
7
  6
BYLAYER
 10
218.0362065794
 20
738.5242449064
 40
0.4999999532
100
AcDbArc
 50
102.1804098124
 51
282.180210997
  0
ARC
  5
37D
100
AcDbEntity
  8
0
100
AcDbCircle
 62
7
  6
BYLAYER
 10
234.0361712556
 20
738.5242449064
 40
0.4999999532
100
AcDbArc
 50
257.819789003
 51
77.8195901876
  0
ARC
  5
37E
100
AcDbEntity
  8
0
100
AcDbCircle
 62
7
  6
BYLAYER
 10
382.8845919949
 20
59.4242447234
 40
1.0
100
AcDbArc
 50
247.6323509958
 51
270.0
  0
ARC
  5
37F
100
AcDbEntity
  8
0
100
AcDbCircle
 62
7
  6
BYLAYER
 10
346.4845919978
 20
59.4242447234
 40
1.0
100
AcDbArc
 50
270.0
 51
292.3676490042
  0
ARC
  5
380
100
AcDbEntity
  8
0
100
AcDbCircle
 62
7
  6
BYLAYER
 10
383.8850670349
 20
59.4242447234
 40
1.0
100
AcDbArc
 50
247.6323509956
 51
270.0
  0
ARC
  5
381
100
AcDbEntity
  8
0
100
AcDbCircle
 62
7
  6
BYLAYER
 10
388.4850670349
 20
59.4242447234
 40
1.0
100
AcDbArc
 50
270.0
 51
360.0
  0
ARC
  5
382
100
AcDbEntity
  8
0
100
AcDbCircle
 62
7
  6
BYLAYER
 10
340.8850670379
 20
59.4242447234
 40
1.0
100
AcDbArc
 50
180.0
 51
270.0
  0
ARC
  5
383
100
AcDbEntity
  8
0
100
AcDbCircle
 62
7
  6
BYLAYER
 10
345.4850670379
 20
59.4242447234
 40
1.0
100
AcDbArc
 50
270.0
 51
292.3676490044
  0
ARC
  5
384
100
AcDbEntity
  8
0
100
AcDbCircle
 62
7
  6
BYLAYER
 10
341.1731869712
 20
59.5241345849
 40
1.0
100
AcDbArc
 50
180.0
 51
270.0
  0
ARC
  5
385
100
AcDbEntity
  8
0
100
AcDbCircle
 62
7
  6
BYLAYER
 10
388.1959970187
 20
59.5241345849
 40
1.0
100
AcDbArc
 50
270.0
 51
360.0
  0
ARC
  5
386
100
AcDbEntity
  8
0
100
AcDbCircle
 62
7
  6
BYLAYER
 10
388.6845919949
 20
59.5241345849
 40
1.0
100
AcDbArc
 50
290.1402792355
 51
360.0
  0
ARC
  5
387
100
AcDbEntity
  8
0
100
AcDbCircle
 62
7
  6
BYLAYER
 10
344.6845919949
 20
59.5241345849
 40
1.0
100
AcDbArc
 50
270.0
 51
360.0
  0
ARC
  5
388
100
AcDbEntity
  8
0
100
AcDbCircle
 62
7
  6
BYLAYER
 10
340.6845919949
 20
59.5241345849
 40
1.0
100
AcDbArc
 50
180.0
 51
249.9315512352
  0
ARC
  5
389
100
AcDbEntity
  8
0
100
AcDbCircle
 62
7
  6
BYLAYER
 10
384.6845919949
 20
59.5241345849
 40
1.0
100
AcDbArc
 50
180.0
 51
270.0
  0
ARC
  5
38A
100
AcDbEntity
  8
0
100
AcDbCircle
 62
7
  6
BYLAYER
 10
341.192432758
 20
59.4354590169
 40
0.911324432
100
AcDbArc
 50
268.9031685192
 51
269.9995120839
  0
ARC
  5
38B
100
AcDbEntity
  8
0
100
AcDbCircle
 62
7
  6
BYLAYER
 10
388.1767513052
 20
59.4346027541
 40
0.9104681692
100
AcDbArc
 50
270.0004837627
 51
271.0800850326
  0
ARC
  5
38C
100
AcDbEntity
  8
0
100
AcDbCircle
 62
7
  6
BYLAYER
 10
389.1845919949
 20
61.5241345849
 40
0.5
100
AcDbArc
 50
271.1642031186
 51
360.0
  0
ARC
  5
38D
100
AcDbEntity
  8
0
100
AcDbCircle
 62
7
  6
BYLAYER
 10
340.1845919949
 20
61.5241345849
 40
0.5
100
AcDbArc
 50
180.0
 51
268.8357968818
  0
ARC
  5
38E
100
AcDbEntity
  8
0
100
AcDbCircle
 62
7
  6
BYLAYER
 10
389.5468381247
 20
61.1164502828
 40
0.351195612
100
AcDbArc
 50
168.8863826963
 51
177.9822952154
  0
ARC
  5
38F
100
AcDbEntity
  8
0
100
AcDbCircle
 62
7
  6
BYLAYER
 10
346.485319806
 20
741.1242447234
 40
1.0
100
AcDbArc
 50
67.6076884452
 51
90.0
  0
ARC
  5
390
100
AcDbEntity
  8
0
100
AcDbCircle
 62
7
  6
BYLAYER
 10
345.485319806
 20
741.1242447234
 40
1.0
100
AcDbArc
 50
67.6076884452
 51
90.0
  0
ARC
  5
391
100
AcDbEntity
  8
0
100
AcDbCircle
 62
7
  6
BYLAYER
 10
340.885319806
 20
741.1242447234
 40
1.0
100
AcDbArc
 50
90.0
 51
180.0
  0
ARC
  5
392
100
AcDbEntity
  8
0
100
AcDbCircle
 62
7
  6
BYLAYER
 10
341.1739147822
 20
741.0242447234
 40
1.0
100
AcDbArc
 50
90.0
 51
180.0
  0
ARC
  5
393
100
AcDbEntity
  8
0
100
AcDbCircle
 62
7
  6
BYLAYER
 10
340.685319806
 20
741.0242447234
 40
1.0
100
AcDbArc
 50
110.1126910722
 51
180.0
  0
ARC
  5
394
100
AcDbEntity
  8
0
100
AcDbCircle
 62
7
  6
BYLAYER
 10
344.685319806
 20
741.0242447234
 40
1.0
100
AcDbArc
 50
0.0
 51
90.0
  0
ARC
  5
395
100
AcDbEntity
  8
0
100
AcDbCircle
 62
7
  6
BYLAYER
 10
341.1931604957
 20
741.1137765532
 40
0.9104681702
100
AcDbArc
 50
90.0004837633
 51
91.0800850321
  0
ARC
  5
396
100
AcDbEntity
  8
0
100
AcDbCircle
 62
7
  6
BYLAYER
 10
340.185319806
 20
739.0242447234
 40
0.5
100
AcDbArc
 50
91.1642031186
 51
180.0
  0
ARC
  5
397
100
AcDbEntity
  8
0
100
AcDbCircle
 62
7
  6
BYLAYER
 10
347.6853374684
 20
738.5242449062
 40
0.4999999534
100
AcDbArc
 50
102.1571786862
 51
282.1569797606
  0
ARC
  5
398
100
AcDbEntity
  8
0
100
AcDbCircle
 62
7
  6
BYLAYER
 10
363.6853021435
 20
738.5242449062
 40
0.4999999534
100
AcDbArc
 50
257.8430202394
 51
77.8428213138
  0
ARC
  5
399
100
AcDbEntity
  8
0
100
AcDbCircle
 62
7
  6
BYLAYER
 10
339.8230736759
 20
739.4319290255
 40
0.3511956122
100
AcDbArc
 50
348.8863826989
 51
357.98229499
  0
ARC
  5
39A
100
AcDbEntity
  8
0
100
AcDbCircle
 62
7
  6
BYLAYER
 10
359.508559806
 20
749.7242447234
 40
0.3
100
AcDbArc
 50
0.0
 51
90.0
  0
ARC
  5
39B
100
AcDbEntity
  8
0
100
AcDbCircle
 62
7
  6
BYLAYER
 10
351.858559806
 20
749.7242447234
 40
0.3
100
AcDbArc
 50
90.0
 51
180.0
  0
ARC
  5
39C
100
AcDbEntity
  8
0
100
AcDbCircle
 62
7
  6
BYLAYER
 10
382.885319806
 20
741.1242447234
 40
1.0
100
AcDbArc
 50
90.0
 51
112.3923115548
  0
ARC
  5
39D
100
AcDbEntity
  8
0
100
AcDbCircle
 62
7
  6
BYLAYER
 10
388.485319806
 20
741.1242447234
 40
1.0
100
AcDbArc
 50
0.0
 51
90.0
  0
ARC
  5
39E
100
AcDbEntity
  8
0
100
AcDbCircle
 62
7
  6
BYLAYER
 10
383.885319806
 20
741.1242447234
 40
1.0
100
AcDbArc
 50
90.0
 51
112.3923115548
  0
ARC
  5
39F
100
AcDbEntity
  8
0
100
AcDbCircle
 62
7
  6
BYLAYER
 10
388.1967248297
 20
741.0242447234
 40
1.0
100
AcDbArc
 50
0.0
 51
90.0
  0
ARC
  5
3A0
100
AcDbEntity
  8
0
100
AcDbCircle
 62
7
  6
BYLAYER
 10
388.685319806
 20
741.0242447234
 40
1.0
100
AcDbArc
 50
0.0
 51
69.8873089278
  0
ARC
  5
3A1
100
AcDbEntity
  8
0
100
AcDbCircle
 62
7
  6
BYLAYER
 10
384.685319806
 20
741.0242447234
 40
1.0
100
AcDbArc
 50
90.0
 51
180.0
  0
ARC
  5
3A2
100
AcDbEntity
  8
0
100
AcDbCircle
 62
7
  6
BYLAYER
 10
388.1774790429
 20
741.1129202899
 40
0.9113244335
100
AcDbArc
 50
88.90316852
 51
89.9995120829
  0
ARC
  5
3A3
100
AcDbEntity
  8
0
100
AcDbCircle
 62
7
  6
BYLAYER
 10
389.185319806
 20
739.0242447234
 40
0.5
100
AcDbArc
 50
0.0
 51
88.8357968818
  0
ARC
  5
3A4
100
AcDbEntity
  8
0
100
AcDbCircle
 62
7
  6
BYLAYER
 10
365.6853374679
 20
738.5242449064
 40
0.4999999532
100
AcDbArc
 50
102.1804098124
 51
282.180210997
  0
ARC
  5
3A5
100
AcDbEntity
  8
0
100
AcDbCircle
 62
7
  6
BYLAYER
 10
381.6853021441
 20
738.5242449064
 40
0.4999999532
100
AcDbArc
 50
257.819789003
 51
77.8195901876
  0
SPLINE
  5
3A6
100
AcDbEntity
  8
0
100
AcDbSpline
 62
7
  6
BYLAYER
 70
0
 71
3
 72
11
 73
7
 74
0
 42
0.0000001
 43
0.0000001
 44
0.0000000001
 40
0.0
 40
0.0
 40
0.0
 40
0.0
 40
0.288432907
 40
0.5554725908
 40
0.7902209526
 40
1.0
 40
1.0
 40
1.0
 40
1.0
 10
358.0630958871
 20
749.7242447234
 30
0.0
 10
358.0630958871
 20
749.7631863895
 30
0.0
 10
358.0526984036
 20
749.8386767587
 30
0.0
 10
358.0071144129
 20
749.9370757123
 30
0.0
 10
357.936665332
 20
750.006441264
 30
0.0
 10
357.8759082095
 20
750.0242456887
 30
0.0
 10
357.8475856935
 20
750.0242447234
 30
0.0
  0
SPLINE
  5
3A7
100
AcDbEntity
  8
0
100
AcDbSpline
 62
7
  6
BYLAYER
 70
0
 71
3
 72
11
 73
7
 74
0
 42
0.0000001
 43
0.0000001
 44
0.0000000001
 40
0.0
 40
0.0
 40
0.0
 40
0.0
 40
0.2883671583
 40
0.5553852791
 40
0.7902445524
 40
1.0
 40
1.0
 40
1.0
 40
1.0
 10
359.0530453807
 20
749.7242447234
 30
0.0
 10
359.0530453807
 20
749.7631654294
 30
0.0
 10
359.0426057207
 20
749.8386237535
 30
0.0
 10
358.9969334091
 20
749.9369395362
 30
0.0
 10
358.9265728632
 20
750.0063166749
 30
0.0
 10
358.8658457276
 20
750.0242456883
 30
0.0
 10
358.8375351871
 20
750.0242447234
 30
0.0
  0
SPLINE
  5
3A8
100
AcDbEntity
  8
0
100
AcDbSpline
 62
7
  6
BYLAYER
 70
0
 71
3
 72
9
 73
5
 74
0
 42
0.0000001
 43
0.0000001
 44
0.0000000001
 40
0.0
 40
0.0
 40
0.0
 40
0.0
 40
0.2423551149
 40
1.0
 40
1.0
 40
1.0
 40
1.0
 10
241.5468701416
 20
61.139447087
 30
0.0
 10
241.5468791602
 20
61.1709327565
 30
0.0
 10
241.5416741599
 20
61.3008340366
 30
0.0
 10
241.5166850081
 20
61.4296339316
 30
0.0
 10
241.4891520247
 20
61.5241344808
 30
0.0
  0
SPLINE
  5
3A9
100
AcDbEntity
  8
0
100
AcDbSpline
 62
7
  6
BYLAYER
 70
0
 71
3
 72
8
 73
4
 74
0
 42
0.0000001
 43
0.0000001
 44
0.0000000001
 40
0.0
 40
0.0
 40
0.0
 40
0.0
 40
1.0
 40
1.0
 40
1.0
 40
1.0
 10
241.5530976376
 20
61.1841450569
 30
0.0
 10
241.5623944893
 20
61.231677856
 30
0.0
 10
241.5815455021
 20
61.2781523944
 30
0.0
 10
241.6081997022
 20
61.3185918807
 30
0.0
  0
SPLINE
  5
3AA
100
AcDbEntity
  8
0
100
AcDbSpline
 62
7
  6
BYLAYER
 70
0
 71
3
 72
11
 73
7
 74
0
 42
0.0000001
 43
0.0000001
 44
0.0000000001
 40
0.0
 40
0.0
 40
0.0
 40
0.0
 40
0.2455000837
 40
0.4935877931
 40
0.7454492783
 40
1.0
 40
1.0
 40
1.0
 40
1.0
 10
193.5258571592
 20
58.5243015648
 30
0.0
 10
193.4020052643
 20
58.5266717902
 30
0.0
 10
193.1511528154
 20
58.5828982538
 30
0.0
 10
192.8379775715
 20
58.807966382
 30
0.0
 10
192.630004329
 20
59.1375602299
 30
0.0
 10
192.5817701612
 20
59.3956932357
 30
0.0
 10
192.5817701612
 20
59.5241345849
 30
0.0
  0
SPLINE
  5
3AB
100
AcDbEntity
  8
0
100
AcDbSpline
 62
7
  6
BYLAYER
 70
0
 71
3
 72
11
 73
7
 74
0
 42
0.0000001
 43
0.0000001
 44
0.0000000001
 40
0.0
 40
0.0
 40
0.0
 40
0.0
 40
0.2370154222
 40
0.4817461593
 40
0.7371748139
 40
1.0
 40
1.0
 40
1.0
 40
1.0
 10
196.6938203199
 20
58.5241345849
 30
0.0
 10
196.8107066026
 20
58.5241345849
 30
0.0
 10
197.0512480523
 20
58.5784033201
 30
0.0
 10
197.3480366073
 20
58.8050503391
 30
0.0
 10
197.5433201877
 20
59.1365526926
 30
0.0
 10
197.5882475109
 20
59.3945199854
 30
0.0
 10
197.5882475109
 20
59.5241345849
 30
0.0
  0
SPLINE
  5
3AC
100
AcDbEntity
  8
0
100
AcDbSpline
 62
7
  6
BYLAYER
 70
0
 71
3
 72
11
 73
7
 74
0
 42
0.0000001
 43
0.0000001
 44
0.0000000001
 40
0.0
 40
0.0
 40
0.0
 40
0.0
 40
0.2429770416
 40
0.4900484521
 40
0.7429376142
 40
1.0
 40
1.0
 40
1.0
 40
1.0
 10
197.0354602296
 20
58.5241345849
 30
0.0
 10
197.1585526987
 20
58.5241417331
 30
0.0
 10
197.4097183919
 20
58.5768899718
 30
0.0
 10
197.7244153845
 20
58.8008140845
 30
0.0
 10
197.9340129635
 20
59.1329157302
 30
0.0
 10
197.9826927244
 20
59.3939064628
 30
0.0
 10
197.9826935436
 20
59.5241345849
 30
0.0
  0
SPLINE
  5
3AD
100
AcDbEntity
  8
0
100
AcDbSpline
 62
7
  6
BYLAYER
 70
0
 71
3
 72
11
 73
7
 74
0
 42
0.0000001
 43
0.0000001
 44
0.0000000001
 40
0.0
 40
0.0
 40
0.0
 40
0.0
 40
0.2570642536
 40
0.5099515937
 40
0.7570212812
 40
1.0
 40
1.0
 40
1.0
 40
1.0
 10
236.088228581
 20
59.5241345849
 30
0.0
 10
236.0882294124
 20
59.3939055015
 30
0.0
 10
236.1369093754
 20
59.1329145966
 30
0.0
 10
236.3465071875
 20
58.8008142609
 30
0.0
 10
236.6612028054
 20
58.5768901451
 30
0.0
 10
236.9123686394
 20
58.5241416448
 30
0.0
 10
237.0354619724
 20
58.5241345849
 30
0.0
  0
SPLINE
  5
3AE
100
AcDbEntity
  8
0
100
AcDbSpline
 62
7
  6
BYLAYER
 70
0
 71
3
 72
11
 73
7
 74
0
 42
0.0000001
 43
0.0000001
 44
0.0000000001
 40
0.0
 40
0.0
 40
0.0
 40
0.0
 40
0.2627344212
 40
0.5180975916
 40
0.762900959
 40
1.0
 40
1.0
 40
1.0
 40
1.0
 10
236.4826747019
 20
59.5241345849
 30
0.0
 10
236.4826747019
 20
59.3945648173
 30
0.0
 10
236.5275708038
 20
59.1366767936
 30
0.0
 10
236.7227715037
 20
58.8051816565
 30
0.0
 10
237.0195538474
 20
58.5784437052
 30
0.0
 10
237.2601744364
 20
58.5241345849
 30
0.0
 10
237.3771018929
 20
58.5241345849
 30
0.0
  0
SPLINE
  5
3AF
100
AcDbEntity
  8
0
100
AcDbSpline
 62
7
  6
BYLAYER
 70
0
 71
3
 72
11
 73
7
 74
0
 42
0.0000001
 43
0.0000001
 44
0.0000000001
 40
0.0
 40
0.0
 40
0.0
 40
0.0
 40
0.2544641196
 40
0.5062554122
 40
0.7544085347
 40
1.0
 40
1.0
 40
1.0
 40
1.0
 10
241.4891520516
 20
59.5241345849
 30
0.0
 10
241.4891520516
 20
59.3957135323
 30
0.0
 10
241.4409344708
 20
59.1376133113
 30
0.0
 10
241.2329721071
 20
58.8079874683
 30
0.0
 10
240.9197016075
 20
58.5828394943
 30
0.0
 10
240.6687039367
 20
58.5266316795
 30
0.0
 10
240.544782672
 20
58.5242963528
 30
0.0
  0
SPLINE
  5
3B0
100
AcDbEntity
  8
0
100
AcDbSpline
 62
7
  6
BYLAYER
 70
0
 71
3
 72
9
 73
5
 74
0
 42
0.0000001
 43
0.0000001
 44
0.0000000001
 40
0.0
 40
0.0
 40
0.0
 40
0.0
 40
0.2799425407
 40
1.0
 40
1.0
 40
1.0
 40
1.0
 10
241.6081995887
 20
61.3185916752
 30
0.0
 10
241.61322573
 20
61.3036596493
 30
0.0
 10
241.6286910563
 20
61.2498016345
 30
0.0
 10
241.6318033424
 20
61.1903735653
 30
0.0
 10
241.6203693738
 20
61.1514950199
 30
0.0
  0
SPLINE
  5
3B1
100
AcDbEntity
  8
0
100
AcDbSpline
 62
7
  6
BYLAYER
 70
0
 71
3
 72
8
 73
4
 74
0
 42
0.0000001
 43
0.0000001
 44
0.0000000001
 40
0.0
 40
0.0
 40
0.0
 40
0.0
 40
1.0
 40
1.0
 40
1.0
 40
1.0
 10
241.6203693738
 20
61.1514950199
 30
0.0
 10
241.6153752699
 20
61.1345137332
 30
0.0
 10
241.6076893153
 20
61.1180795255
 30
0.0
 10
241.5976598694
 20
61.1034947599
 30
0.0
  0
SPLINE
  5
3B2
100
AcDbEntity
  8
0
100
AcDbSpline
 62
7
  6
BYLAYER
 70
0
 71
3
 72
9
 73
5
 74
0
 42
0.0000001
 43
0.0000001
 44
0.0000000001
 40
0.0
 40
0.0
 40
0.0
 40
0.0
 40
0.7376631115
 40
1.0
 40
1.0
 40
1.0
 40
1.0
 10
241.5976598694
 20
61.1034947599
 30
0.0
 10
241.588001078
 20
61.089448998
 30
0.0
 10
241.5716762494
 20
61.0723796875
 30
0.0
 10
241.5526287795
 20
61.0592719787
 30
0.0
 10
241.5474730165
 20
61.0560831718
 30
0.0
  0
SPLINE
  5
3B3
100
AcDbEntity
  8
0
100
AcDbSpline
 62
7
  6
BYLAYER
 70
0
 71
3
 72
8
 73
4
 74
0
 42
0.0000001
 43
0.0000001
 44
0.0000000001
 40
0.0
 40
0.0
 40
0.0
 40
0.0
 40
1.0
 40
1.0
 40
1.0
 40
1.0
 10
241.6507005828
 20
61.5241345849
 30
0.0
 10
241.6507005828
 20
61.4541710007
 30
0.0
 10
241.6360321585
 20
61.3827811127
 30
0.0
 10
241.6081997021
 20
61.3185918809
 30
0.0
  0
SPLINE
  5
3B4
100
AcDbEntity
  8
0
100
AcDbSpline
 62
7
  6
BYLAYER
 70
0
 71
3
 72
9
 73
5
 74
0
 42
0.0000001
 43
0.0000001
 44
0.0000000001
 40
0.0
 40
0.0
 40
0.0
 40
0.0
 40
0.2703934266
 40
1.0
 40
1.0
 40
1.0
 40
1.0
 10
241.4891520516
 20
61.5241345849
 30
0.0
 10
241.502316368
 20
61.5071972539
 30
0.0
 10
241.5490152478
 20
61.4431190541
 30
0.0
 10
241.588019755
 20
61.3728435185
 30
0.0
 10
241.6081997021
 20
61.3185918809
 30
0.0
  0
SPLINE
  5
3B5
100
AcDbEntity
  8
0
100
AcDbSpline
 62
7
  6
BYLAYER
 70
0
 71
3
 72
11
 73
7
 74
0
 42
0.0000001
 43
0.0000001
 44
0.0000000001
 40
0.0
 40
0.0
 40
0.0
 40
0.0
 40
0.2454646712
 40
0.49351694
 40
0.7453862235
 40
1.0
 40
1.0
 40
1.0
 40
1.0
 10
239.4883822286
 20
58.5241345849
 30
0.0
 10
239.6136375455
 20
58.5241345849
 30
0.0
 10
239.8683875882
 20
58.5768716998
 30
0.0
 10
240.1878641272
 20
58.8009438065
 30
0.0
 10
240.4005337538
 20
59.1330645007
 30
0.0
 10
240.4499061762
 20
59.3942106773
 30
0.0
 10
240.4499061762
 20
59.5241345849
 30
0.0
  0
SPLINE
  5
3B6
100
AcDbEntity
  8
0
100
AcDbSpline
 62
7
  6
BYLAYER
 70
0
 71
3
 72
9
 73
5
 74
0
 42
0.0000001
 43
0.0000001
 44
0.0000000001
 40
0.0
 40
0.0
 40
0.0
 40
0.0
 40
0.2581441243
 40
1.0
 40
1.0
 40
1.0
 40
1.0
 10
192.581770199
 20
61.5241344391
 30
0.0
 10
192.5723905917
 20
61.4919411166
 30
0.0
 10
192.5400092228
 20
61.3661541527
 30
0.0
 10
192.5240256064
 20
61.2358247459
 30
0.0
 10
192.5240520697
 20
61.1394606621
 30
0.0
  0
SPLINE
  5
3B7
100
AcDbEntity
  8
0
100
AcDbSpline
 62
7
  6
BYLAYER
 70
0
 71
3
 72
9
 73
5
 74
0
 42
0.0000001
 43
0.0000001
 44
0.0000000001
 40
0.0
 40
0.0
 40
0.0
 40
0.0
 40
0.2541768028
 40
1.0
 40
1.0
 40
1.0
 40
1.0
 10
192.4627225107
 20
61.3185918808
 30
0.0
 10
192.4715995458
 20
61.3051237317
 30
0.0
 10
192.5030924936
 20
61.2499676564
 30
0.0
 10
192.520565557
 20
61.1866906441
 30
0.0
 10
192.5236617796
 20
61.1394608143
 30
0.0
  0
SPLINE
  5
3B8
100
AcDbEntity
  8
0
100
AcDbSpline
 62
7
  6
BYLAYER
 70
0
 71
3
 72
9
 73
5
 74
0
 42
0.0000001
 43
0.0000001
 44
0.0000000001
 40
0.0
 40
0.0
 40
0.0
 40
0.0
 40
0.27038548
 40
1.0
 40
1.0
 40
1.0
 40
1.0
 10
192.5817701612
 20
61.5241345849
 30
0.0
 10
192.5686062126
 20
61.5071977345
 30
0.0
 10
192.5219030115
 20
61.4431224997
 30
0.0
 10
192.4829027088
 20
61.3728441706
 30
0.0
 10
192.4627225107
 20
61.3185918809
 30
0.0
  0
SPLINE
  5
3B9
100
AcDbEntity
  8
0
100
AcDbSpline
 62
7
  6
BYLAYER
 70
0
 71
3
 72
8
 73
4
 74
0
 42
0.0000001
 43
0.0000001
 44
0.0000000001
 40
0.0
 40
0.0
 40
0.0
 40
0.0
 40
1.0
 40
1.0
 40
1.0
 40
1.0
 10
192.4627225107
 20
61.3185918809
 30
0.0
 10
192.4348900543
 20
61.3827811127
 30
0.0
 10
192.42022163
 20
61.4541710007
 30
0.0
 10
192.42022163
 20
61.5241345849
 30
0.0
  0
SPLINE
  5
3BA
100
AcDbEntity
  8
0
100
AcDbSpline
 62
7
  6
BYLAYER
 70
0
 71
3
 72
9
 73
5
 74
0
 42
0.0000001
 43
0.0000001
 44
0.0000000001
 40
0.0
 40
0.0
 40
0.0
 40
0.0
 40
0.2666839678
 40
1.0
 40
1.0
 40
1.0
 40
1.0
 10
192.5240050484
 20
61.0557407487
 30
0.0
 10
192.5147736839
 20
61.061405019
 30
0.0
 10
192.481969362
 20
61.0855882704
 30
0.0
 10
192.4591809455
 20
61.1224601635
 30
0.0
 10
192.4506969213
 20
61.1510076875
 30
0.0
  0
SPLINE
  5
3BB
100
AcDbEntity
  8
0
100
AcDbSpline
 62
7
  6
BYLAYER
 70
0
 71
3
 72
9
 73
5
 74
0
 42
0.0000001
 43
0.0000001
 44
0.0000000001
 40
0.0
 40
0.0
 40
0.0
 40
0.0
 40
0.2268944865
 40
1.0
 40
1.0
 40
1.0
 40
1.0
 10
192.4506969213
 20
61.1510076875
 30
0.0
 10
192.4470415458
 20
61.1633075017
 30
0.0
 10
192.4368689156
 20
61.2193655384
 30
0.0
 10
192.4487749583
 20
61.2771549036
 30
0.0
 10
192.4627226301
 20
61.3185916645
 30
0.0
  0
SPLINE
  5
3BC
100
AcDbEntity
  8
0
100
AcDbSpline
 62
7
  6
BYLAYER
 70
0
 71
3
 72
11
 73
7
 74
0
 42
0.0000001
 43
0.0000001
 44
0.0000000001
 40
0.0
 40
0.0
 40
0.0
 40
0.0
 40
0.2545253123
 40
0.5063269197
 40
0.7544493833
 40
1.0
 40
1.0
 40
1.0
 40
1.0
 10
193.6210160367
 20
59.5241345849
 30
0.0
 10
193.6210160367
 20
59.3942558435
 30
0.0
 10
193.6703534283
 20
59.1331917274
 30
0.0
 10
193.8829339513
 20
58.8010742308
 30
0.0
 10
194.2024087617
 20
58.5769100622
 30
0.0
 10
194.4572408353
 20
58.5241345849
 30
0.0
 10
194.5825399843
 20
58.5241345849
 30
0.0
  0
SPLINE
  5
3BD
100
AcDbEntity
  8
0
100
AcDbSpline
 62
7
  6
BYLAYER
 70
0
 71
3
 72
8
 73
4
 74
0
 42
0.0000001
 43
0.0000001
 44
0.0000000001
 40
0.0
 40
0.0
 40
0.0
 40
0.0
 40
1.0
 40
1.0
 40
1.0
 40
1.0
 10
389.2022285261
 20
61.1841450569
 30
0.0
 10
389.2115253779
 20
61.231677856
 30
0.0
 10
389.2306763906
 20
61.2781523944
 30
0.0
 10
389.2573305907
 20
61.3185918807
 30
0.0
  0
SPLINE
  5
3BE
100
AcDbEntity
  8
0
100
AcDbSpline
 62
7
  6
BYLAYER
 70
0
 71
3
 72
9
 73
5
 74
0
 42
0.0000001
 43
0.0000001
 44
0.0000000001
 40
0.0
 40
0.0
 40
0.0
 40
0.0
 40
0.2423551149
 40
1.0
 40
1.0
 40
1.0
 40
1.0
 10
389.1960010301
 20
61.1394470867
 30
0.0
 10
389.1960100487
 20
61.1709327562
 30
0.0
 10
389.1908050485
 20
61.3008340364
 30
0.0
 10
389.1658158967
 20
61.4296339315
 30
0.0
 10
389.1382829132
 20
61.5241344808
 30
0.0
  0
SPLINE
  5
3BF
100
AcDbEntity
  8
0
100
AcDbSpline
 62
7
  6
BYLAYER
 70
0
 71
3
 72
11
 73
7
 74
0
 42
0.0000001
 43
0.0000001
 44
0.0000000001
 40
0.0
 40
0.0
 40
0.0
 40
0.0
 40
0.2455000837
 40
0.4935877931
 40
0.7454492783
 40
1.0
 40
1.0
 40
1.0
 40
1.0
 10
341.1749880477
 20
58.5243015648
 30
0.0
 10
341.0511361528
 20
58.5266717902
 30
0.0
 10
340.8002837039
 20
58.5828982538
 30
0.0
 10
340.48710846
 20
58.807966382
 30
0.0
 10
340.2791352175
 20
59.1375602299
 30
0.0
 10
340.2309010498
 20
59.3956932357
 30
0.0
 10
340.2309010498
 20
59.5241345849
 30
0.0
  0
SPLINE
  5
3C0
100
AcDbEntity
  8
0
100
AcDbSpline
 62
7
  6
BYLAYER
 70
0
 71
3
 72
11
 73
7
 74
0
 42
0.0000001
 43
0.0000001
 44
0.0000000001
 40
0.0
 40
0.0
 40
0.0
 40
0.0
 40
0.2370154222
 40
0.4817461593
 40
0.7371748139
 40
1.0
 40
1.0
 40
1.0
 40
1.0
 10
344.3429512084
 20
58.5241345849
 30
0.0
 10
344.4598374912
 20
58.5241345849
 30
0.0
 10
344.7003789408
 20
58.5784033201
 30
0.0
 10
344.9971674958
 20
58.8050503391
 30
0.0
 10
345.1924510762
 20
59.1365526926
 30
0.0
 10
345.2373783994
 20
59.3945199854
 30
0.0
 10
345.2373783994
 20
59.5241345849
 30
0.0
  0
SPLINE
  5
3C1
100
AcDbEntity
  8
0
100
AcDbSpline
 62
7
  6
BYLAYER
 70
0
 71
3
 72
11
 73
7
 74
0
 42
0.0000001
 43
0.0000001
 44
0.0000000001
 40
0.0
 40
0.0
 40
0.0
 40
0.0
 40
0.2429770416
 40
0.4900484521
 40
0.7429376142
 40
1.0
 40
1.0
 40
1.0
 40
1.0
 10
344.6845911181
 20
58.5241345849
 30
0.0
 10
344.8076835872
 20
58.5241417331
 30
0.0
 10
345.0588492804
 20
58.5768899718
 30
0.0
 10
345.3735462731
 20
58.8008140845
 30
0.0
 10
345.5831438521
 20
59.1329157302
 30
0.0
 10
345.6318236129
 20
59.3939064628
 30
0.0
 10
345.6318244322
 20
59.5241345849
 30
0.0
  0
SPLINE
  5
3C2
100
AcDbEntity
  8
0
100
AcDbSpline
 62
7
  6
BYLAYER
 70
0
 71
3
 72
11
 73
7
 74
0
 42
0.0000001
 43
0.0000001
 44
0.0000000001
 40
0.0
 40
0.0
 40
0.0
 40
0.0
 40
0.2570642536
 40
0.5099515937
 40
0.7570212812
 40
1.0
 40
1.0
 40
1.0
 40
1.0
 10
383.7373594696
 20
59.5241345849
 30
0.0
 10
383.7373603009
 20
59.3939055015
 30
0.0
 10
383.7860402639
 20
59.1329145966
 30
0.0
 10
383.995638076
 20
58.8008142609
 30
0.0
 10
384.3103336939
 20
58.5768901451
 30
0.0
 10
384.5614995279
 20
58.5241416448
 30
0.0
 10
384.6845928609
 20
58.5241345849
 30
0.0
  0
SPLINE
  5
3C3
100
AcDbEntity
  8
0
100
AcDbSpline
 62
7
  6
BYLAYER
 70
0
 71
3
 72
11
 73
7
 74
0
 42
0.0000001
 43
0.0000001
 44
0.0000000001
 40
0.0
 40
0.0
 40
0.0
 40
0.0
 40
0.2627344212
 40
0.5180975916
 40
0.762900959
 40
1.0
 40
1.0
 40
1.0
 40
1.0
 10
384.1318055904
 20
59.5241345849
 30
0.0
 10
384.1318055904
 20
59.3945648173
 30
0.0
 10
384.1767016924
 20
59.1366767936
 30
0.0
 10
384.3719023922
 20
58.8051816565
 30
0.0
 10
384.668684736
 20
58.5784437052
 30
0.0
 10
384.9093053249
 20
58.5241345849
 30
0.0
 10
385.0262327814
 20
58.5241345849
 30
0.0
  0
SPLINE
  5
3C4
100
AcDbEntity
  8
0
100
AcDbSpline
 62
7
  6
BYLAYER
 70
0
 71
3
 72
11
 73
7
 74
0
 42
0.0000001
 43
0.0000001
 44
0.0000000001
 40
0.0
 40
0.0
 40
0.0
 40
0.0
 40
0.2544641196
 40
0.5062554122
 40
0.7544085347
 40
1.0
 40
1.0
 40
1.0
 40
1.0
 10
389.1382829401
 20
59.5241345849
 30
0.0
 10
389.1382829401
 20
59.3957135323
 30
0.0
 10
389.0900653593
 20
59.1376133113
 30
0.0
 10
388.8821029956
 20
58.8079874683
 30
0.0
 10
388.568832496
 20
58.5828394943
 30
0.0
 10
388.3178348252
 20
58.5266316795
 30
0.0
 10
388.1939135606
 20
58.5242963528
 30
0.0
  0
SPLINE
  5
3C5
100
AcDbEntity
  8
0
100
AcDbSpline
 62
7
  6
BYLAYER
 70
0
 71
3
 72
9
 73
5
 74
0
 42
0.0000001
 43
0.0000001
 44
0.0000000001
 40
0.0
 40
0.0
 40
0.0
 40
0.0
 40
0.2703934266
 40
1.0
 40
1.0
 40
1.0
 40
1.0
 10
389.1382829401
 20
61.5241345849
 30
0.0
 10
389.1514472566
 20
61.5071972539
 30
0.0
 10
389.1981461363
 20
61.4431190541
 30
0.0
 10
389.2371506435
 20
61.3728435185
 30
0.0
 10
389.2573305906
 20
61.3185918809
 30
0.0
  0
SPLINE
  5
3C6
100
AcDbEntity
  8
0
100
AcDbSpline
 62
7
  6
BYLAYER
 70
0
 71
3
 72
11
 73
7
 74
0
 42
0.0000001
 43
0.0000001
 44
0.0000000001
 40
0.0
 40
0.0
 40
0.0
 40
0.0
 40
0.2454646712
 40
0.49351694
 40
0.7453862235
 40
1.0
 40
1.0
 40
1.0
 40
1.0
 10
387.1375131171
 20
58.5241345849
 30
0.0
 10
387.262768434
 20
58.5241345849
 30
0.0
 10
387.5175184767
 20
58.5768716998
 30
0.0
 10
387.8369950157
 20
58.8009438065
 30
0.0
 10
388.0496646423
 20
59.1330645007
 30
0.0
 10
388.0990370647
 20
59.3942106773
 30
0.0
 10
388.0990370647
 20
59.5241345849
 30
0.0
  0
SPLINE
  5
3C7
100
AcDbEntity
  8
0
100
AcDbSpline
 62
7
  6
BYLAYER
 70
0
 71
3
 72
9
 73
5
 74
0
 42
0.0000001
 43
0.0000001
 44
0.0000000001
 40
0.0
 40
0.0
 40
0.0
 40
0.0
 40
0.2799425407
 40
1.0
 40
1.0
 40
1.0
 40
1.0
 10
389.2573304772
 20
61.3185916752
 30
0.0
 10
389.2623566185
 20
61.3036596493
 30
0.0
 10
389.2778219448
 20
61.2498016345
 30
0.0
 10
389.2809342309
 20
61.1903735653
 30
0.0
 10
389.2695002624
 20
61.1514950199
 30
0.0
  0
SPLINE
  5
3C8
100
AcDbEntity
  8
0
100
AcDbSpline
 62
7
  6
BYLAYER
 70
0
 71
3
 72
8
 73
4
 74
0
 42
0.0000001
 43
0.0000001
 44
0.0000000001
 40
0.0
 40
0.0
 40
0.0
 40
0.0
 40
1.0
 40
1.0
 40
1.0
 40
1.0
 10
389.2695002624
 20
61.1514950199
 30
0.0
 10
389.2645061584
 20
61.1345137332
 30
0.0
 10
389.2568202038
 20
61.1180795255
 30
0.0
 10
389.246790758
 20
61.1034947599
 30
0.0
  0
SPLINE
  5
3C9
100
AcDbEntity
  8
0
100
AcDbSpline
 62
7
  6
BYLAYER
 70
0
 71
3
 72
9
 73
5
 74
0
 42
0.0000001
 43
0.0000001
 44
0.0000000001
 40
0.0
 40
0.0
 40
0.0
 40
0.0
 40
0.7376631115
 40
1.0
 40
1.0
 40
1.0
 40
1.0
 10
389.246790758
 20
61.1034947599
 30
0.0
 10
389.2371319665
 20
61.089448998
 30
0.0
 10
389.220807138
 20
61.0723796875
 30
0.0
 10
389.201759668
 20
61.0592719787
 30
0.0
 10
389.1966039051
 20
61.0560831718
 30
0.0
  0
SPLINE
  5
3CA
100
AcDbEntity
  8
0
100
AcDbSpline
 62
7
  6
BYLAYER
 70
0
 71
3
 72
8
 73
4
 74
0
 42
0.0000001
 43
0.0000001
 44
0.0000000001
 40
0.0
 40
0.0
 40
0.0
 40
0.0
 40
1.0
 40
1.0
 40
1.0
 40
1.0
 10
389.2998314713
 20
61.5241345849
 30
0.0
 10
389.2998314713
 20
61.4541710007
 30
0.0
 10
389.285163047
 20
61.3827811127
 30
0.0
 10
389.2573305906
 20
61.3185918809
 30
0.0
  0
SPLINE
  5
3CB
100
AcDbEntity
  8
0
100
AcDbSpline
 62
7
  6
BYLAYER
 70
0
 71
3
 72
11
 73
7
 74
0
 42
0.0000001
 43
0.0000001
 44
0.0000000001
 40
0.0
 40
0.0
 40
0.0
 40
0.0
 40
0.2545253123
 40
0.5063269197
 40
0.7544493833
 40
1.0
 40
1.0
 40
1.0
 40
1.0
 10
341.2701469252
 20
59.5241345849
 30
0.0
 10
341.2701469252
 20
59.3942558435
 30
0.0
 10
341.3194843168
 20
59.1331917274
 30
0.0
 10
341.5320648398
 20
58.8010742308
 30
0.0
 10
341.8515396502
 20
58.5769100622
 30
0.0
 10
342.1063717238
 20
58.5241345849
 30
0.0
 10
342.2316708728
 20
58.5241345849
 30
0.0
  0
SPLINE
  5
3CC
100
AcDbEntity
  8
0
100
AcDbSpline
 62
7
  6
BYLAYER
 70
0
 71
3
 72
9
 73
5
 74
0
 42
0.0000001
 43
0.0000001
 44
0.0000000001
 40
0.0
 40
0.0
 40
0.0
 40
0.0
 40
0.2581441244
 40
1.0
 40
1.0
 40
1.0
 40
1.0
 10
340.2309010875
 20
61.5241344391
 30
0.0
 10
340.2215214802
 20
61.4919411165
 30
0.0
 10
340.1891401112
 20
61.3661541523
 30
0.0
 10
340.1731564949
 20
61.235824745
 30
0.0
 10
340.1731829582
 20
61.139460661
 30
0.0
  0
SPLINE
  5
3CD
100
AcDbEntity
  8
0
100
AcDbSpline
 62
7
  6
BYLAYER
 70
0
 71
3
 72
9
 73
5
 74
0
 42
0.0000001
 43
0.0000001
 44
0.0000000001
 40
0.0
 40
0.0
 40
0.0
 40
0.0
 40
0.2541768028
 40
1.0
 40
1.0
 40
1.0
 40
1.0
 10
340.1118533992
 20
61.3185918808
 30
0.0
 10
340.1207304344
 20
61.3051237316
 30
0.0
 10
340.1522233824
 20
61.249967656
 30
0.0
 10
340.1696964457
 20
61.1866906433
 30
0.0
 10
340.1727926682
 20
61.1394608131
 30
0.0
  0
SPLINE
  5
3CE
100
AcDbEntity
  8
0
100
AcDbSpline
 62
7
  6
BYLAYER
 70
0
 71
3
 72
9
 73
5
 74
0
 42
0.0000001
 43
0.0000001
 44
0.0000000001
 40
0.0
 40
0.0
 40
0.0
 40
0.0
 40
0.27038548
 40
1.0
 40
1.0
 40
1.0
 40
1.0
 10
340.2309010498
 20
61.5241345849
 30
0.0
 10
340.2177371011
 20
61.5071977345
 30
0.0
 10
340.1710339001
 20
61.4431224997
 30
0.0
 10
340.1320335973
 20
61.3728441706
 30
0.0
 10
340.1118533992
 20
61.3185918809
 30
0.0
  0
SPLINE
  5
3CF
100
AcDbEntity
  8
0
100
AcDbSpline
 62
7
  6
BYLAYER
 70
0
 71
3
 72
8
 73
4
 74
0
 42
0.0000001
 43
0.0000001
 44
0.0000000001
 40
0.0
 40
0.0
 40
0.0
 40
0.0
 40
1.0
 40
1.0
 40
1.0
 40
1.0
 10
340.1118533992
 20
61.3185918809
 30
0.0
 10
340.0840209429
 20
61.3827811127
 30
0.0
 10
340.0693525185
 20
61.4541710007
 30
0.0
 10
340.0693525185
 20
61.5241345849
 30
0.0
  0
SPLINE
  5
3D0
100
AcDbEntity
  8
0
100
AcDbSpline
 62
7
  6
BYLAYER
 70
0
 71
3
 72
9
 73
5
 74
0
 42
0.0000001
 43
0.0000001
 44
0.0000000001
 40
0.0
 40
0.0
 40
0.0
 40
0.0
 40
0.2666839678
 40
1.0
 40
1.0
 40
1.0
 40
1.0
 10
340.1731359369
 20
61.0557407487
 30
0.0
 10
340.1639045724
 20
61.061405019
 30
0.0
 10
340.1311002506
 20
61.0855882704
 30
0.0
 10
340.108311834
 20
61.1224601635
 30
0.0
 10
340.0998278099
 20
61.1510076875
 30
0.0
  0
SPLINE
  5
3D1
100
AcDbEntity
  8
0
100
AcDbSpline
 62
7
  6
BYLAYER
 70
0
 71
3
 72
9
 73
5
 74
0
 42
0.0000001
 43
0.0000001
 44
0.0000000001
 40
0.0
 40
0.0
 40
0.0
 40
0.0
 40
0.2268944865
 40
1.0
 40
1.0
 40
1.0
 40
1.0
 10
340.0998278099
 20
61.1510076875
 30
0.0
 10
340.0961724343
 20
61.1633075017
 30
0.0
 10
340.0859998041
 20
61.2193655384
 30
0.0
 10
340.0979058468
 20
61.2771549036
 30
0.0
 10
340.1118535186
 20
61.3185916645
 30
0.0
  0
SPLINE
  5
3D2
100
AcDbEntity
  8
0
100
AcDbSpline
 62
7
  6
BYLAYER
 70
0
 71
3
 72
8
 73
4
 74
0
 42
0.0000001
 43
0.0000001
 44
0.0000000001
 40
0.0
 40
0.0
 40
0.0
 40
0.0
 40
1.0
 40
1.0
 40
1.0
 40
1.0
 10
192.5185523863
 20
739.3642342514
 30
0.0
 10
192.5092555345
 20
739.3167014523
 30
0.0
 10
192.4901045218
 20
739.2702269139
 30
0.0
 10
192.4634503217
 20
739.2297874275
 30
0.0
  0
SPLINE
  5
3D3
100
AcDbEntity
  8
0
100
AcDbSpline
 62
7
  6
BYLAYER
 70
0
 71
3
 72
9
 73
5
 74
0
 42
0.0000001
 43
0.0000001
 44
0.0000000001
 40
0.0
 40
0.0
 40
0.0
 40
0.0
 40
0.2581441241
 40
1.0
 40
1.0
 40
1.0
 40
1.0
 10
241.4898798249
 20
739.0242448692
 30
0.0
 10
241.4992594319
 20
739.0564381909
 30
0.0
 10
241.5316408001
 20
739.1822251517
 30
0.0
 10
241.5476244167
 20
739.3125545553
 30
0.0
 10
241.5475979542
 20
739.4089186368
 30
0.0
  0
SPLINE
  5
3D4
100
AcDbEntity
  8
0
100
AcDbSpline
 62
7
  6
BYLAYER
 70
0
 71
3
 72
9
 73
5
 74
0
 42
0.0000001
 43
0.0000001
 44
0.0000000001
 40
0.0
 40
0.0
 40
0.0
 40
0.0
 40
0.2541768024
 40
1.0
 40
1.0
 40
1.0
 40
1.0
 10
241.6089275132
 20
739.2297874275
 30
0.0
 10
241.6000504785
 20
739.2432555759
 30
0.0
 10
241.568557532
 20
739.2984116484
 30
0.0
 10
241.5510844686
 20
739.3616886572
 30
0.0
 10
241.5479882449
 20
739.4089184847
 30
0.0
  0
SPLINE
  5
3D5
100
AcDbEntity
  8
0
100
AcDbSpline
 62
7
  6
BYLAYER
 70
0
 71
3
 72
9
 73
5
 74
0
 42
0.0000001
 43
0.0000001
 44
0.0000000001
 40
0.0
 40
0.0
 40
0.0
 40
0.0
 40
0.27038548
 40
1.0
 40
1.0
 40
1.0
 40
1.0
 10
241.4898798626
 20
739.0242447234
 30
0.0
 10
241.5030438113
 20
739.0411815738
 30
0.0
 10
241.5497470124
 20
739.1052568086
 30
0.0
 10
241.588747315
 20
739.1755351377
 30
0.0
 10
241.6089275132
 20
739.2297874274
 30
0.0
  0
SPLINE
  5
3D6
100
AcDbEntity
  8
0
100
AcDbSpline
 62
7
  6
BYLAYER
 70
0
 71
3
 72
9
 73
5
 74
0
 42
0.0000001
 43
0.0000001
 44
0.0000000001
 40
0.0
 40
0.0
 40
0.0
 40
0.0
 40
0.2666839678
 40
1.0
 40
1.0
 40
1.0
 40
1.0
 10
241.5476449754
 20
739.4926385595
 30
0.0
 10
241.55687634
 20
739.4869742893
 30
0.0
 10
241.5896806618
 20
739.4627910378
 30
0.0
 10
241.6124690784
 20
739.4259191448
 30
0.0
 10
241.6209531025
 20
739.3973716208
 30
0.0
  0
SPLINE
  5
3D7
100
AcDbEntity
  8
0
100
AcDbSpline
 62
7
  6
BYLAYER
 70
0
 71
3
 72
9
 73
5
 74
0
 42
0.0000001
 43
0.0000001
 44
0.0000000001
 40
0.0
 40
0.0
 40
0.0
 40
0.0
 40
0.2268944865
 40
1.0
 40
1.0
 40
1.0
 40
1.0
 10
241.6209531025
 20
739.3973716208
 30
0.0
 10
241.6246084781
 20
739.3850718066
 30
0.0
 10
241.6347811083
 20
739.3290137699
 30
0.0
 10
241.6228750656
 20
739.2712244046
 30
0.0
 10
241.6089273938
 20
739.2297876438
 30
0.0
  0
SPLINE
  5
3D8
100
AcDbEntity
  8
0
100
AcDbSpline
 62
7
  6
BYLAYER
 70
0
 71
3
 72
8
 73
4
 74
0
 42
0.0000001
 43
0.0000001
 44
0.0000000001
 40
0.0
 40
0.0
 40
0.0
 40
0.0
 40
1.0
 40
1.0
 40
1.0
 40
1.0
 10
241.6089275132
 20
739.2297874274
 30
0.0
 10
241.6367599695
 20
739.1655981955
 30
0.0
 10
241.6514283939
 20
739.0942083076
 30
0.0
 10
241.6514283939
 20
739.0242447234
 30
0.0
  0
SPLINE
  5
3D9
100
AcDbEntity
  8
0
100
AcDbSpline
 62
7
  6
BYLAYER
 70
0
 71
3
 72
9
 73
5
 74
0
 42
0.0000001
 43
0.0000001
 44
0.0000000001
 40
0.0
 40
0.0
 40
0.0
 40
0.0
 40
0.242355115
 40
1.0
 40
1.0
 40
1.0
 40
1.0
 10
192.5247798823
 20
739.4089322208
 30
0.0
 10
192.5247708637
 20
739.3774465513
 30
0.0
 10
192.529975864
 20
739.2475452714
 30
0.0
 10
192.5549650158
 20
739.1187453766
 30
0.0
 10
192.5824979992
 20
739.0242448274
 30
0.0
  0
SPLINE
  5
3DA
100
AcDbEntity
  8
0
100
AcDbSpline
 62
7
  6
BYLAYER
 70
0
 71
3
 72
11
 73
7
 74
0
 42
0.0000001
 43
0.0000001
 44
0.0000000001
 40
0.0
 40
0.0
 40
0.0
 40
0.0
 40
0.2545253123
 40
0.5063269197
 40
0.7544493833
 40
1.0
 40
1.0
 40
1.0
 40
1.0
 10
240.4506339872
 20
741.0242447234
 30
0.0
 10
240.4506339872
 20
741.1541234647
 30
0.0
 10
240.4012965956
 20
741.4151875808
 30
0.0
 10
240.1887160726
 20
741.7473050774
 30
0.0
 10
239.8692412622
 20
741.9714692461
 30
0.0
 10
239.6144091886
 20
742.0242447234
 30
0.0
 10
239.4891100396
 20
742.0242447234
 30
0.0
  0
SPLINE
  5
3DB
100
AcDbEntity
  8
0
100
AcDbSpline
 62
7
  6
BYLAYER
 70
0
 71
3
 72
9
 73
5
 74
0
 42
0.0000001
 43
0.0000001
 44
0.0000000001
 40
0.0
 40
0.0
 40
0.0
 40
0.0
 40
0.2799425408
 40
1.0
 40
1.0
 40
1.0
 40
1.0
 10
192.4634504352
 20
739.2297876331
 30
0.0
 10
192.4584242939
 20
739.244719659
 30
0.0
 10
192.4429589675
 20
739.2985776737
 30
0.0
 10
192.4398466815
 20
739.358005743
 30
0.0
 10
192.45128065
 20
739.3968842884
 30
0.0
  0
SPLINE
  5
3DC
100
AcDbEntity
  8
0
100
AcDbSpline
 62
7
  6
BYLAYER
 70
0
 71
3
 72
8
 73
4
 74
0
 42
0.0000001
 43
0.0000001
 44
0.0000000001
 40
0.0
 40
0.0
 40
0.0
 40
0.0
 40
1.0
 40
1.0
 40
1.0
 40
1.0
 10
192.45128065
 20
739.3968842884
 30
0.0
 10
192.456274754
 20
739.4138655751
 30
0.0
 10
192.4639607086
 20
739.4302997828
 30
0.0
 10
192.4739901544
 20
739.4448845483
 30
0.0
  0
SPLINE
  5
3DD
100
AcDbEntity
  8
0
100
AcDbSpline
 62
7
  6
BYLAYER
 70
0
 71
3
 72
9
 73
5
 74
0
 42
0.0000001
 43
0.0000001
 44
0.0000000001
 40
0.0
 40
0.0
 40
0.0
 40
0.0
 40
0.7376631115
 40
1.0
 40
1.0
 40
1.0
 40
1.0
 10
192.4739901544
 20
739.4448845483
 30
0.0
 10
192.4836489459
 20
739.4589303103
 30
0.0
 10
192.4999737744
 20
739.4759996208
 30
0.0
 10
192.5190212443
 20
739.4891073295
 30
0.0
 10
192.5241770073
 20
739.4922961365
 30
0.0
  0
SPLINE
  5
3DE
100
AcDbEntity
  8
0
100
AcDbSpline
 62
7
  6
BYLAYER
 70
0
 71
3
 72
11
 73
7
 74
0
 42
0.0000001
 43
0.0000001
 44
0.0000000001
 40
0.0
 40
0.0
 40
0.0
 40
0.0
 40
0.2454646712
 40
0.49351694
 40
0.7453862235
 40
1.0
 40
1.0
 40
1.0
 40
1.0
 10
194.5832677953
 20
742.0242447234
 30
0.0
 10
194.4580124784
 20
742.0242447234
 30
0.0
 10
194.2032624357
 20
741.9715076085
 30
0.0
 10
193.8837858967
 20
741.7474355017
 30
0.0
 10
193.6711162701
 20
741.4153148075
 30
0.0
 10
193.6217438477
 20
741.154168631
 30
0.0
 10
193.6217438477
 20
741.0242447234
 30
0.0
  0
SPLINE
  5
3DF
100
AcDbEntity
  8
0
100
AcDbSpline
 62
7
  6
BYLAYER
 70
0
 71
3
 72
9
 73
5
 74
0
 42
0.0000001
 43
0.0000001
 44
0.0000000001
 40
0.0
 40
0.0
 40
0.0
 40
0.0
 40
0.2703934266
 40
1.0
 40
1.0
 40
1.0
 40
1.0
 10
192.5824979723
 20
739.0242447234
 30
0.0
 10
192.5693336558
 20
739.0411820543
 30
0.0
 10
192.5226347761
 20
739.1052602542
 30
0.0
 10
192.4836302689
 20
739.1755357898
 30
0.0
 10
192.4634503217
 20
739.2297874274
 30
0.0
  0
SPLINE
  5
3E0
100
AcDbEntity
  8
0
100
AcDbSpline
 62
7
  6
BYLAYER
 70
0
 71
3
 72
11
 73
7
 74
0
 42
0.0000001
 43
0.0000001
 44
0.0000000001
 40
0.0
 40
0.0
 40
0.0
 40
0.0
 40
0.2544641196
 40
0.5062554122
 40
0.7544085347
 40
1.0
 40
1.0
 40
1.0
 40
1.0
 10
192.5824979723
 20
741.0242447234
 30
0.0
 10
192.5824979723
 20
741.1526657759
 30
0.0
 10
192.6307155531
 20
741.4107659969
 30
0.0
 10
192.8386779168
 20
741.7403918399
 30
0.0
 10
193.1519484164
 20
741.965539814
 30
0.0
 10
193.4029460872
 20
742.0217476288
 30
0.0
 10
193.5268673518
 20
742.0240829554
 30
0.0
  0
SPLINE
  5
3E1
100
AcDbEntity
  8
0
100
AcDbSpline
 62
7
  6
BYLAYER
 70
0
 71
3
 72
11
 73
7
 74
0
 42
0.0000001
 43
0.0000001
 44
0.0000000001
 40
0.0
 40
0.0
 40
0.0
 40
0.0
 40
0.2627344212
 40
0.5180975916
 40
0.762900959
 40
1.0
 40
1.0
 40
1.0
 40
1.0
 10
197.588975322
 20
741.0242447234
 30
0.0
 10
197.588975322
 20
741.1538144909
 30
0.0
 10
197.54407922
 20
741.4117025147
 30
0.0
 10
197.3488785202
 20
741.7431976518
 30
0.0
 10
197.0520961764
 20
741.969935603
 30
0.0
 10
196.8114755875
 20
742.0242447234
 30
0.0
 10
196.694548131
 20
742.0242447234
 30
0.0
  0
SPLINE
  5
3E2
100
AcDbEntity
  8
0
100
AcDbSpline
 62
7
  6
BYLAYER
 70
0
 71
3
 72
11
 73
7
 74
0
 42
0.0000001
 43
0.0000001
 44
0.0000000001
 40
0.0
 40
0.0
 40
0.0
 40
0.0
 40
0.2570642536
 40
0.5099515937
 40
0.7570212812
 40
1.0
 40
1.0
 40
1.0
 40
1.0
 10
197.9834214428
 20
741.0242447234
 30
0.0
 10
197.9834206115
 20
741.1544738067
 30
0.0
 10
197.9347406485
 20
741.4154647116
 30
0.0
 10
197.7251428364
 20
741.7475650473
 30
0.0
 10
197.4104472185
 20
741.9714891632
 30
0.0
 10
197.1592813845
 20
742.0242376634
 30
0.0
 10
197.0361880515
 20
742.0242447234
 30
0.0
  0
SPLINE
  5
3E3
100
AcDbEntity
  8
0
100
AcDbSpline
 62
7
  6
BYLAYER
 70
0
 71
3
 72
11
 73
7
 74
0
 42
0.0000001
 43
0.0000001
 44
0.0000000001
 40
0.0
 40
0.0
 40
0.0
 40
0.0
 40
0.2429770416
 40
0.4900484521
 40
0.7429376142
 40
1.0
 40
1.0
 40
1.0
 40
1.0
 10
237.0361897943
 20
742.0242447234
 30
0.0
 10
236.9130973252
 20
742.0242375752
 30
0.0
 10
236.661931632
 20
741.9714893365
 30
0.0
 10
236.3472346393
 20
741.7475652237
 30
0.0
 10
236.1376370603
 20
741.415463578
 30
0.0
 10
236.0889572995
 20
741.1544728454
 30
0.0
 10
236.0889564802
 20
741.0242447234
 30
0.0
  0
SPLINE
  5
3E4
100
AcDbEntity
  8
0
100
AcDbSpline
 62
7
  6
BYLAYER
 70
0
 71
3
 72
11
 73
7
 74
0
 42
0.0000001
 43
0.0000001
 44
0.0000000001
 40
0.0
 40
0.0
 40
0.0
 40
0.0
 40
0.2370154222
 40
0.4817461593
 40
0.7371748139
 40
1.0
 40
1.0
 40
1.0
 40
1.0
 10
237.377829704
 20
742.0242447234
 30
0.0
 10
237.2609434212
 20
742.0242447234
 30
0.0
 10
237.0204019716
 20
741.9699759881
 30
0.0
 10
236.7236134166
 20
741.7433289691
 30
0.0
 10
236.5283298362
 20
741.4118266156
 30
0.0
 10
236.483402513
 20
741.1538593228
 30
0.0
 10
236.483402513
 20
741.0242447234
 30
0.0
  0
SPLINE
  5
3E5
100
AcDbEntity
  8
0
100
AcDbSpline
 62
7
  6
BYLAYER
 70
0
 71
3
 72
11
 73
7
 74
0
 42
0.0000001
 43
0.0000001
 44
0.0000000001
 40
0.0
 40
0.0
 40
0.0
 40
0.0
 40
0.2455000837
 40
0.4935877931
 40
0.7454492783
 40
1.0
 40
1.0
 40
1.0
 40
1.0
 10
240.5457928647
 20
742.0240777435
 30
0.0
 10
240.6696447596
 20
742.0217075181
 30
0.0
 10
240.9204972085
 20
741.9654810545
 30
0.0
 10
241.2336724524
 20
741.7404129262
 30
0.0
 10
241.4416456949
 20
741.4108190783
 30
0.0
 10
241.4898798626
 20
741.1526860725
 30
0.0
 10
241.4898798626
 20
741.0242447234
 30
0.0
  0
SPLINE
  5
3E6
100
AcDbEntity
  8
0
100
AcDbSpline
 62
7
  6
BYLAYER
 70
0
 71
3
 72
8
 73
4
 74
0
 42
0.0000001
 43
0.0000001
 44
0.0000000001
 40
0.0
 40
0.0
 40
0.0
 40
0.0
 40
1.0
 40
1.0
 40
1.0
 40
1.0
 10
192.420949441
 20
739.0242447234
 30
0.0
 10
192.420949441
 20
739.0942083076
 30
0.0
 10
192.4356178654
 20
739.1655981955
 30
0.0
 10
192.4634503217
 20
739.2297874274
 30
0.0
  0
SPLINE
  5
3E7
100
AcDbEntity
  8
0
100
AcDbSpline
 62
7
  6
BYLAYER
 70
0
 71
3
 72
8
 73
4
 74
0
 42
0.0000001
 43
0.0000001
 44
0.0000000001
 40
0.0
 40
0.0
 40
0.0
 40
0.0
 40
1.0
 40
1.0
 40
1.0
 40
1.0
 10
340.1676832748
 20
739.3642342514
 30
0.0
 10
340.1583864231
 20
739.3167014523
 30
0.0
 10
340.1392354103
 20
739.2702269139
 30
0.0
 10
340.1125812102
 20
739.2297874275
 30
0.0
  0
SPLINE
  5
3E8
100
AcDbEntity
  8
0
100
AcDbSpline
 62
7
  6
BYLAYER
 70
0
 71
3
 72
9
 73
5
 74
0
 42
0.0000001
 43
0.0000001
 44
0.0000000001
 40
0.0
 40
0.0
 40
0.0
 40
0.0
 40
0.2581441241
 40
1.0
 40
1.0
 40
1.0
 40
1.0
 10
389.1390107134
 20
739.0242448692
 30
0.0
 10
389.1483903205
 20
739.0564381909
 30
0.0
 10
389.1807716887
 20
739.1822251521
 30
0.0
 10
389.1967553053
 20
739.3125545561
 30
0.0
 10
389.1967288427
 20
739.4089186379
 30
0.0
  0
SPLINE
  5
3E9
100
AcDbEntity
  8
0
100
AcDbSpline
 62
7
  6
BYLAYER
 70
0
 71
3
 72
9
 73
5
 74
0
 42
0.0000001
 43
0.0000001
 44
0.0000000001
 40
0.0
 40
0.0
 40
0.0
 40
0.0
 40
0.2541768025
 40
1.0
 40
1.0
 40
1.0
 40
1.0
 10
389.2580584017
 20
739.2297874275
 30
0.0
 10
389.249181367
 20
739.243255576
 30
0.0
 10
389.2176884203
 20
739.2984116488
 30
0.0
 10
389.2002153569
 20
739.3616886579
 30
0.0
 10
389.1971191334
 20
739.4089184857
 30
0.0
  0
SPLINE
  5
3EA
100
AcDbEntity
  8
0
100
AcDbSpline
 62
7
  6
BYLAYER
 70
0
 71
3
 72
9
 73
5
 74
0
 42
0.0000001
 43
0.0000001
 44
0.0000000001
 40
0.0
 40
0.0
 40
0.0
 40
0.0
 40
0.27038548
 40
1.0
 40
1.0
 40
1.0
 40
1.0
 10
389.1390107512
 20
739.0242447234
 30
0.0
 10
389.1521746998
 20
739.0411815738
 30
0.0
 10
389.1988779009
 20
739.1052568086
 30
0.0
 10
389.2378782036
 20
739.1755351377
 30
0.0
 10
389.2580584017
 20
739.2297874274
 30
0.0
  0
SPLINE
  5
3EB
100
AcDbEntity
  8
0
100
AcDbSpline
 62
7
  6
BYLAYER
 70
0
 71
3
 72
9
 73
5
 74
0
 42
0.0000001
 43
0.0000001
 44
0.0000000001
 40
0.0
 40
0.0
 40
0.0
 40
0.0
 40
0.2666839678
 40
1.0
 40
1.0
 40
1.0
 40
1.0
 10
389.196775864
 20
739.4926385595
 30
0.0
 10
389.2060072285
 20
739.4869742893
 30
0.0
 10
389.2388115504
 20
739.4627910378
 30
0.0
 10
389.2615999669
 20
739.4259191448
 30
0.0
 10
389.2700839911
 20
739.3973716208
 30
0.0
  0
SPLINE
  5
3EC
100
AcDbEntity
  8
0
100
AcDbSpline
 62
7
  6
BYLAYER
 70
0
 71
3
 72
9
 73
5
 74
0
 42
0.0000001
 43
0.0000001
 44
0.0000000001
 40
0.0
 40
0.0
 40
0.0
 40
0.0
 40
0.2268944865
 40
1.0
 40
1.0
 40
1.0
 40
1.0
 10
389.2700839911
 20
739.3973716208
 30
0.0
 10
389.2737393666
 20
739.3850718066
 30
0.0
 10
389.2839119968
 20
739.3290137699
 30
0.0
 10
389.2720059541
 20
739.2712244046
 30
0.0
 10
389.2580582823
 20
739.2297876438
 30
0.0
  0
SPLINE
  5
3ED
100
AcDbEntity
  8
0
100
AcDbSpline
 62
7
  6
BYLAYER
 70
0
 71
3
 72
8
 73
4
 74
0
 42
0.0000001
 43
0.0000001
 44
0.0000000001
 40
0.0
 40
0.0
 40
0.0
 40
0.0
 40
1.0
 40
1.0
 40
1.0
 40
1.0
 10
389.2580584017
 20
739.2297874274
 30
0.0
 10
389.2858908581
 20
739.1655981955
 30
0.0
 10
389.3005592824
 20
739.0942083076
 30
0.0
 10
389.3005592824
 20
739.0242447234
 30
0.0
  0
SPLINE
  5
3EE
100
AcDbEntity
  8
0
100
AcDbSpline
 62
7
  6
BYLAYER
 70
0
 71
3
 72
9
 73
5
 74
0
 42
0.0000001
 43
0.0000001
 44
0.0000000001
 40
0.0
 40
0.0
 40
0.0
 40
0.0
 40
0.242355115
 40
1.0
 40
1.0
 40
1.0
 40
1.0
 10
340.1739107708
 20
739.408932221
 30
0.0
 10
340.1739017522
 20
739.3774465515
 30
0.0
 10
340.1791067525
 20
739.2475452716
 30
0.0
 10
340.2040959043
 20
739.1187453766
 30
0.0
 10
340.2316288877
 20
739.0242448274
 30
0.0
  0
SPLINE
  5
3EF
100
AcDbEntity
  8
0
100
AcDbSpline
 62
7
  6
BYLAYER
 70
0
 71
3
 72
11
 73
7
 74
0
 42
0.0000001
 43
0.0000001
 44
0.0000000001
 40
0.0
 40
0.0
 40
0.0
 40
0.0
 40
0.2545253123
 40
0.5063269197
 40
0.7544493833
 40
1.0
 40
1.0
 40
1.0
 40
1.0
 10
388.0997648757
 20
741.0242447234
 30
0.0
 10
388.0997648757
 20
741.1541234647
 30
0.0
 10
388.0504274841
 20
741.4151875808
 30
0.0
 10
387.8378469611
 20
741.7473050774
 30
0.0
 10
387.5183721507
 20
741.9714692461
 30
0.0
 10
387.2635400771
 20
742.0242447234
 30
0.0
 10
387.1382409281
 20
742.0242447234
 30
0.0
  0
SPLINE
  5
3F0
100
AcDbEntity
  8
0
100
AcDbSpline
 62
7
  6
BYLAYER
 70
0
 71
3
 72
11
 73
7
 74
0
 42
0.0000001
 43
0.0000001
 44
0.0000000001
 40
0.0
 40
0.0
 40
0.0
 40
0.0
 40
0.2454646712
 40
0.49351694
 40
0.7453862235
 40
1.0
 40
1.0
 40
1.0
 40
1.0
 10
342.2323986838
 20
742.0242447234
 30
0.0
 10
342.1071433669
 20
742.0242447234
 30
0.0
 10
341.8523933242
 20
741.9715076085
 30
0.0
 10
341.5329167852
 20
741.7474355017
 30
0.0
 10
341.3202471586
 20
741.4153148075
 30
0.0
 10
341.2708747362
 20
741.154168631
 30
0.0
 10
341.2708747362
 20
741.0242447234
 30
0.0
  0
SPLINE
  5
3F1
100
AcDbEntity
  8
0
100
AcDbSpline
 62
7
  6
BYLAYER
 70
0
 71
3
 72
9
 73
5
 74
0
 42
0.0000001
 43
0.0000001
 44
0.0000000001
 40
0.0
 40
0.0
 40
0.0
 40
0.0
 40
0.2703934266
 40
1.0
 40
1.0
 40
1.0
 40
1.0
 10
340.2316288608
 20
739.0242447234
 30
0.0
 10
340.2184645444
 20
739.0411820543
 30
0.0
 10
340.1717656646
 20
739.1052602542
 30
0.0
 10
340.1327611574
 20
739.1755357898
 30
0.0
 10
340.1125812103
 20
739.2297874274
 30
0.0
  0
SPLINE
  5
3F2
100
AcDbEntity
  8
0
100
AcDbSpline
 62
7
  6
BYLAYER
 70
0
 71
3
 72
11
 73
7
 74
0
 42
0.0000001
 43
0.0000001
 44
0.0000000001
 40
0.0
 40
0.0
 40
0.0
 40
0.0
 40
0.2544641196
 40
0.5062554122
 40
0.7544085347
 40
1.0
 40
1.0
 40
1.0
 40
1.0
 10
340.2316288608
 20
741.0242447234
 30
0.0
 10
340.2316288608
 20
741.1526657759
 30
0.0
 10
340.2798464416
 20
741.4107659969
 30
0.0
 10
340.4878088053
 20
741.7403918399
 30
0.0
 10
340.8010793049
 20
741.965539814
 30
0.0
 10
341.0520769757
 20
742.0217476288
 30
0.0
 10
341.1759982404
 20
742.0240829554
 30
0.0
  0
SPLINE
  5
3F3
100
AcDbEntity
  8
0
100
AcDbSpline
 62
7
  6
BYLAYER
 70
0
 71
3
 72
11
 73
7
 74
0
 42
0.0000001
 43
0.0000001
 44
0.0000000001
 40
0.0
 40
0.0
 40
0.0
 40
0.0
 40
0.2627344212
 40
0.5180975916
 40
0.762900959
 40
1.0
 40
1.0
 40
1.0
 40
1.0
 10
345.2381062105
 20
741.0242447234
 30
0.0
 10
345.2381062105
 20
741.1538144909
 30
0.0
 10
345.1932101086
 20
741.4117025147
 30
0.0
 10
344.9980094087
 20
741.7431976518
 30
0.0
 10
344.701227065
 20
741.969935603
 30
0.0
 10
344.460606476
 20
742.0242447234
 30
0.0
 10
344.3436790195
 20
742.0242447234
 30
0.0
  0
SPLINE
  5
3F4
100
AcDbEntity
  8
0
100
AcDbSpline
 62
7
  6
BYLAYER
 70
0
 71
3
 72
11
 73
7
 74
0
 42
0.0000001
 43
0.0000001
 44
0.0000000001
 40
0.0
 40
0.0
 40
0.0
 40
0.0
 40
0.2570642536
 40
0.5099515937
 40
0.7570212812
 40
1.0
 40
1.0
 40
1.0
 40
1.0
 10
345.6325523313
 20
741.0242447234
 30
0.0
 10
345.6325515
 20
741.1544738067
 30
0.0
 10
345.583871537
 20
741.4154647116
 30
0.0
 10
345.3742737249
 20
741.7475650473
 30
0.0
 10
345.059578107
 20
741.9714891632
 30
0.0
 10
344.808412273
 20
742.0242376634
 30
0.0
 10
344.68531894
 20
742.0242447234
 30
0.0
  0
SPLINE
  5
3F5
100
AcDbEntity
  8
0
100
AcDbSpline
 62
7
  6
BYLAYER
 70
0
 71
3
 72
11
 73
7
 74
0
 42
0.0000001
 43
0.0000001
 44
0.0000000001
 40
0.0
 40
0.0
 40
0.0
 40
0.0
 40
0.2429770416
 40
0.4900484521
 40
0.7429376142
 40
1.0
 40
1.0
 40
1.0
 40
1.0
 10
384.6853206828
 20
742.0242447234
 30
0.0
 10
384.5622282137
 20
742.0242375752
 30
0.0
 10
384.3110625205
 20
741.9714893365
 30
0.0
 10
383.9963655279
 20
741.7475652237
 30
0.0
 10
383.7867679489
 20
741.415463578
 30
0.0
 10
383.738088188
 20
741.1544728454
 30
0.0
 10
383.7380873687
 20
741.0242447234
 30
0.0
  0
SPLINE
  5
3F6
100
AcDbEntity
  8
0
100
AcDbSpline
 62
7
  6
BYLAYER
 70
0
 71
3
 72
11
 73
7
 74
0
 42
0.0000001
 43
0.0000001
 44
0.0000000001
 40
0.0
 40
0.0
 40
0.0
 40
0.0
 40
0.2370154222
 40
0.4817461593
 40
0.7371748139
 40
1.0
 40
1.0
 40
1.0
 40
1.0
 10
385.0269605925
 20
742.0242447234
 30
0.0
 10
384.9100743098
 20
742.0242447234
 30
0.0
 10
384.6695328601
 20
741.9699759881
 30
0.0
 10
384.3727443051
 20
741.7433289691
 30
0.0
 10
384.1774607247
 20
741.4118266156
 30
0.0
 10
384.1325334015
 20
741.1538593228
 30
0.0
 10
384.1325334015
 20
741.0242447234
 30
0.0
  0
SPLINE
  5
3F7
100
AcDbEntity
  8
0
100
AcDbSpline
 62
7
  6
BYLAYER
 70
0
 71
3
 72
11
 73
7
 74
0
 42
0.0000001
 43
0.0000001
 44
0.0000000001
 40
0.0
 40
0.0
 40
0.0
 40
0.0
 40
0.2455000837
 40
0.4935877931
 40
0.7454492783
 40
1.0
 40
1.0
 40
1.0
 40
1.0
 10
388.1949237532
 20
742.0240777435
 30
0.0
 10
388.3187756481
 20
742.0217075181
 30
0.0
 10
388.569628097
 20
741.9654810545
 30
0.0
 10
388.8828033409
 20
741.7404129262
 30
0.0
 10
389.0907765834
 20
741.4108190783
 30
0.0
 10
389.1390107512
 20
741.1526860725
 30
0.0
 10
389.1390107512
 20
741.0242447234
 30
0.0
  0
SPLINE
  5
3F8
100
AcDbEntity
  8
0
100
AcDbSpline
 62
7
  6
BYLAYER
 70
0
 71
3
 72
9
 73
5
 74
0
 42
0.0000001
 43
0.0000001
 44
0.0000000001
 40
0.0
 40
0.0
 40
0.0
 40
0.0
 40
0.2799425408
 40
1.0
 40
1.0
 40
1.0
 40
1.0
 10
340.1125813237
 20
739.2297876331
 30
0.0
 10
340.1075551824
 20
739.244719659
 30
0.0
 10
340.0920898561
 20
739.2985776737
 30
0.0
 10
340.08897757
 20
739.358005743
 30
0.0
 10
340.1004115386
 20
739.3968842884
 30
0.0
  0
SPLINE
  5
3F9
100
AcDbEntity
  8
0
100
AcDbSpline
 62
7
  6
BYLAYER
 70
0
 71
3
 72
8
 73
4
 74
0
 42
0.0000001
 43
0.0000001
 44
0.0000000001
 40
0.0
 40
0.0
 40
0.0
 40
0.0
 40
1.0
 40
1.0
 40
1.0
 40
1.0
 10
340.1004115386
 20
739.3968842884
 30
0.0
 10
340.1054056425
 20
739.4138655751
 30
0.0
 10
340.1130915971
 20
739.4302997828
 30
0.0
 10
340.1231210429
 20
739.4448845483
 30
0.0
  0
SPLINE
  5
3FA
100
AcDbEntity
  8
0
100
AcDbSpline
 62
7
  6
BYLAYER
 70
0
 71
3
 72
9
 73
5
 74
0
 42
0.0000001
 43
0.0000001
 44
0.0000000001
 40
0.0
 40
0.0
 40
0.0
 40
0.0
 40
0.7376631115
 40
1.0
 40
1.0
 40
1.0
 40
1.0
 10
340.1231210429
 20
739.4448845483
 30
0.0
 10
340.1327798344
 20
739.4589303103
 30
0.0
 10
340.149104663
 20
739.4759996208
 30
0.0
 10
340.1681521329
 20
739.4891073295
 30
0.0
 10
340.1733078959
 20
739.4922961365
 30
0.0
  0
SPLINE
  5
3FB
100
AcDbEntity
  8
0
100
AcDbSpline
 62
7
  6
BYLAYER
 70
0
 71
3
 72
8
 73
4
 74
0
 42
0.0000001
 43
0.0000001
 44
0.0000000001
 40
0.0
 40
0.0
 40
0.0
 40
0.0
 40
1.0
 40
1.0
 40
1.0
 40
1.0
 10
340.0700803296
 20
739.0242447234
 30
0.0
 10
340.0700803296
 20
739.0942083076
 30
0.0
 10
340.0847487539
 20
739.1655981955
 30
0.0
 10
340.1125812103
 20
739.2297874274
 30
0.0
  0
ENDSEC
  0
SECTION
  2
OBJECTS
  0
DICTIONARY
  5
C
100
AcDbDictionary
280
0
281
1
  3
ACAD_GROUP
350
D
  3
ACAD_MLINESTYLE
350
17
  3
ACAD_LAYOUT
350
1A
  3
ACAD_PLOTSETTINGS
350
19
  3
ACAD_PLOTSTYLENAME
350
E
  0
DICTIONARY
  5
D
102
{ACAD_REACTORS
330
C
102
}
100
AcDbDictionary
280
0
281
1
  0
ACDBDICTIONARYWDFLT
  5
E
102
{ACAD_REACTORS
330
C
102
}
100
AcDbDictionary
281
1
  3
Normal
350
F
100
AcDbDictionaryWithDefault
340
F
  0
DICTIONARY
  5
17
102
{ACAD_REACTORS
330
C
102
}
100
AcDbDictionary
280
0
281
1
  3
Standard
350
18
  0
DICTIONARY
  5
19
102
{ACAD_REACTORS
330
C
102
}
100
AcDbDictionary
281
1
  0
DICTIONARY
  5
1A
102
{ACAD_REACTORS
330
C
102
}
100
AcDbDictionary
281
1
  3
Model
350
3FC
  3
Layout1
350
3FD
  0
ACDBPLACEHOLDER
  5
F
102
{ACAD_REACTORS
330
E
102
}
  0
MLINESTYLE
  5
18
102
{ACAD_REACTORS
330
17
102
}
100
AcDbMlineStyle
  2
STANDARD
 70
0
  3

 62
256
 51
90.0
 52
90.0
 71
2
 49
0.5
 62
256
  6
BYLAYER
 49
-0.5
 62
256
  6
BYLAYER
  0
LAYOUT
  5
3FC
102
{ACAD_REACTORS
330
1A
102
}
100
AcDbPlotSettings
  1

  2
none_device
  4

  6

 40
0.0
 41
0.0
 42
0.0
 43
0.0
 44
210.0
 45
297.0
 46
0.0
 47
0.0
 48
0.0
 49
0.0
140
0.0
141
0.0
142
1.0
143
1.0
 70
1024
 72
1
 73
0
 74
0
  7

 75
0
147
1.0
148
0.0
149
0.0
100
AcDbLayout
  1
Model
 70
0
 71
0
 10
0.0
 20
0.0
 11
210.0
 21
297.0
 12
0.0
 22
0.0
 32
0.0
 14
0.0
 24
0.0
 34
0.0
 15
0.0
 25
0.0
 35
0.0
146
0.0
 13
0.0
 23
0.0
 33
0.0
 16
1.0
 26
0.0
 36
0.0
 17
0.0
 27
1.0
 37
0.0
 76
0
330
212
345
0
346
0
  0
LAYOUT
  5
3FD
102
{ACAD_REACTORS
330
1A
102
}
100
AcDbPlotSettings
  1

  2
none_device
  4

  6

 40
0.0
 41
0.0
 42
0.0
 43
0.0
 44
210.0
 45
297.0
 46
0.0
 47
0.0
 48
0.0
 49
0.0
140
0.0
141
0.0
142
1.0
143
1.0
 70
0
 72
1
 73
0
 74
0
  7

 75
0
147
1.0
148
0.0
149
0.0
100
AcDbLayout
  1
Layout1
 70
0
 71
1
 10
0.0
 20
0.0
 11
210.0
 21
297.0
 12
0.0
 22
0.0
 32
0.0
 14
0.0
 24
0.0
 34
0.0
 15
0.0
 25
0.0
 35
0.0
146
0.0
 13
0.0
 23
0.0
 33
0.0
 16
1.0
 26
0.0
 36
0.0
 17
0.0
 27
1.0
 37
0.0
 76
0
330
213
345
0
346
0
  0
ENDSEC
  0
EOF
