999
DXF file: C:\Users\sesa63760\Dev\_Creo\CAD\MCADID0005720_3D-CAD\mcadid0005720_3d-simplified_2.dxf
999
Pro/ENGINEER 2019471 by Parametric Technology Corporation
  0
SECTION
  2
HEADER
  9
$ACADVER
  1
AC1024
  9
$DWGCODEPAGE
  3
ANSI_1252
  9
$EXTMAX
 10
46.7877419545
 20
66.1712350499
 30
0.0
  9
$EXTMIN
 10
0.0
 20
0.0
 30
0.0
  9
$LIMMIN
 10
0.0
 20
0.0
  9
$LIMMAX
 10
46.7877419545
 20
66.1712350499
  9
$VIEWCTR
 10
23.3938709772
 20
33.085617525
  9
$VIEWSIZE
 40
66.1712350499
  9
$CLAYER
  8
0
  9
$LTSCALE
 40
4.3133842107
  9
$CELTYPE
  6
BYLAYER
  9
$DIMSCALE
 40
1.0
  9
$DIMASZ
 40
0.556996928
  9
$DIMEXO
 40
1.0
  9
$DIMDLI
 40
2.9801563637
  9
$DIMEXE
 40
1.0
  9
$DIMCEN
 40
0.7058265072
  9
$DIMLFAC
 40
1.0
  9
$DIMBLK
  1
_FILLED
  9
$DIMALT
 70
0
  9
$DIMALTF
 40
0.0393700787
  9
$DIMTXT
 40
0.7797956992
  9
$DIMTOL
 70
1
  9
$DIMLIM
 70
0
  9
$DIMTFAC
 40
1.0
  9
$DIMTP
 40
0.01
  9
$DIMTM
 40
0.01
  9
$DIMGAP
 40
0.625
  9
$DIMDSEP
 70
46
  9
$AUNITS
 70
0
  9
$PDMODE
 70
3
  9
$PDSIZE
 40
0.3125
  9
$HANDSEED
  5
2ED
  9
$TILEMODE
 70
1
  9
$MEASUREMENT
 70
1
  9
$INSUNITS
 70
4
  0
ENDSEC
  0
SECTION
  2
CLASSES
  0
CLASS
  1
ACDBDICTIONARYWDFLT
  2
AcDbDictionaryWithDefault
  3
AutoCAD 2000
 90
0
 91
1
280
0
281
0
  0
CLASS
  1
ACDBPLACEHOLDER
  2
AcDbPlaceHolder
  3
AutoCAD 2000
 90
0
 91
1
280
0
281
0
  0
CLASS
  1
LAYOUT
  2
AcDbLayout
  3
AutoCAD 2000
 90
0
 91
0
280
0
281
0
  0
ENDSEC
  0
SECTION
  2
TABLES
  0
TABLE
  2
VPORT
  5
8
100
AcDbSymbolTable
 70
2
  0
VPORT
  5
1F4
100
AcDbSymbolTableRecord
100
AcDbViewportTableRecord
  2
*ACTIVE
 70
0
 10
0.0
 20
0.0
 11
1.0
 21
1.0
 12
23.3938709772
 22
33.085617525
 13
0.0
 23
0.0
 14
1.0
 24
1.0
 15
0.0
 25
0.0
 16
0.0
 26
0.0
 36
1.0
 17
0.0
 27
0.0
 37
0.0
 40
66.1712350499
 41
0.7070707071
 42
50.0
 43
0.0
 44
0.0
 50
0.0
 51
0.0
 71
0
 72
100
 73
1
 74
1
 75
0
 76
0
 77
0
 78
0
  0
ENDTAB
  0
TABLE
  2
LTYPE
  5
5
100
AcDbSymbolTable
 70
6
  0
LTYPE
  5
14
100
AcDbSymbolTableRecord
100
AcDbLinetypeTableRecord
  2
BYBLOCK
 70
0
  3

 72
65
 73
0
 40
0.0
  0
LTYPE
  5
15
100
AcDbSymbolTableRecord
100
AcDbLinetypeTableRecord
  2
BYLAYER
 70
0
  3

 72
65
 73
0
 40
0.0
  0
LTYPE
  5
16
100
AcDbSymbolTableRecord
100
AcDbLinetypeTableRecord
  2
CONTINUOUS
 70
64
  3
Solid line
 72
65
 73
0
 40
0.0
  0
LTYPE
  5
1F5
100
AcDbSymbolTableRecord
100
AcDbLinetypeTableRecord
  2
CENTER
 70
64
  3
____ _ ____ _ ____ _ ____ _ ____ _ ____ _ ____
 72
65
 73
4
 40
0.6
 49
0.375
 74
0
 49
-0.075
 74
0
 49
0.075
 74
0
 49
-0.075
 74
0
  0
LTYPE
  5
1F6
100
AcDbSymbolTableRecord
100
AcDbLinetypeTableRecord
  2
HIDDEN
 70
64
  3
- - - - - - - - - - - - - - - - - - - -
 72
65
 73
2
 40
0.2
 49
0.1
 74
0
 49
-0.1
 74
0
  0
LTYPE
  5
1F7
100
AcDbSymbolTableRecord
100
AcDbLinetypeTableRecord
  2
PHANTOM
 70
64
  3
_____ _ _ _____ _ _ _____ _ _ _____
 72
65
 73
6
 40
0.8
 49
0.45
 74
0
 49
-0.05
 74
0
 49
0.1
 74
0
 49
-0.05
 74
0
 49
0.1
 74
0
 49
-0.05
 74
0
  0
LTYPE
  5
1F8
100
AcDbSymbolTableRecord
100
AcDbLinetypeTableRecord
  2
DOT
 70
64
  3
. . . . . . . . . . . . . . . . . . . .
 72
65
 73
2
 40
0.2
 49
0.1
 74
0
 49
-0.1
 74
0
  0
LTYPE
  5
1F9
100
AcDbSymbolTableRecord
100
AcDbLinetypeTableRecord
  2
DASHED
 70
64
  3
- - - - - - - - - - - - - - - - - - - -
 72
65
 73
2
 40
0.2
 49
0.1
 74
0
 49
-0.1
 74
0
  0
ENDTAB
  0
TABLE
  2
LAYER
  5
2
100
AcDbSymbolTable
 70
36
  0
LAYER
  5
10
100
AcDbSymbolTableRecord
100
AcDbLayerTableRecord
  2
0
 70
0
 62
7
  6
CONTINUOUS
370
-3
390
F
  0
LAYER
  5
1FA
100
AcDbSymbolTableRecord
100
AcDbLayerTableRecord
  2
DEFAULT_1
 70
0
 62
7
  6
CENTER
370
-3
390
F
  0
LAYER
  5
1FB
100
AcDbSymbolTableRecord
100
AcDbLayerTableRecord
  2
DEFAULT_2
 70
0
 62
7
  6
HIDDEN
370
-3
390
F
  0
LAYER
  5
1FC
100
AcDbSymbolTableRecord
100
AcDbLayerTableRecord
  2
DEFAULT_3
 70
0
 62
7
  6
PHANTOM
370
-3
390
F
  0
LAYER
  5
1FD
100
AcDbSymbolTableRecord
100
AcDbLayerTableRecord
  2
00_COMPONENTS
 70
0
 62
7
  6
CONTINUOUS
370
-3
390
F
  0
LAYER
  5
1FE
100
AcDbSymbolTableRecord
100
AcDbLayerTableRecord
  2
01_1_DEFAULT_DATUMS
 70
0
 62
7
  6
CONTINUOUS
370
-3
390
F
  0
LAYER
  5
1FF
100
AcDbSymbolTableRecord
100
AcDbLayerTableRecord
  2
01_PLANES
 70
0
 62
7
  6
CONTINUOUS
370
-3
390
F
  0
LAYER
  5
200
100
AcDbSymbolTableRecord
100
AcDbLayerTableRecord
  2
02_COORD_SYS
 70
0
 62
7
  6
CONTINUOUS
370
-3
390
F
  0
LAYER
  5
201
100
AcDbSymbolTableRecord
100
AcDbLayerTableRecord
  2
03_AXES
 70
0
 62
7
  6
CONTINUOUS
370
-3
390
F
  0
LAYER
  5
202
100
AcDbSymbolTableRecord
100
AcDbLayerTableRecord
  2
04_POINTS
 70
0
 62
7
  6
CONTINUOUS
370
-3
390
F
  0
LAYER
  5
203
100
AcDbSymbolTableRecord
100
AcDbLayerTableRecord
  2
05_CURVES
 70
0
 62
7
  6
CONTINUOUS
370
-3
390
F
  0
LAYER
  5
204
100
AcDbSymbolTableRecord
100
AcDbLayerTableRecord
  2
06_SURFS
 70
0
 62
7
  6
CONTINUOUS
370
-3
390
F
  0
LAYER
  5
205
100
AcDbSymbolTableRecord
100
AcDbLayerTableRecord
  2
07_COSMETICS
 70
0
 62
7
  6
CONTINUOUS
370
-3
390
F
  0
LAYER
  5
206
100
AcDbSymbolTableRecord
100
AcDbLayerTableRecord
  2
10_NOTES
 70
0
 62
7
  6
CONTINUOUS
370
-3
390
F
  0
LAYER
  5
207
100
AcDbSymbolTableRecord
100
AcDbLayerTableRecord
  2
11_NOTES_PUB
 70
0
 62
7
  6
CONTINUOUS
370
-3
390
F
  0
LAYER
  5
208
100
AcDbSymbolTableRecord
100
AcDbLayerTableRecord
  2
13_REF_GTOL
 70
0
 62
7
  6
CONTINUOUS
370
-3
390
F
  0
LAYER
  5
209
100
AcDbSymbolTableRecord
100
AcDbLayerTableRecord
  2
16_MISC
 70
0
 62
7
  6
CONTINUOUS
370
-3
390
F
  0
LAYER
  5
20A
100
AcDbSymbolTableRecord
100
AcDbLayerTableRecord
  2
17_NO_PRINT
 70
0
 62
7
  6
CONTINUOUS
370
-3
390
F
  0
LAYER
  5
20B
100
AcDbSymbolTableRecord
100
AcDbLayerTableRecord
  2
18_DATUM_CAMS_JOINTS
 70
0
 62
7
  6
CONTINUOUS
370
-3
390
F
  0
LAYER
  5
20C
100
AcDbSymbolTableRecord
100
AcDbLayerTableRecord
  2
19_DATUM_FUNCTIONAL
 70
0
 62
7
  6
CONTINUOUS
370
-3
390
F
  0
LAYER
  5
20D
100
AcDbSymbolTableRecord
100
AcDbLayerTableRecord
  2
20_DATUM_KINEMATIC_SCHEME
 70
0
 62
7
  6
CONTINUOUS
370
-3
390
F
  0
LAYER
  5
20E
100
AcDbSymbolTableRecord
100
AcDbLayerTableRecord
  2
INTFCLR_1
 70
0
 62
7
  6
CONTINUOUS
370
-3
390
F
  0
LAYER
  5
20F
100
AcDbSymbolTableRecord
100
AcDbLayerTableRecord
  2
INTFCLR_8
 70
0
 62
7
  6
CONTINUOUS
370
-3
390
F
  0
LAYER
  5
210
100
AcDbSymbolTableRecord
100
AcDbLayerTableRecord
  2
INTF_1
 70
0
 62
7
  6
CONTINUOUS
370
-3
390
F
  0
LAYER
  5
211
100
AcDbSymbolTableRecord
100
AcDbLayerTableRecord
  2
INTF_2
 70
0
 62
7
  6
CONTINUOUS
370
-3
390
F
  0
LAYER
  5
212
100
AcDbSymbolTableRecord
100
AcDbLayerTableRecord
  2
INTF_3
 70
0
 62
7
  6
CONTINUOUS
370
-3
390
F
  0
LAYER
  5
213
100
AcDbSymbolTableRecord
100
AcDbLayerTableRecord
  2
INTF_4
 70
0
 62
7
  6
CONTINUOUS
370
-3
390
F
  0
LAYER
  5
214
100
AcDbSymbolTableRecord
100
AcDbLayerTableRecord
  2
INTF_5
 70
0
 62
7
  6
CONTINUOUS
370
-3
390
F
  0
LAYER
  5
215
100
AcDbSymbolTableRecord
100
AcDbLayerTableRecord
  2
INTF_6
 70
0
 62
7
  6
CONTINUOUS
370
-3
390
F
  0
LAYER
  5
216
100
AcDbSymbolTableRecord
100
AcDbLayerTableRecord
  2
white
 70
0
 62
7
  6
CONTINUOUS
370
-3
390
F
  0
ENDTAB
  0
TABLE
  2
STYLE
  5
3
100
AcDbSymbolTable
 70
1
  0
STYLE
  5
11
100
AcDbSymbolTableRecord
100
AcDbTextStyleTableRecord
  2
STANDARD
 70
0
 40
0.0
 41
1.0
 50
0.0
 71
0
 42
0.2
  3
ARIAL.TTF
  4

  0
STYLE
  5
217
100
AcDbSymbolTableRecord
100
AcDbTextStyleTableRecord
  2
TEXTSTYLE_1
 70
0
 40
0.0
 41
0.8
 50
0.0
 71
0
 42
0.2
  3
gdt
  4

  0
ENDTAB
  0
TABLE
  2
VIEW
  5
6
100
AcDbSymbolTable
 70
0
  0
ENDTAB
  0
TABLE
  2
UCS
  5
7
100
AcDbSymbolTable
 70
0
  0
ENDTAB
  0
TABLE
  2
APPID
  5
9
100
AcDbSymbolTable
 70
1
  0
APPID
  5
218
100
AcDbSymbolTableRecord
100
AcDbRegAppTableRecord
  2
ACAD
 70
0
  0
ENDTAB
  0
TABLE
  2
BLOCK_RECORD
  5
1
100
AcDbSymbolTable
 70
0
  0
BLOCK_RECORD
  5
219
100
AcDbSymbolTableRecord
100
AcDbBlockTableRecord
  2
*Model_Space
  0
BLOCK_RECORD
  5
21A
100
AcDbSymbolTableRecord
100
AcDbBlockTableRecord
  2
*Paper_Space
  0
BLOCK_RECORD
  5
21B
100
AcDbSymbolTableRecord
100
AcDbBlockTableRecord
  2
_FILLED
  0
ENDTAB
  0
TABLE
  2
DIMSTYLE
  5
A
100
AcDbSymbolTable
 70
1
100
AcDbDimStyleTable
 71
0
  0
DIMSTYLE
105
21C
100
AcDbSymbolTableRecord
100
AcDbDimStyleTableRecord
  2
STANDARD
 70
0
  3

  4

 40
1.0
 41
0.556996928
 42
1.0
 43
0.38
 44
1.0
 45
0.0
 46
0.0
 47
0.01
 48
0.01
140
0.7797956992
141
0.09
142
0.0
143
25.4
144
1.0
145
0.0
146
1.0
147
0.625
 71
1
 72
0
 73
0
 74
0
 75
0
 76
0
 77
1
 78
8
 79
2
170
0
171
1
172
0
173
0
174
0
175
0
176
0
177
0
178
0
270
2
179
2
271
2
272
2
273
2
274
2
275
0
280
0
281
0
282
0
283
1
284
8
285
0
286
0
287
3
288
0
340
11
278
46
341
21B
342
21B
343
21B
344
21B
  0
ENDTAB
  0
ENDSEC
  0
SECTION
  2
BLOCKS
  0
BLOCK
  5
20
100
AcDbEntity
  8
0
100
AcDbBlockBegin
  2
*Model_Space
 70
0
 10
0.0
 20
0.0
 30
0.0
  3
*Model_Space
  1

  0
ENDBLK
  5
21
100
AcDbEntity
  8
0
100
AcDbBlockEnd
  0
BLOCK
  5
1C
100
AcDbEntity
  8
0
100
AcDbBlockBegin
  2
*Paper_Space
 70
0
 10
0.0
 20
0.0
 30
0.0
  3
*Paper_Space
  1

  0
ENDBLK
  5
1D
100
AcDbEntity
  8
0
100
AcDbBlockEnd
  0
BLOCK
  5
21D
100
AcDbEntity
  8
0
100
AcDbBlockBegin
  2
_FILLED
 70
64
 10
0.0
 20
0.0
  3
_FILLED
  1

  0
SOLID
  5
21E
100
AcDbEntity
  8
0
  6
BYBLOCK
 62
0
100
AcDbTrace
 10
0.0
 20
0.0
 11
-1.0
 21
0.25
 12
-1.0
 22
-0.25
 13
-1.0
 23
-0.25
  0
ENDBLK
  5
21F
100
AcDbEntity
  8
0
  6
BYBLOCK
 62
0
100
AcDbBlockEnd
  0
ENDSEC
  0
SECTION
  2
ENTITIES
  0
LINE
  5
220
100
AcDbEntity
  8
INTFCLR_1
100
AcDbLine
 62
7
  6
BYLAYER
 10
36.817992024
 20
4.4141366964
 11
34.8178427522
 21
4.4141366964
  0
LINE
  5
221
100
AcDbEntity
  8
INTFCLR_1
100
AcDbLine
 62
7
  6
BYLAYER
 10
10.6176934806
 20
4.4141366964
 11
12.6178427525
 21
4.4141366964
  0
LINE
  5
222
100
AcDbEntity
  8
INTFCLR_1
100
AcDbLine
 62
7
  6
BYLAYER
 10
10.6723042965
 20
6.3744131755
 11
12.6417932393
 21
6.3744131734
  0
LINE
  5
223
100
AcDbEntity
  8
INTFCLR_1
100
AcDbLine
 62
7
  6
BYLAYER
 10
34.7938922653
 20
6.3744131741
 11
36.7671818197
 21
6.3744131753
  0
LINE
  5
224
100
AcDbEntity
  8
INTFCLR_1
100
AcDbLine
 62
7
  6
BYLAYER
 10
36.7724940307
 20
7.8641366964
 11
34.7721255002
 21
7.8641366964
  0
LINE
  5
225
100
AcDbEntity
  8
INTFCLR_1
100
AcDbLine
 62
7
  6
BYLAYER
 10
10.6598453835
 20
7.8641366964
 11
12.659994551
 21
7.8641366964
  0
LINE
  5
226
100
AcDbEntity
  8
INTFCLR_1
100
AcDbLine
 62
7
  6
BYLAYER
 10
36.0178427523
 20
7.9141366964
 11
34.7750800583
 21
7.9141366964
  0
LINE
  5
227
100
AcDbEntity
  8
INTFCLR_1
100
AcDbLine
 62
7
  6
BYLAYER
 10
12.6606057425
 20
7.9141366964
 11
11.4178427523
 21
7.9141366964
  0
LINE
  5
228
100
AcDbEntity
  8
INTFCLR_1
100
AcDbLine
 62
7
  6
BYLAYER
 10
14.1678427559
 20
60.2141366949
 11
13.4687299298
 21
59.1374111672
  0
LINE
  5
229
100
AcDbEntity
  8
00_COMPONENTS
100
AcDbLine
 62
7
  6
BYLAYER
 10
18.0394701799
 20
57.2141366964
 11
13.4798373221
 21
53.7977725516
  0
LINE
  5
22A
100
AcDbEntity
  8
INTFCLR_1
100
AcDbLine
 62
7
  6
BYLAYER
 10
11.664018162
 20
8.5303354692
 11
12.6681341089
 21
8.5303354701
  0
LINE
  5
22B
100
AcDbEntity
  8
INTFCLR_1
100
AcDbLine
 62
7
  6
BYLAYER
 10
34.7675513954
 20
8.5303354709
 11
35.7676342628
 21
8.5303354698
  0
LINE
  5
22C
100
AcDbEntity
  8
INTFCLR_1
100
AcDbLine
 62
7
  6
BYLAYER
 10
34.7604185627
 20
9.1141366964
 11
12.6752669418
 21
9.1141366964
  0
LINE
  5
22D
100
AcDbEntity
  8
00_COMPONENTS
100
AcDbLine
 62
7
  6
BYLAYER
 10
12.6178427523
 20
9.5141366964
 11
13.7268606323
 21
9.5141366964
  0
LINE
  5
22E
100
AcDbEntity
  8
00_COMPONENTS
100
AcDbLine
 62
7
  6
BYLAYER
 10
33.7088248723
 20
9.5141366964
 11
34.8178427523
 21
9.5141366964
  0
LINE
  5
22F
100
AcDbEntity
  8
INTFCLR_1
100
AcDbLine
 62
7
  6
BYLAYER
 10
10.681837522
 20
9.6641366964
 11
12.6819867933
 21
9.6641366964
  0
LINE
  5
230
100
AcDbEntity
  8
INTFCLR_1
100
AcDbLine
 62
7
  6
BYLAYER
 10
34.7536987108
 20
9.6641366973
 11
36.7538479828
 21
9.6641366973
  0
LINE
  5
231
100
AcDbEntity
  8
INTFCLR_1
100
AcDbLine
 62
7
  6
BYLAYER
 10
36.7523073852
 20
10.0641366964
 11
34.752284611
 21
10.0641366964
  0
LINE
  5
232
100
AcDbEntity
  8
INTFCLR_1
100
AcDbLine
 62
7
  6
BYLAYER
 10
10.6867246868
 20
10.0641366964
 11
12.6868738543
 21
10.0641366964
  0
LINE
  5
233
100
AcDbEntity
  8
00_COMPONENTS
100
AcDbLine
 62
7
  6
BYLAYER
 10
34.8178427523
 20
10.3141366964
 11
33.7088248723
 21
10.3141366964
  0
LINE
  5
234
100
AcDbEntity
  8
00_COMPONENTS
100
AcDbLine
 62
7
  6
BYLAYER
 10
13.7268606323
 20
10.3141366964
 11
12.6178427523
 21
10.3141366964
  0
LINE
  5
235
100
AcDbEntity
  8
INTFCLR_1
100
AcDbLine
 62
7
  6
BYLAYER
 10
34.7396481112
 20
10.8141366964
 11
12.6960373934
 21
10.8141366964
  0
LINE
  5
236
100
AcDbEntity
  8
INTFCLR_1
100
AcDbLine
 62
7
  6
BYLAYER
 10
36.7671818197
 20
6.3744131753
 11
36.7941907684
 21
6.3621990835
  0
LINE
  5
237
100
AcDbEntity
  8
INTFCLR_1
100
AcDbLine
 62
7
  6
BYLAYER
 10
10.7796031164
 20
17.6659614017
 11
11.7535100172
 21
15.8549790487
  0
LINE
  5
238
100
AcDbEntity
  8
INTFCLR_1
100
AcDbLine
 62
7
  6
BYLAYER
 10
35.6781424074
 20
15.8549790501
 11
34.6780595396
 21
15.8549790445
  0
LINE
  5
239
100
AcDbEntity
  8
INTFCLR_1
100
AcDbLine
 62
7
  6
BYLAYER
 10
11.7535100171
 20
15.8549790486
 11
12.7576259646
 21
15.8549790436
  0
LINE
  5
23A
100
AcDbEntity
  8
INTFCLR_1
100
AcDbLine
 62
7
  6
BYLAYER
 10
11.4178427523
 20
4.4141366964
 11
11.4178427524
 21
8.0021733859
  0
LINE
  5
23B
100
AcDbEntity
  8
INTFCLR_1
100
AcDbLine
 62
7
  6
BYLAYER
 10
10.6176934794
 20
4.4141366964
 11
11.3153362933
 21
61.5141366963
  0
LINE
  5
23C
100
AcDbEntity
  8
INTFCLR_1
100
AcDbLine
 62
7
  6
BYLAYER
 10
20.4678427518
 20
61.2141366964
 11
20.0678427525
 21
60.2141366964
  0
LINE
  5
23D
100
AcDbEntity
  8
INTFCLR_1
100
AcDbLine
 62
7
  6
BYLAYER
 10
26.3678427524
 20
60.2141366965
 11
25.6687079023
 21
59.1373772313
  0
LINE
  5
23E
100
AcDbEntity
  8
00_COMPONENTS
100
AcDbLine
 62
7
  6
BYLAYER
 10
12.6178427524
 20
9.5141366964
 11
12.6178427524
 21
10.3141366964
  0
LINE
  5
23F
100
AcDbEntity
  8
INTFCLR_1
100
AcDbLine
 62
7
  6
BYLAYER
 10
13.1459282677
 20
47.664142588
 11
13.1459282677
 21
47.6363735601
  0
LINE
  5
240
100
AcDbEntity
  8
INTFCLR_1
100
AcDbLine
 62
7
  6
BYLAYER
 10
13.1459282677
 20
47.6662654022
 11
13.1459282677
 21
47.6641356011
  0
LINE
  5
241
100
AcDbEntity
  8
INTFCLR_1
100
AcDbLine
 62
7
  6
BYLAYER
 10
11.7535100172
 20
15.8549790487
 11
11.6640181619
 21
8.5303354687
  0
LINE
  5
242
100
AcDbEntity
  8
INTFCLR_1
100
AcDbLine
 62
7
  6
BYLAYER
 10
12.3819315055
 20
48.9509560777
 11
12.2719446674
 21
39.9488588049
  0
LINE
  5
243
100
AcDbEntity
  8
INTFCLR_1
100
AcDbLine
 62
7
  6
BYLAYER
 10
13.1462674243
 20
47.6641325531
 11
13.1462934832
 21
47.6662654025
  0
LINE
  5
244
100
AcDbEntity
  8
INTFCLR_1
100
AcDbLine
 62
7
  6
BYLAYER
 10
12.6178427525
 20
4.4141366965
 11
13.1462674243
 21
47.6641325531
  0
LINE
  5
245
100
AcDbEntity
  8
INTFCLR_1
100
AcDbLine
 62
7
  6
BYLAYER
 10
13.1489620283
 20
47.8846779077
 11
13.161601168
 21
48.9191541664
  0
LINE
  5
246
100
AcDbEntity
  8
INTFCLR_1
100
AcDbLine
 62
7
  6
BYLAYER
 10
13.1462934832
 20
47.6662654025
 11
13.1489620283
 21
47.8846779077
  0
LINE
  5
247
100
AcDbEntity
  8
INTFCLR_1
100
AcDbLine
 62
7
  6
BYLAYER
 10
13.161601168
 20
48.9191541664
 11
13.2629485415
 21
57.2141366965
  0
LINE
  5
248
100
AcDbEntity
  8
00_COMPONENTS
100
AcDbLine
 62
7
  6
BYLAYER
 10
12.6475163626
 20
6.1141366966
 11
12.7068635836
 21
9.5141366964
  0
LINE
  5
249
100
AcDbEntity
  8
00_COMPONENTS
100
AcDbLine
 62
7
  6
BYLAYER
 10
13.4798373221
 20
53.7977725516
 11
13.2629485416
 21
57.2141366964
  0
LINE
  5
24A
100
AcDbEntity
  8
00_COMPONENTS
100
AcDbLine
 62
7
  6
BYLAYER
 10
13.7268606323
 20
9.5141366964
 11
13.7268606323
 21
10.3141366964
  0
LINE
  5
24B
100
AcDbEntity
  8
INTFCLR_1
100
AcDbLine
 62
7
  6
BYLAYER
 10
14.1178427483
 20
61.5141366964
 11
14.1178427523
 21
61.2141366964
  0
LINE
  5
24C
100
AcDbEntity
  8
INTFCLR_1
100
AcDbLine
 62
7
  6
BYLAYER
 10
14.5178427523
 20
61.5141366964
 11
14.5178427523
 21
61.2141366964
  0
LINE
  5
24D
100
AcDbEntity
  8
INTFCLR_1
100
AcDbLine
 62
7
  6
BYLAYER
 10
17.0178427523
 20
61.2141366964
 11
17.0178427523
 21
60.2141366964
  0
LINE
  5
24E
100
AcDbEntity
  8
INTFCLR_1
100
AcDbLine
 62
7
  6
BYLAYER
 10
29.2178427514
 20
61.2141366964
 11
28.8178427525
 21
60.2141366964
  0
LINE
  5
24F
100
AcDbEntity
  8
INTFCLR_1
100
AcDbLine
 62
7
  6
BYLAYER
 10
10.9108107001
 20
28.4049136425
 11
12.91095997
 21
28.4049136306
  0
LINE
  5
250
100
AcDbEntity
  8
INTFCLR_1
100
AcDbLine
 62
7
  6
BYLAYER
 10
34.5247255346
 20
28.4049136314
 11
36.5248748047
 21
28.4049136366
  0
LINE
  5
251
100
AcDbEntity
  8
INTFCLR_1
100
AcDbLine
 62
7
  6
BYLAYER
 10
19.8678427523
 20
57.2141366964
 11
19.8678427522
 21
54.822308721
  0
LINE
  5
252
100
AcDbEntity
  8
INTFCLR_1
100
AcDbLine
 62
7
  6
BYLAYER
 10
20.7178427527
 20
61.5141366964
 11
20.7178427526
 21
61.2141366964
  0
LINE
  5
253
100
AcDbEntity
  8
INTFCLR_1
100
AcDbLine
 62
7
  6
BYLAYER
 10
21.1178427523
 20
61.5141366964
 11
21.1178427523
 21
61.2141366964
  0
LINE
  5
254
100
AcDbEntity
  8
00_COMPONENTS
100
AcDbLine
 62
7
  6
BYLAYER
 10
13.6136683609
 20
9.5141366964
 11
12.6475163626
 21
6.1141366966
  0
LINE
  5
255
100
AcDbEntity
  8
INTFCLR_1
100
AcDbLine
 62
7
  6
BYLAYER
 10
32.6678427517
 20
61.2141366964
 11
32.2678427525
 21
60.2141366964
  0
LINE
  5
256
100
AcDbEntity
  8
INTFCLR_1
100
AcDbLine
 62
7
  6
BYLAYER
 10
21.9178427523
 20
52.0960560348
 11
21.9178427523
 21
49.3190168294
  0
LINE
  5
257
100
AcDbEntity
  8
INTFCLR_1
100
AcDbLine
 62
7
  6
BYLAYER
 10
21.9218845124
 20
52.1869048887
 11
21.9218845124
 21
52.2417207831
  0
LINE
  5
258
100
AcDbEntity
  8
INTFCLR_1
100
AcDbLine
 62
7
  6
BYLAYER
 10
22.3178427543
 20
61.5141366964
 11
22.3178427523
 21
57.7141366964
  0
LINE
  5
259
100
AcDbEntity
  8
INTFCLR_1
100
AcDbLine
 62
7
  6
BYLAYER
 10
11.6640181619
 20
8.5303354687
 11
10.6723042964
 21
6.374413177
  0
LINE
  5
25A
100
AcDbEntity
  8
INTFCLR_1
100
AcDbLine
 62
7
  6
BYLAYER
 10
25.1178427523
 20
61.5141366964
 11
25.1178427523
 21
57.7141366964
  0
LINE
  5
25B
100
AcDbEntity
  8
INTFCLR_1
100
AcDbLine
 62
7
  6
BYLAYER
 10
25.5138009921
 20
52.1869048887
 11
25.5138009921
 21
52.2417207831
  0
LINE
  5
25C
100
AcDbEntity
  8
INTFCLR_1
100
AcDbLine
 62
7
  6
BYLAYER
 10
25.5178427523
 20
49.3190168294
 11
25.5178427516
 21
52.0960561222
  0
LINE
  5
25D
100
AcDbEntity
  8
INTFCLR_1
100
AcDbLine
 62
7
  6
BYLAYER
 10
35.7676342628
 20
8.5303354698
 11
36.7671818197
 21
6.3744131754
  0
LINE
  5
25E
100
AcDbEntity
  8
INTFCLR_1
100
AcDbLine
 62
7
  6
BYLAYER
 10
14.7678427528
 20
61.2141366964
 11
15.167842752
 21
60.2141366964
  0
LINE
  5
25F
100
AcDbEntity
  8
INTFCLR_1
100
AcDbLine
 62
7
  6
BYLAYER
 10
26.3178427523
 20
61.5141366964
 11
26.3178427523
 21
61.2141366964
  0
LINE
  5
260
100
AcDbEntity
  8
INTFCLR_1
100
AcDbLine
 62
7
  6
BYLAYER
 10
26.7178427545
 20
61.5141366964
 11
26.7178427519
 21
61.2141366964
  0
LINE
  5
261
100
AcDbEntity
  8
INTFCLR_1
100
AcDbLine
 62
7
  6
BYLAYER
 10
27.5678427523
 20
57.2141366951
 11
27.5678427523
 21
54.8223087198
  0
LINE
  5
262
100
AcDbEntity
  8
00_COMPONENTS
100
AcDbLine
 62
7
  6
BYLAYER
 10
34.788169142
 20
6.1141366966
 11
33.8220171436
 21
9.5141366964
  0
LINE
  5
263
100
AcDbEntity
  8
INTFCLR_1
100
AcDbLine
 62
7
  6
BYLAYER
 10
18.2178427531
 20
61.2141366964
 11
18.617842752
 21
60.2141366964
  0
LINE
  5
264
100
AcDbEntity
  8
INTFCLR_1
100
AcDbLine
 62
7
  6
BYLAYER
 10
30.4178427523
 20
60.2141366964
 11
30.4178427523
 21
61.2141366964
  0
LINE
  5
265
100
AcDbEntity
  8
INTFCLR_1
100
AcDbLine
 62
7
  6
BYLAYER
 10
36.3836497882
 20
39.9637635383
 11
34.3837990484
 21
39.9393295423
  0
LINE
  5
266
100
AcDbEntity
  8
INTFCLR_1
100
AcDbLine
 62
7
  6
BYLAYER
 10
13.0518864559
 20
39.9393295416
 11
11.0520357164
 21
39.9637635466
  0
LINE
  5
267
100
AcDbEntity
  8
00_COMPONENTS
100
AcDbLine
 62
7
  6
BYLAYER
 10
34.7288219209
 20
9.5141366964
 11
34.788169142
 21
6.1141366966
  0
LINE
  5
268
100
AcDbEntity
  8
00_COMPONENTS
100
AcDbLine
 62
7
  6
BYLAYER
 10
34.1727369631
 20
57.2141366964
 11
34.2144392001
 21
53.8009319938
  0
LINE
  5
269
100
AcDbEntity
  8
INTFCLR_1
100
AcDbLine
 62
7
  6
BYLAYER
 10
34.2893920209
 20
47.6662654029
 11
34.289418063
 21
47.6641339341
  0
LINE
  5
26A
100
AcDbEntity
  8
INTFCLR_1
100
AcDbLine
 62
7
  6
BYLAYER
 10
34.8178430131
 20
4.414115351
 11
34.7488101809
 21
10.0642484017
  0
LINE
  5
26B
100
AcDbEntity
  8
INTFCLR_1
100
AcDbLine
 62
7
  6
BYLAYER
 10
34.7488101809
 20
10.0642484017
 11
34.289418063
 21
47.6641339341
  0
LINE
  5
26C
100
AcDbEntity
  8
INTFCLR_1
100
AcDbLine
 62
7
  6
BYLAYER
 10
34.2893920209
 20
47.6662654029
 11
34.172736963
 21
57.2141366975
  0
LINE
  5
26D
100
AcDbEntity
  8
INTFCLR_1
100
AcDbLine
 62
7
  6
BYLAYER
 10
32.9178427544
 20
61.5141366964
 11
32.9178427526
 21
61.2141366964
  0
LINE
  5
26E
100
AcDbEntity
  8
INTFCLR_1
100
AcDbLine
 62
7
  6
BYLAYER
 10
33.3178427507
 20
61.5141366964
 11
33.3178427523
 21
61.2141366964
  0
LINE
  5
26F
100
AcDbEntity
  8
00_COMPONENTS
100
AcDbLine
 62
7
  6
BYLAYER
 10
33.7088248723
 20
10.3141366964
 11
33.7088248723
 21
9.5141366964
  0
LINE
  5
270
100
AcDbEntity
  8
INTFCLR_1
100
AcDbLine
 62
7
  6
BYLAYER
 10
34.2897572368
 20
47.6662654025
 11
34.2897572368
 21
47.6641366972
  0
LINE
  5
271
100
AcDbEntity
  8
INTFCLR_1
100
AcDbLine
 62
7
  6
BYLAYER
 10
34.2897572368
 20
47.6641366966
 11
34.2897572368
 21
47.6363735601
  0
LINE
  5
272
100
AcDbEntity
  8
INTFCLR_1
100
AcDbLine
 62
7
  6
BYLAYER
 10
35.1637408371
 20
39.9488588049
 11
35.0537547458
 21
48.9508949509
  0
LINE
  5
273
100
AcDbEntity
  8
INTFCLR_1
100
AcDbLine
 62
7
  6
BYLAYER
 10
35.6781424074
 20
15.8549790502
 11
35.7676342628
 21
8.5303354696
  0
LINE
  5
274
100
AcDbEntity
  8
INTFCLR_1
100
AcDbLine
 62
7
  6
BYLAYER
 10
36.7758415959
 20
7.8640245408
 11
36.7489597393
 21
10.0642249665
  0
LINE
  5
275
100
AcDbEntity
  8
INTFCLR_1
100
AcDbLine
 62
7
  6
BYLAYER
 10
36.8179920243
 20
4.4141366964
 11
36.7758415959
 21
7.8640245408
  0
LINE
  5
276
100
AcDbEntity
  8
INTFCLR_1
100
AcDbLine
 62
7
  6
BYLAYER
 10
36.7489597393
 20
10.0642249665
 11
36.1239698053
 21
61.2178017967
  0
LINE
  5
277
100
AcDbEntity
  8
00_COMPONENTS
100
AcDbLine
 62
7
  6
BYLAYER
 10
34.8178427522
 20
10.3141366964
 11
34.8178427522
 21
9.5141366964
  0
LINE
  5
278
100
AcDbEntity
  8
INTFCLR_1
100
AcDbLine
 62
7
  6
BYLAYER
 10
36.0178427516
 20
8.0021733861
 11
36.0178427525
 21
4.4141366964
  0
LINE
  5
279
100
AcDbEntity
  8
INTFCLR_1
100
AcDbLine
 62
7
  6
BYLAYER
 10
21.0678427512
 20
60.2141366965
 11
21.7669776015
 21
59.1373772312
  0
LINE
  5
27A
100
AcDbEntity
  8
INTFCLR_1
100
AcDbLine
 62
7
  6
BYLAYER
 10
35.0697107416
 20
47.6449009098
 11
34.8604821579
 21
47.6363735574
  0
LINE
  5
27B
100
AcDbEntity
  8
INTFCLR_1
100
AcDbLine
 62
7
  6
BYLAYER
 10
14.3158604101
 20
47.681904799
 11
13.1464799086
 21
47.6815246664
  0
LINE
  5
27C
100
AcDbEntity
  8
INTFCLR_1
100
AcDbLine
 62
7
  6
BYLAYER
 10
34.8604821574
 20
47.6363735593
 11
34.2897572368
 21
47.6363735593
  0
LINE
  5
27D
100
AcDbEntity
  8
INTFCLR_1
100
AcDbLine
 62
7
  6
BYLAYER
 10
13.1459282677
 20
47.6363735592
 11
12.5752033467
 21
47.6363735592
  0
LINE
  5
27E
100
AcDbEntity
  8
INTFCLR_1
100
AcDbLine
 62
7
  6
BYLAYER
 10
34.2897572373
 20
47.6641366964
 11
34.2789422562
 21
47.6641366964
  0
LINE
  5
27F
100
AcDbEntity
  8
INTFCLR_1
100
AcDbLine
 62
7
  6
BYLAYER
 10
13.1567265625
 20
47.6641366964
 11
13.1459282673
 21
47.6641366964
  0
LINE
  5
280
100
AcDbEntity
  8
INTFCLR_1
100
AcDbLine
 62
7
  6
BYLAYER
 10
13.1567265625
 20
47.6641366964
 11
14.3992744889
 21
47.6641366964
  0
LINE
  5
281
100
AcDbEntity
  8
INTFCLR_1
100
AcDbLine
 62
7
  6
BYLAYER
 10
33.0364110973
 20
47.6641366964
 11
34.2789422562
 21
47.6641366964
  0
LINE
  5
282
100
AcDbEntity
  8
INTFCLR_1
100
AcDbLine
 62
7
  6
BYLAYER
 10
34.8598732718
 20
47.6662654025
 11
34.2897572368
 21
47.6662654025
  0
LINE
  5
283
100
AcDbEntity
  8
INTFCLR_1
100
AcDbLine
 62
7
  6
BYLAYER
 10
13.1459282677
 20
47.6662654034
 11
12.5758122334
 21
47.6662654034
  0
LINE
  5
284
100
AcDbEntity
  8
INTFCLR_1
100
AcDbLine
 62
7
  6
BYLAYER
 10
36.2890786498
 20
47.7041367011
 11
34.2889293777
 21
47.7041367011
  0
LINE
  5
285
100
AcDbEntity
  8
INTFCLR_1
100
AcDbLine
 62
7
  6
BYLAYER
 10
13.1467561283
 20
47.7041367016
 11
11.1466070249
 21
47.7041367016
  0
LINE
  5
286
100
AcDbEntity
  8
INTFCLR_1
100
AcDbLine
 62
7
  6
BYLAYER
 10
34.2892057841
 20
47.6815249522
 11
33.1198227339
 21
47.6819049568
  0
LINE
  5
287
100
AcDbEntity
  8
INTFCLR_1
100
AcDbLine
 62
7
  6
BYLAYER
 10
12.5752033472
 20
47.6363735572
 11
12.3659745494
 21
47.6449009184
  0
LINE
  5
288
100
AcDbEntity
  8
INTFCLR_1
100
AcDbLine
 62
7
  6
BYLAYER
 10
26.9678427528
 20
61.2141366964
 11
27.367842752
 21
60.2141366964
  0
LINE
  5
289
100
AcDbEntity
  8
INTFCLR_1
100
AcDbLine
 62
7
  6
BYLAYER
 10
34.273949257
 20
48.9191503716
 11
35.0537542904
 21
48.950932226
  0
LINE
  5
28A
100
AcDbEntity
  8
INTFCLR_1
100
AcDbLine
 62
7
  6
BYLAYER
 10
36.2702894562
 20
49.2419713064
 11
34.270140281
 21
49.2419713064
  0
LINE
  5
28B
100
AcDbEntity
  8
INTFCLR_1
100
AcDbLine
 62
7
  6
BYLAYER
 10
11.1653960484
 20
49.2419713064
 11
13.1655452383
 21
49.2419713064
  0
LINE
  5
28C
100
AcDbEntity
  8
INTFCLR_1
100
AcDbLine
 62
7
  6
BYLAYER
 10
21.9178427523
 20
49.3190168294
 11
25.5178427523
 21
49.3190168294
  0
LINE
  5
28D
100
AcDbEntity
  8
INTFCLR_1
100
AcDbLine
 62
7
  6
BYLAYER
 10
25.5178427523
 20
49.5227748903
 11
21.9178427523
 21
49.5227748903
  0
LINE
  5
28E
100
AcDbEntity
  8
INTFCLR_1
100
AcDbLine
 62
7
  6
BYLAYER
 10
13.1616011899
 20
48.9191558757
 11
12.3819304941
 21
48.950932255
  0
LINE
  5
28F
100
AcDbEntity
  8
INTFCLR_1
100
AcDbLine
 62
7
  6
BYLAYER
 10
36.6561716193
 20
17.6586580599
 11
35.6781424074
 21
15.8549790501
  0
LINE
  5
290
100
AcDbEntity
  8
INTFCLR_1
100
AcDbLine
 62
7
  6
BYLAYER
 10
10.6723042964
 20
6.374413177
 11
10.6414722395
 21
6.3603576632
  0
LINE
  5
291
100
AcDbEntity
  8
INTFCLR_1
100
AcDbLine
 62
7
  6
BYLAYER
 10
21.9178427523
 20
50.5118324149
 11
25.5178427523
 21
50.5118324149
  0
LINE
  5
292
100
AcDbEntity
  8
INTFCLR_1
100
AcDbLine
 62
7
  6
BYLAYER
 10
21.9178427505
 20
51.1753909865
 11
25.5178427541
 21
51.1753909865
  0
LINE
  5
293
100
AcDbEntity
  8
INTFCLR_1
100
AcDbLine
 62
7
  6
BYLAYER
 10
25.5178427523
 20
51.3839959904
 11
21.9178427523
 21
51.3839959904
  0
LINE
  5
294
100
AcDbEntity
  8
INTFCLR_1
100
AcDbLine
 62
7
  6
BYLAYER
 10
21.9178427523
 20
51.3908776654
 11
25.5178427523
 21
51.3908776654
  0
LINE
  5
295
100
AcDbEntity
  8
INTFCLR_1
100
AcDbLine
 62
7
  6
BYLAYER
 10
21.9218759361
 20
52.2342835031
 11
25.5138103503
 21
52.2342835031
  0
LINE
  5
296
100
AcDbEntity
  8
00_COMPONENTS
100
AcDbLine
 62
7
  6
BYLAYER
 10
34.2144392001
 20
53.8009319938
 11
29.3962153248
 21
57.2141366964
  0
LINE
  5
297
100
AcDbEntity
  8
INTFCLR_1
100
AcDbLine
 62
7
  6
BYLAYER
 10
33.2678427519
 20
60.214136697
 11
33.9669776011
 21
59.1373772332
  0
LINE
  5
298
100
AcDbEntity
  8
INTFCLR_1
100
AcDbLine
 62
7
  6
BYLAYER
 10
19.8678427523
 20
56.6745729888
 11
27.5678427523
 21
56.6745729888
  0
LINE
  5
299
100
AcDbEntity
  8
00_COMPONENTS
100
AcDbLine
 62
7
  6
BYLAYER
 10
18.0394701799
 20
57.2141366964
 11
13.2629485416
 21
57.2141366964
  0
LINE
  5
29A
100
AcDbEntity
  8
INTFCLR_1
100
AcDbLine
 62
7
  6
BYLAYER
 10
34.172736963
 20
57.2141366964
 11
13.2629485415
 21
57.2141366964
  0
LINE
  5
29B
100
AcDbEntity
  8
00_COMPONENTS
100
AcDbLine
 62
7
  6
BYLAYER
 10
29.3962153248
 20
57.2141366964
 11
34.1727369631
 21
57.2141366964
  0
LINE
  5
29C
100
AcDbEntity
  8
INTFCLR_1
100
AcDbLine
 62
7
  6
BYLAYER
 10
11.2631178692
 20
57.2402130472
 11
36.1725676338
 21
57.2402130472
  0
LINE
  5
29D
100
AcDbEntity
  8
INTFCLR_1
100
AcDbLine
 62
7
  6
BYLAYER
 10
36.1716329188
 20
57.3167169704
 11
11.2640525843
 21
57.3167169704
  0
LINE
  5
29E
100
AcDbEntity
  8
INTFCLR_1
100
AcDbLine
 62
7
  6
BYLAYER
 10
11.2666730026
 20
57.5311899895
 11
36.1690125019
 21
57.5311899895
  0
LINE
  5
29F
100
AcDbEntity
  8
INTFCLR_1
100
AcDbLine
 62
7
  6
BYLAYER
 10
25.1178427523
 20
57.7141366964
 11
22.3178427523
 21
57.7141366964
  0
LINE
  5
2A0
100
AcDbEntity
  8
INTFCLR_1
100
AcDbLine
 62
7
  6
BYLAYER
 10
36.1656237412
 20
57.80855028
 11
11.2700617711
 21
57.80855028
  0
LINE
  5
2A1
100
AcDbEntity
  8
INTFCLR_1
100
AcDbLine
 62
7
  6
BYLAYER
 10
11.2726558933
 20
58.0208718259
 11
36.1630296102
 21
58.0208718259
  0
LINE
  5
2A2
100
AcDbEntity
  8
INTFCLR_1
100
AcDbLine
 62
7
  6
BYLAYER
 10
36.1596408493
 20
58.2982321166
 11
11.2760446612
 21
58.2982321166
  0
LINE
  5
2A3
100
AcDbEntity
  8
INTFCLR_1
100
AcDbLine
 62
7
  6
BYLAYER
 10
11.2786387799
 20
58.5105536631
 11
36.1570467284
 21
58.5105536631
  0
LINE
  5
2A4
100
AcDbEntity
  8
INTFCLR_1
100
AcDbLine
 62
7
  6
BYLAYER
 10
25.9203219755
 20
58.6740011717
 11
33.7153635258
 21
58.674005395
  0
LINE
  5
2A5
100
AcDbEntity
  8
INTFCLR_1
100
AcDbLine
 62
7
  6
BYLAYER
 10
21.5153635253
 20
58.6740053965
 11
13.7203219787
 21
58.6740053965
  0
LINE
  5
2A6
100
AcDbEntity
  8
INTFCLR_1
100
AcDbLine
 62
7
  6
BYLAYER
 10
36.1536579611
 20
58.787913953
 11
11.2820275509
 21
58.787913953
  0
LINE
  5
2A7
100
AcDbEntity
  8
INTFCLR_1
100
AcDbLine
 62
7
  6
BYLAYER
 10
11.2846216699
 20
59.0002355001
 11
36.1510638384
 21
59.0002355001
  0
LINE
  5
2A8
100
AcDbEntity
  8
INTFCLR_1
100
AcDbLine
 62
7
  6
BYLAYER
 10
36.1476750737
 20
59.2775957887
 11
11.2880104409
 21
59.2775957887
  0
LINE
  5
2A9
100
AcDbEntity
  8
INTFCLR_1
100
AcDbLine
 62
7
  6
BYLAYER
 10
11.2906045598
 20
59.4899173382
 11
36.1450809482
 21
59.4899173382
  0
LINE
  5
2AA
100
AcDbEntity
  8
INTFCLR_1
100
AcDbLine
 62
7
  6
BYLAYER
 10
36.1416921833
 20
59.767277624
 11
11.2939933309
 21
59.767277624
  0
LINE
  5
2AB
100
AcDbEntity
  8
INTFCLR_1
100
AcDbLine
 62
7
  6
BYLAYER
 10
11.2965874496
 20
59.9795991743
 11
36.1390980588
 21
59.9795991743
  0
LINE
  5
2AC
100
AcDbEntity
  8
INTFCLR_1
100
AcDbLine
 62
7
  6
BYLAYER
 10
21.0678427512
 20
60.2141366964
 11
14.1678427526
 21
60.2141366964
  0
LINE
  5
2AD
100
AcDbEntity
  8
INTFCLR_1
100
AcDbLine
 62
7
  6
BYLAYER
 10
26.3678427535
 20
60.2141366964
 11
33.2678427486
 21
60.2141366964
  0
LINE
  5
2AE
100
AcDbEntity
  8
INTFCLR_1
100
AcDbLine
 62
7
  6
BYLAYER
 10
36.1357092932
 20
60.256959461
 11
11.299976221
 21
60.256959461
  0
LINE
  5
2AF
100
AcDbEntity
  8
INTFCLR_1
100
AcDbLine
 62
7
  6
BYLAYER
 10
11.3025703428
 20
60.4692810049
 11
36.1331151607
 21
60.4692810049
  0
LINE
  5
2B0
100
AcDbEntity
  8
INTFCLR_1
100
AcDbLine
 62
7
  6
BYLAYER
 10
36.1297264003
 20
60.7466412975
 11
11.305959111
 21
60.7466412975
  0
LINE
  5
2B1
100
AcDbEntity
  8
INTFCLR_1
100
AcDbLine
 62
7
  6
BYLAYER
 10
11.3085532325
 20
60.9589628421
 11
36.1271322713
 21
60.9589628421
  0
LINE
  5
2B2
100
AcDbEntity
  8
INTFCLR_1
100
AcDbLine
 62
7
  6
BYLAYER
 10
33.3178427523
 20
61.2141366964
 11
26.3178427523
 21
61.2141366964
  0
LINE
  5
2B3
100
AcDbEntity
  8
INTFCLR_1
100
AcDbLine
 62
7
  6
BYLAYER
 10
21.1178427523
 20
61.2141366964
 11
14.1178427523
 21
61.2141366964
  0
LINE
  5
2B4
100
AcDbEntity
  8
INTFCLR_1
100
AcDbLine
 62
7
  6
BYLAYER
 10
36.1231706665
 20
61.2363231341
 11
11.3119420007
 21
61.2363231341
  0
LINE
  5
2B5
100
AcDbEntity
  8
INTFCLR_1
100
AcDbLine
 62
7
  6
BYLAYER
 10
11.3145361205
 20
61.4486446848
 11
36.0110911014
 21
61.4486446848
  0
LINE
  5
2B6
100
AcDbEntity
  8
INTFCLR_1
100
AcDbLine
 62
7
  6
BYLAYER
 10
11.3153362947
 20
61.5141366959
 11
35.8239922126
 21
61.5141366959
  0
ARC
  5
2B7
100
AcDbEntity
  8
INTFCLR_1
100
AcDbCircle
 62
7
  6
BYLAYER
 10
19.2723665539
 20
52.2423804103
 40
2.6495228178
100
AcDbArc
 50
356.8346657996
 51
359.8249045007
  0
ARC
  5
2B8
100
AcDbEntity
  8
INTFCLR_1
100
AcDbCircle
 62
7
  6
BYLAYER
 10
28.1115469916
 20
52.2408732476
 40
2.5977405299
100
AcDbArc
 50
180.1453433478
 51
183.1948390686
  0
ARC
  5
2B9
100
AcDbEntity
  8
INTFCLR_1
100
AcDbCircle
 62
7
  6
BYLAYER
 10
34.2893920211
 20
47.6662654024
 40
1.2529822746
100
AcDbArc
 50
90.6999999888
 51
180.0973405057
  0
ARC
  5
2BA
100
AcDbEntity
  8
INTFCLR_1
100
AcDbCircle
 62
7
  6
BYLAYER
 10
13.1462934834
 20
47.6662654024
 40
1.2529822746
100
AcDbArc
 50
359.9026594945
 51
89.3000000424
  0
ARC
  5
2BB
100
AcDbEntity
  8
INTFCLR_1
100
AcDbCircle
 62
7
  6
BYLAYER
 10
35.8239921943
 20
61.2141366964
 40
0.3
100
AcDbArc
 50
0.7000000983
 51
4.2411694458
  0
ARC
  5
2BC
100
AcDbEntity
  8
INTFCLR_1
100
AcDbCircle
 62
7
  6
BYLAYER
 10
35.8239921943
 20
61.2141366964
 40
0.3
100
AcDbArc
 50
4.2411694458
 51
89.9999994869
  0
ARC
  5
2BD
100
AcDbEntity
  8
INTFCLR_1
100
AcDbCircle
 62
7
  6
BYLAYER
 10
21.5153635253
 20
58.9740053964
 40
0.3
100
AcDbArc
 50
270.0000002745
 51
32.9954744885
  0
ARC
  5
2BE
100
AcDbEntity
  8
INTFCLR_1
100
AcDbCircle
 62
7
  6
BYLAYER
 10
13.7203219793
 20
58.9740053964
 40
0.3
100
AcDbArc
 50
147.0045258631
 51
269.9999999055
  0
ARC
  5
2BF
100
AcDbEntity
  8
INTFCLR_1
100
AcDbCircle
 62
7
  6
BYLAYER
 10
25.9203219793
 20
58.9740053964
 40
0.3
100
AcDbArc
 50
147.0045255387
 51
269.9999996764
  0
ARC
  5
2C0
100
AcDbEntity
  8
INTFCLR_1
100
AcDbCircle
 62
7
  6
BYLAYER
 10
33.7153635253
 20
58.9740053964
 40
0.3
100
AcDbArc
 50
270.0000000453
 51
32.9954741642
  0
SPLINE
  5
2C1
100
AcDbEntity
  8
INTFCLR_1
100
AcDbSpline
 62
7
  6
BYLAYER
 70
0
 71
3
 72
27
 73
23
 74
0
 42
0.0000001
 43
0.0000001
 44
0.0000000001
 40
0.0
 40
0.0
 40
0.0
 40
0.0
 40
0.0031432524
 40
0.0123941408
 40
0.0277273665
 40
0.0490532644
 40
0.0762374767
 40
0.1091167031
 40
0.1474899632
 40
0.1911222725
 40
0.2397456825
 40
0.293058368
 40
0.3507277098
 40
0.412393134
 40
0.4776719701
 40
0.5461727324
 40
0.6174895448
 40
0.6911892649
 40
0.7666288247
 40
0.8435576102
 40
0.9215068927
 40
1.0
 40
1.0
 40
1.0
 40
1.0
 10
34.7750800583
 20
7.9141366964
 30
0.0
 10
34.7755342281
 20
7.9123511016
 30
0.0
 10
34.7769015613
 20
7.9052525091
 30
0.0
 10
34.777232131
 20
7.8890057054
 30
0.0
 10
34.7785569285
 20
7.8622915928
 30
0.0
 10
34.7794415902
 20
7.8250344548
 30
0.0
 10
34.7805401896
 20
7.7775701694
 30
0.0
 10
34.7815714669
 20
7.7201460998
 30
0.0
 10
34.7826338833
 20
7.6531288079
 30
0.0
 10
34.7836904801
 20
7.5769235974
 30
0.0
 10
34.7847519727
 20
7.4920020995
 30
0.0
 10
34.7858139708
 20
7.3988903446
 30
0.0
 10
34.7868771927
 20
7.2981691568
 30
0.0
 10
34.787940969
 20
7.1904662526
 30
0.0
 10
34.789005261
 20
7.0764437488
 30
0.0
 10
34.7900700392
 20
6.9567901572
 30
0.0
 10
34.7911353671
 20
6.8322234324
 30
0.0
 10
34.7922003381
 20
6.7036082956
 30
0.0
 10
34.7932651062
 20
6.5717188841
 30
0.0
 10
34.7943297765
 20
6.437350093
 30
0.0
 10
34.7953953084
 20
6.3011997383
 30
0.0
 10
34.7961052163
 20
6.2099301341
 30
0.0
 10
34.7964614054
 20
6.1641366964
 30
0.0
  0
SPLINE
  5
2C2
100
AcDbEntity
  8
INTFCLR_1
100
AcDbSpline
 62
7
  6
BYLAYER
 70
0
 71
3
 72
27
 73
23
 74
0
 42
0.0000001
 43
0.0000001
 44
0.0000000001
 40
0.0
 40
0.0
 40
0.0
 40
0.0
 40
0.0784635392
 40
0.156441734
 40
0.2334547526
 40
0.3090286785
 40
0.3826863937
 40
0.4539865896
 40
0.5224909437
 40
0.5877774787
 40
0.649443009
 40
0.7071035949
 40
0.7604001252
 40
0.8090016868
 40
0.852609876
 40
0.8909644845
 40
0.9238354109
 40
0.9510175629
 40
0.9722927176
 40
0.9876057647
 40
0.9968544193
 40
1.0
 40
1.0
 40
1.0
 40
1.0
 10
34.7964614054
 20
6.1641366964
 30
0.0
 10
34.7968174603
 20
6.1183605093
 30
0.0
 10
34.7975273652
 20
6.0270912885
 30
0.0
 10
34.7985932762
 20
5.8908921755
 30
0.0
 10
34.7996590976
 20
5.7563789859
 30
0.0
 10
34.8007247404
 20
5.6243865499
 30
0.0
 10
34.8017901604
 20
5.4957272251
 30
0.0
 10
34.8028553042
 20
5.3711926067
 30
0.0
 10
34.8039201636
 20
5.2515421241
 30
0.0
 10
34.8049846582
 20
5.1375129739
 30
0.0
 10
34.8060486089
 20
5.0298106272
 30
0.0
 10
34.8071118978
 20
4.9291039137
 30
0.0
 10
34.8081738426
 20
4.8360194415
 30
0.0
 10
34.8092351715
 20
4.7511341894
 30
0.0
 10
34.8102915646
 20
4.674966682
 30
0.0
 10
34.811353844
 20
4.6079791869
 30
0.0
 10
34.8123852426
 20
4.5505720535
 30
0.0
 10
34.8134835041
 20
4.5031434036
 30
0.0
 10
34.8143681158
 20
4.4659289314
 30
0.0
 10
34.8156907369
 20
4.439257318
 30
0.0
 10
34.8160215556
 20
4.4230223916
 30
0.0
 10
34.8173883462
 20
4.4159236394
 30
0.0
 10
34.8178427522
 20
4.4141366964
 30
0.0
  0
SPLINE
  5
2C3
100
AcDbEntity
  8
INTFCLR_1
100
AcDbSpline
 62
7
  6
BYLAYER
 70
0
 71
3
 72
24
 73
20
 74
0
 42
0.0000001
 43
0.0000001
 44
0.0000000001
 40
0.0
 40
0.0
 40
0.0
 40
0.0
 40
0.0665852479
 40
0.1254750358
 40
0.1850252134
 40
0.2437521861
 40
0.3051974241
 40
0.364860989
 40
0.4219312641
 40
0.4793748414
 40
0.5366536298
 40
0.59313239
 40
0.65013139
 40
0.7070631339
 40
0.7640661435
 40
0.8209283707
 40
0.8780721926
 40
0.9364370443
 40
1.0
 40
1.0
 40
1.0
 40
1.0
 10
21.5153635282
 20
58.674005395
 30
0.0
 10
21.5296457125
 20
58.6743024685
 30
0.0
 10
21.5565906665
 20
58.6760193034
 30
0.0
 10
21.5955871643
 20
58.6840091843
 30
0.0
 10
21.6316548643
 20
58.6963578797
 30
0.0
 10
21.6661973961
 20
58.7137344616
 30
0.0
 10
21.6983313417
 20
58.735257446
 30
0.0
 10
21.7273609788
 20
58.7602936589
 30
0.0
 10
21.7521841274
 20
58.788369992
 30
0.0
 10
21.7730037946
 20
58.8188894921
 30
0.0
 10
21.7900540292
 20
58.8515183195
 30
0.0
 10
21.8030515994
 20
58.8858633361
 30
0.0
 10
21.8117428984
 20
58.9214758194
 30
0.0
 10
21.815813996
 20
58.958020778
 30
0.0
 10
21.815348735
 20
58.9947506649
 30
0.0
 10
21.8104709386
 20
59.0312028085
 30
0.0
 10
21.8011636826
 20
59.0670853877
 30
0.0
 10
21.7869979019
 20
59.1029086441
 30
0.0
 10
21.7741931537
 20
59.1258057222
 30
0.0
 10
21.7669775997
 20
59.1373772363
 30
0.0
  0
SPLINE
  5
2C4
100
AcDbEntity
  8
INTFCLR_1
100
AcDbSpline
 62
7
  6
BYLAYER
 70
0
 71
3
 72
24
 73
20
 74
0
 42
0.0000001
 43
0.0000001
 44
0.0000000001
 40
0.0
 40
0.0
 40
0.0
 40
0.0
 40
0.0665852463
 40
0.1254750505
 40
0.1850252668
 40
0.2437522594
 40
0.3051975086
 40
0.3648610388
 40
0.4219312758
 40
0.4793748419
 40
0.5366536071
 40
0.5931323503
 40
0.6501313552
 40
0.7070631144
 40
0.7640661544
 40
0.8209284015
 40
0.8780722276
 40
0.936437066
 40
1.0
 40
1.0
 40
1.0
 40
1.0
 10
33.7153635258
 20
58.674005395
 30
0.0
 10
33.7296457096
 20
58.6743024683
 30
0.0
 10
33.7565906665
 20
58.6760193043
 30
0.0
 10
33.7955871749
 20
58.6840091885
 30
0.0
 10
33.8316548894
 20
58.6963578916
 30
0.0
 10
33.86619743
 20
58.7137344881
 30
0.0
 10
33.8983313761
 20
58.7352574694
 30
0.0
 10
33.9273610013
 20
58.7602936756
 30
0.0
 10
33.9521841341
 20
58.7883699983
 30
0.0
 10
33.9730037859
 20
58.8188894895
 30
0.0
 10
33.9900540142
 20
58.851518307
 30
0.0
 10
34.0030515846
 20
58.885863315
 30
0.0
 10
34.011742888
 20
58.9214757977
 30
0.0
 10
34.0158139889
 20
58.9580207666
 30
0.0
 10
34.0153487282
 20
58.9947506674
 30
0.0
 10
34.0104709309
 20
59.0312028223
 30
0.0
 10
34.0011636763
 20
59.0670854038
 30
0.0
 10
33.9869979051
 20
59.1029086565
 30
0.0
 10
33.9741931589
 20
59.1258057272
 30
0.0
 10
33.9669776059
 20
59.1373772363
 30
0.0
  0
SPLINE
  5
2C5
100
AcDbEntity
  8
INTFCLR_1
100
AcDbSpline
 62
7
  6
BYLAYER
 70
0
 71
3
 72
18
 73
14
 74
0
 42
0.0000001
 43
0.0000001
 44
0.0000000001
 40
0.0
 40
0.0
 40
0.0
 40
0.0
 40
0.0315885829
 40
0.0828363655
 40
0.1497873771
 40
0.2355143223
 40
0.333068599
 40
0.4196363701
 40
0.5264164185
 40
0.6377367878
 40
0.754489559
 40
0.8814286062
 40
1.0
 40
1.0
 40
1.0
 40
1.0
 10
36.0110911014
 20
61.4486446848
 30
0.0
 10
36.0095066162
 20
61.4500638365
 30
0.0
 10
36.0050024643
 20
61.4533729427
 30
0.0
 10
35.9969656089
 20
61.4594577972
 30
0.0
 10
35.985620579
 20
61.4672130506
 30
0.0
 10
35.9711797134
 20
61.4759101509
 30
0.0
 10
35.9550806123
 20
61.484371287
 30
0.0
 10
35.9371152041
 20
61.4922098522
 30
0.0
 10
35.9178557436
 20
61.4993129813
 30
0.0
 10
35.8962077971
 20
61.5057068326
 30
0.0
 10
35.8727477455
 20
61.5104414274
 30
0.0
 10
35.8485172206
 20
61.5134647237
 30
0.0
 10
35.8319765534
 20
61.5141418264
 30
0.0
 10
35.8239922126
 20
61.5141366959
 30
0.0
  0
SPLINE
  5
2C6
100
AcDbEntity
  8
INTFCLR_1
100
AcDbSpline
 62
7
  6
BYLAYER
 70
0
 71
3
 72
12
 73
8
 74
0
 42
0.0000001
 43
0.0000001
 44
0.0000000001
 40
0.0
 40
0.0
 40
0.0
 40
0.0
 40
0.2147665008
 40
0.4255832449
 40
0.6287427785
 40
0.8210279634
 40
1.0
 40
1.0
 40
1.0
 40
1.0
 10
36.0888306191
 20
61.3550647974
 30
0.0
 10
36.0836639031
 20
61.3620930469
 30
0.0
 10
36.0734257498
 20
61.376020612
 30
0.0
 10
36.058020483
 20
61.3963898216
 30
0.0
 10
36.0426115981
 20
61.4156044477
 30
0.0
 10
36.0271953917
 20
61.4331291277
 30
0.0
 10
36.0164892355
 20
61.4437762899
 30
0.0
 10
36.011091102
 20
61.4486446849
 30
0.0
  0
SPLINE
  5
2C7
100
AcDbEntity
  8
INTFCLR_1
100
AcDbSpline
 62
7
  6
BYLAYER
 70
0
 71
3
 72
16
 73
12
 74
0
 42
0.0000001
 43
0.0000001
 44
0.0000000001
 40
0.0
 40
0.0
 40
0.0
 40
0.0
 40
0.0535724587
 40
0.1254139276
 40
0.2144011289
 40
0.3164555797
 40
0.4331391376
 40
0.5635249788
 40
0.6999117273
 40
0.8454990288
 40
1.0
 40
1.0
 40
1.0
 40
1.0
 10
36.1231706666
 20
61.2363231329
 30
0.0
 10
36.1229650605
 20
61.2385258204
 30
0.0
 10
36.1222295706
 20
61.2436569399
 30
0.0
 10
36.1206054319
 20
61.2523608923
 30
0.0
 10
36.1182817323
 20
61.262966877
 30
0.0
 10
36.1152540243
 20
61.2753093667
 30
0.0
 10
36.1114957453
 20
61.2892292726
 30
0.0
 10
36.1070081704
 20
61.3044164491
 30
0.0
 10
36.1017750946
 20
61.3206226872
 30
0.0
 10
36.095768806
 20
61.3376193653
 30
0.0
 10
36.0912546679
 20
61.3491631495
 30
0.0
 10
36.0888306191
 20
61.3550647974
 30
0.0
  0
SPLINE
  5
2C8
100
AcDbEntity
  8
INTFCLR_1
100
AcDbSpline
 62
7
  6
BYLAYER
 70
0
 71
3
 72
24
 73
20
 74
0
 42
0.0000001
 43
0.0000001
 44
0.0000000001
 40
0.0
 40
0.0
 40
0.0
 40
0.0
 40
0.0664443313
 40
0.1255087804
 40
0.1848645146
 40
0.2427488866
 40
0.3061553626
 40
0.3639178867
 40
0.4197086899
 40
0.4766924106
 40
0.5349413673
 40
0.5914904888
 40
0.6489611237
 40
0.7072943872
 40
0.7657547648
 40
0.8227927741
 40
0.8787433652
 40
0.9363894382
 40
1.0
 40
1.0
 40
1.0
 40
1.0
 10
21.7669776015
 20
59.1373772312
 30
0.0
 10
21.7744961056
 20
59.1252659104
 30
0.0
 10
21.7877248813
 20
59.101721125
 30
0.0
 10
21.8022617051
 20
59.0646987849
 30
0.0
 10
21.8114896892
 20
59.0279035018
 30
0.0
 10
21.815860496
 20
58.9892842366
 30
0.0
 10
21.8151874251
 20
58.9507725874
 30
0.0
 10
21.8101123748
 20
58.9130543497
 30
0.0
 10
21.8004984745
 20
58.87764627
 30
0.0
 10
21.7864950729
 20
58.8436265383
 30
0.0
 10
21.7682797152
 20
58.811489117
 30
0.0
 10
21.7465780139
 20
58.7814747872
 30
0.0
 10
21.7212747215
 20
58.7543646714
 30
0.0
 10
21.6922993191
 20
58.7305660119
 30
0.0
 10
21.6606096131
 20
58.7107239278
 30
0.0
 10
21.6272561682
 20
58.6950076943
 30
0.0
 10
21.5924158398
 20
58.6834873045
 30
0.0
 10
21.5550393398
 20
58.6759940119
 30
0.0
 10
21.5290079462
 20
58.6742845257
 30
0.0
 10
21.5153635253
 20
58.6740053965
 30
0.0
  0
SPLINE
  5
2C9
100
AcDbEntity
  8
INTFCLR_1
100
AcDbSpline
 62
7
  6
BYLAYER
 70
0
 71
3
 72
24
 73
20
 74
0
 42
0.0000001
 43
0.0000001
 44
0.0000000001
 40
0.0
 40
0.0
 40
0.0
 40
0.0
 40
0.0664443312
 40
0.1255087804
 40
0.1848645145
 40
0.2427488865
 40
0.3061553626
 40
0.3639178867
 40
0.41970869
 40
0.4766924107
 40
0.5349413674
 40
0.5914904889
 40
0.6489611238
 40
0.7072943873
 40
0.7657547648
 40
0.8227927741
 40
0.8787433652
 40
0.9363894382
 40
1.0
 40
1.0
 40
1.0
 40
1.0
 10
33.9669776014
 20
59.1373772312
 30
0.0
 10
33.9744961056
 20
59.1252659104
 30
0.0
 10
33.9877248813
 20
59.1017211251
 30
0.0
 10
34.002261705
 20
59.0646987849
 30
0.0
 10
34.0114896892
 20
59.0279035019
 30
0.0
 10
34.015860496
 20
58.9892842367
 30
0.0
 10
34.0151874251
 20
58.9507725875
 30
0.0
 10
34.0101123748
 20
58.9130543497
 30
0.0
 10
34.0004984745
 20
58.87764627
 30
0.0
 10
33.9864950729
 20
58.8436265382
 30
0.0
 10
33.9682797152
 20
58.811489117
 30
0.0
 10
33.9465780138
 20
58.7814747872
 30
0.0
 10
33.9212747215
 20
58.7543646713
 30
0.0
 10
33.8922993191
 20
58.7305660119
 30
0.0
 10
33.8606096131
 20
58.7107239278
 30
0.0
 10
33.8272561682
 20
58.6950076943
 30
0.0
 10
33.7924158398
 20
58.6834873045
 30
0.0
 10
33.7550393398
 20
58.6759940119
 30
0.0
 10
33.7290079462
 20
58.6742845257
 30
0.0
 10
33.7153635253
 20
58.6740053965
 30
0.0
  0
SPLINE
  5
2CA
100
AcDbEntity
  8
INTFCLR_1
100
AcDbSpline
 62
7
  6
BYLAYER
 70
0
 71
3
 72
28
 73
24
 74
0
 42
0.0000001
 43
0.0000001
 44
0.0000000001
 40
0.0
 40
0.0
 40
0.0
 40
0.0
 40
0.0476209352
 40
0.0935446336
 40
0.138969275
 40
0.1862709049
 40
0.2305173991
 40
0.2756061635
 40
0.3217175425
 40
0.3691583436
 40
0.4155937495
 40
0.4632446034
 40
0.5091198507
 40
0.5559581573
 40
0.6030253172
 40
0.6477897769
 40
0.6946441883
 40
0.7435074954
 40
0.7930672978
 40
0.842355006
 40
0.8941672254
 40
0.9452780429
 40
1.0
 40
1.0
 40
1.0
 40
1.0
 10
19.8678427523
 20
54.8223087191
 30
0.0
 10
19.9250663314
 20
54.806778065
 30
0.0
 10
20.0365505666
 20
54.7727392884
 30
0.0
 10
20.1987099862
 20
54.7120809619
 30
0.0
 10
20.3565614516
 20
54.6419255803
 30
0.0
 10
20.507977767
 20
54.5631976548
 30
0.0
 10
20.6539684841
 20
54.4756573613
 30
0.0
 10
20.7932955012
 20
54.3804521285
 30
0.0
 10
20.9297345805
 20
54.274523175
 30
0.0
 10
21.0605584333
 20
54.1591662769
 30
0.0
 10
21.185221151
 20
54.0344597073
 30
0.0
 10
21.3004639936
 20
53.9035743124
 30
0.0
 10
21.4075137374
 20
53.7652853639
 30
0.0
 10
21.5052553283
 20
53.6211369021
 30
0.0
 10
21.5928779217
 20
53.472222818
 30
0.0
 10
21.6709744268
 20
53.3180915829
 30
0.0
 10
21.7400944135
 20
53.1572776927
 30
0.0
 10
21.8004241298
 20
52.9866002359
 30
0.0
 10
21.849757892
 20
52.8092701225
 30
0.0
 10
21.8874738926
 20
52.6253619032
 30
0.0
 10
21.9122991548
 20
52.4372997304
 30
0.0
 10
21.9238018257
 20
52.2411914909
 30
0.0
 10
21.9216230598
 20
52.1092751982
 30
0.0
 10
21.9178427505
 20
52.041244872
 30
0.0
  0
SPLINE
  5
2CB
100
AcDbEntity
  8
INTFCLR_1
100
AcDbSpline
 62
7
  6
BYLAYER
 70
0
 71
3
 72
47
 73
43
 74
0
 42
0.0000001
 43
0.0000001
 44
0.0000000001
 40
0.0
 40
0.0
 40
0.0
 40
0.0
 40
0.0258944347
 40
0.0517354931
 40
0.0775213551
 40
0.1032458446
 40
0.1289004444
 40
0.1544874943
 40
0.1799945332
 40
0.2054273979
 40
0.2307771702
 40
0.2560525402
 40
0.2812403333
 40
0.3063501998
 40
0.3313789585
 40
0.3563204043
 40
0.3811867361
 40
0.4059750912
 40
0.4306966306
 40
0.4553542865
 40
0.479956512
 40
0.5045056466
 40
0.5290123085
 40
0.5534870163
 40
0.5779355852
 40
0.6023712826
 40
0.6267999459
 40
0.6512379237
 40
0.6756892322
 40
0.7001708599
 40
0.7246882061
 40
0.7492586943
 40
0.7738878727
 40
0.7985927279
 40
0.8233779231
 40
0.8482593543
 40
0.8732422974
 40
0.89834029
 40
0.9235571919
 40
0.9489035143
 40
0.9743830882
 40
1.0
 40
1.0
 40
1.0
 40
1.0
 10
19.8678427522
 20
54.8895729298
 30
0.0
 10
19.8978727157
 20
54.8813638428
 30
0.0
 10
19.9576042809
 20
54.8639692003
 30
0.0
 10
20.0461934135
 20
54.8349635967
 30
0.0
 10
20.1335869534
 20
54.8031224857
 30
0.0
 10
20.2196770084
 20
54.7685065139
 30
0.0
 10
20.3043652962
 20
54.7311789394
 30
0.0
 10
20.3875495414
 20
54.6912103608
 30
0.0
 10
20.4691467047
 20
54.6486680195
 30
0.0
 10
20.5490651022
 20
54.6036285472
 30
0.0
 10
20.6272385704
 20
54.5561589369
 30
0.0
 10
20.703584345
 20
54.5063397773
 30
0.0
 10
20.7780417982
 20
54.45424195
 30
0.0
 10
20.8505415916
 20
54.3999459524
 30
0.0
 10
20.9210240614
 20
54.3435286752
 30
0.0
 10
20.9894350978
 20
54.2850666093
 30
0.0
 10
21.05572337
 20
54.2246365304
 30
0.0
 10
21.1198547565
 20
54.1623010224
 30
0.0
 10
21.1817882233
 20
54.0981296203
 30
0.0
 10
21.2414930464
 20
54.0321813095
 30
0.0
 10
21.298931849
 20
53.9645219855
 30
0.0
 10
21.3540738573
 20
53.8952099354
 30
0.0
 10
21.4068897419
 20
53.8243005212
 30
0.0
 10
21.4573517938
 20
53.7518444841
 30
0.0
 10
21.5054329955
 20
53.6778888456
 30
0.0
 10
21.5511018306
 20
53.6024843427
 30
0.0
 10
21.5943316967
 20
53.525670123
 30
0.0
 10
21.6350882075
 20
53.4474941919
 30
0.0
 10
21.6733410077
 20
53.3679923594
 30
0.0
 10
21.7090513333
 20
53.2872120396
 30
0.0
 10
21.7421843078
 20
53.2051861291
 30
0.0
 10
21.7726966053
 20
53.1219605696
 30
0.0
 10
21.8005466699
 20
53.0375690994
 30
0.0
 10
21.8256846859
 20
52.9520611179
 30
0.0
 10
21.8480614292
 20
52.8654758269
 30
0.0
 10
21.867620937
 20
52.7778680647
 30
0.0
 10
21.8843068542
 20
52.6892848548
 30
0.0
 10
21.8980573748
 20
52.5997903358
 30
0.0
 10
21.9088097521
 20
52.5094460631
 30
0.0
 10
21.9164982129
 20
52.4183285248
 30
0.0
 10
21.9210562718
 20
52.3265201104
 30
0.0
 10
21.9219610172
 20
52.2650807391
 30
0.0
 10
21.9218740059
 20
52.2342827345
 30
0.0
  0
SPLINE
  5
2CC
100
AcDbEntity
  8
INTFCLR_1
100
AcDbSpline
 62
7
  6
BYLAYER
 70
0
 71
3
 72
28
 73
24
 74
0
 42
0.0000001
 43
0.0000001
 44
0.0000000001
 40
0.0
 40
0.0
 40
0.0
 40
0.0
 40
0.0502514143
 40
0.1002386209
 40
0.1501912187
 40
0.1996070753
 40
0.2486128496
 40
0.2976137097
 40
0.3464001195
 40
0.394721873
 40
0.4415002049
 40
0.4879038574
 40
0.5347087711
 40
0.5818970937
 40
0.627835253
 40
0.673514723
 40
0.7192908625
 40
0.7654212501
 40
0.811906454
 40
0.8580324317
 40
0.9053422673
 40
0.9514112208
 40
1.0
 40
1.0
 40
1.0
 40
1.0
 10
27.5678427523
 20
54.8895729299
 30
0.0
 10
27.5095726583
 20
54.8736440305
 30
0.0
 10
27.3943239093
 20
54.8381299194
 30
0.0
 10
27.2254309955
 20
54.7739843015
 30
0.0
 10
27.0618828231
 20
54.6996059526
 30
0.0
 10
26.9044346713
 20
54.6155475542
 30
0.0
 10
26.7535716532
 20
54.5223369447
 30
0.0
 10
26.6094725935
 20
54.420280541
 30
0.0
 10
26.4727061303
 20
54.3098956326
 30
0.0
 10
26.3450666994
 20
54.192998231
 30
0.0
 10
26.2268288712
 20
54.0705633322
 30
0.0
 10
26.1173665402
 20
53.9426164467
 30
0.0
 10
26.0155280124
 20
53.8079003703
 30
0.0
 10
25.9224199455
 20
53.6676765855
 30
0.0
 10
25.8386877129
 20
53.5232297654
 30
0.0
 10
25.7645358903
 20
53.375536831
 30
0.0
 10
25.6993152509
 20
53.2234353328
 30
0.0
 10
25.643126579
 20
53.0667382391
 30
0.0
 10
25.5965681794
 20
52.9064731957
 30
0.0
 10
25.559701612
 20
52.7422532586
 30
0.0
 10
25.5332931461
 20
52.5765263543
 30
0.0
 10
25.5171145131
 20
52.4065296417
 30
0.0
 10
25.5136465095
 20
52.2926926485
 30
0.0
 10
25.5138114965
 20
52.234283503
 30
0.0
  0
SPLINE
  5
2CD
100
AcDbEntity
  8
INTFCLR_1
100
AcDbSpline
 62
7
  6
BYLAYER
 70
0
 71
3
 72
28
 73
24
 74
0
 42
0.0000001
 43
0.0000001
 44
0.0000000001
 40
0.0
 40
0.0
 40
0.0
 40
0.0
 40
0.046340559
 40
0.0920035316
 40
0.1372774707
 40
0.1840201653
 40
0.2282555038
 40
0.2730538084
 40
0.3190494246
 40
0.3661854425
 40
0.4133412101
 40
0.460424702
 40
0.5055340296
 40
0.5527633276
 40
0.6013858499
 40
0.6480291546
 40
0.6957583679
 40
0.744026138
 40
0.7941018295
 40
0.8436034335
 40
0.8951057897
 40
0.9457541823
 40
1.0
 40
1.0
 40
1.0
 40
1.0
 10
27.5678427522
 20
54.8223087209
 30
0.0
 10
27.5121577311
 20
54.8071956362
 30
0.0
 10
27.4024869569
 20
54.7738111575
 30
0.0
 10
27.2421911883
 20
54.7141893631
 30
0.0
 10
27.0852956783
 20
54.644862003
 30
0.0
 10
26.934476476
 20
54.5669402845
 30
0.0
 10
26.789144108
 20
54.4803876995
 30
0.0
 10
26.6499450685
 20
54.3859211914
 30
0.0
 10
26.5138396212
 20
54.2810090815
 30
0.0
 10
26.382302047
 20
54.1659020939
 30
0.0
 10
26.2573331456
 20
54.0417641091
 30
0.0
 10
26.1421526373
 20
53.911847232
 30
0.0
 10
26.0352295263
 20
53.7749520717
 30
0.0
 10
25.9359915177
 20
53.630041233
 30
0.0
 10
25.8454418496
 20
53.4773107753
 30
0.0
 10
25.7647625927
 20
53.3184589351
 30
0.0
 10
25.6947303766
 20
53.1551048351
 30
0.0
 10
25.634266979
 20
52.9834286913
 30
0.0
 10
25.5850785847
 20
52.8058804812
 30
0.0
 10
25.5475531113
 20
52.6213980037
 30
0.0
 10
25.523107389
 20
52.4339900435
 30
0.0
 10
25.5118916931
 20
52.2394262926
 30
0.0
 10
25.5140953348
 20
52.1086833523
 30
0.0
 10
25.5178427516
 20
52.041244959
 30
0.0
  0
LINE
  5
2CE
100
AcDbEntity
  8
INTFCLR_1
100
AcDbLine
 62
7
  6
BYLAYER
 10
34.2893229544
 20
47.6662653939
 11
34.8598732718
 21
47.6662654028
  0
LINE
  5
2CF
100
AcDbEntity
  8
INTFCLR_1
100
AcDbLine
 62
7
  6
BYLAYER
 10
34.8598732714
 20
47.666265403
 11
34.2893920209
 21
47.6662654033
  0
LINE
  5
2D0
100
AcDbEntity
  8
INTFCLR_1
100
AcDbLine
 62
7
  6
BYLAYER
 10
34.2867233456
 20
47.8846719961
 11
34.273949257
 21
48.9191503716
  0
LINE
  5
2D1
100
AcDbEntity
  8
INTFCLR_1
100
AcDbLine
 62
7
  6
BYLAYER
 10
34.273949257
 20
48.9191503716
 11
34.2893229544
 21
47.6662653939
  0
LINE
  5
2D2
100
AcDbEntity
  8
INTFCLR_1
100
AcDbLine
 62
7
  6
BYLAYER
 10
34.8598732714
 20
47.6662654032
 11
34.8604821574
 21
47.6363735593
  0
SPLINE
  5
2D3
100
AcDbEntity
  8
INTFCLR_1
100
AcDbSpline
 62
7
  6
BYLAYER
 70
0
 71
3
 72
13
 73
9
 74
0
 42
0.0000001
 43
0.0000001
 44
0.0000000001
 40
0.0
 40
0.0
 40
0.0
 40
0.0
 40
0.2359197269
 40
0.4411240489
 40
0.582270855
 40
0.7220870877
 40
0.8756223266
 40
1.0
 40
1.0
 40
1.0
 40
1.0
 10
34.2789695022
 20
47.6641483955
 30
0.0
 10
34.2797363064
 20
47.6641645558
 30
0.0
 10
34.2811710316
 20
47.6641658201
 30
0.0
 10
34.2830623356
 20
47.664144676
 30
0.0
 10
34.2846468499
 20
47.664210038
 30
0.0
 10
34.2860455075
 20
47.6639430223
 30
0.0
 10
34.2874075289
 20
47.6640594839
 30
0.0
 10
34.2883066375
 20
47.6641386112
 30
0.0
 10
34.2887063461
 20
47.6641997114
 30
0.0
  0
SPLINE
  5
2D4
100
AcDbEntity
  8
INTFCLR_1
100
AcDbSpline
 62
7
  6
BYLAYER
 70
0
 71
3
 72
12
 73
8
 74
0
 42
0.0000001
 43
0.0000001
 44
0.0000000001
 40
0.0
 40
0.0
 40
0.0
 40
0.0
 40
0.1565911958
 40
0.3805697053
 40
0.5718825655
 40
0.7798327172
 40
1.0
 40
1.0
 40
1.0
 40
1.0
 10
34.2887063461
 20
47.6641997114
 30
0.0
 10
34.2886083113
 20
47.6642665765
 30
0.0
 10
34.2884014534
 20
47.664476391
 30
0.0
 10
34.2882084981
 20
47.664870738
 30
0.0
 10
34.2880881948
 20
47.6653307238
 30
0.0
 10
34.2880983681
 20
47.665807629
 30
0.0
 10
34.2882278945
 20
47.6661186608
 30
0.0
 10
34.2883275607
 20
47.6662524666
 30
0.0
  0
SPLINE
  5
2D5
100
AcDbEntity
  8
INTFCLR_1
100
AcDbSpline
 62
7
  6
BYLAYER
 70
0
 71
3
 72
67
 73
63
 74
0
 42
0.0000001
 43
0.0000001
 44
0.0000000001
 40
0.0
 40
0.0
 40
0.0
 40
0.0
 40
0.0031740058
 40
0.0065102025
 40
0.0100335123
 40
0.0138113997
 40
0.018009902
 40
0.022739952
 40
0.0279759454
 40
0.033803566
 40
0.0407659129
 40
0.0483915446
 40
0.0576470664
 40
0.066919321
 40
0.0755777162
 40
0.0833922657
 40
0.0898917055
 40
0.0954724202
 40
0.1010614475
 40
0.1076222894
 40
0.1156625587
 40
0.1235555379
 40
0.1329344315
 40
0.1427320025
 40
0.1539109084
 40
0.1656951639
 40
0.1798688494
 40
0.1899103563
 40
0.202614956
 40
0.2192429677
 40
0.2361304257
 40
0.2471562254
 40
0.2616838432
 40
0.2820096953
 40
0.3031400637
 40
0.3201289822
 40
0.3436022107
 40
0.3679215236
 40
0.3922487386
 40
0.4180534701
 40
0.4409161936
 40
0.4606629318
 40
0.4814285188
 40
0.5012133364
 40
0.520669389
 40
0.5369156764
 40
0.5485487342
 40
0.5547750661
 40
0.555645314
 40
0.5601942355
 40
0.5701568579
 40
0.5854626438
 40
0.6060470902
 40
0.6317800776
 40
0.6625169437
 40
0.6981392587
 40
0.7383972832
 40
0.7831531308
 40
0.8319272143
 40
0.8848304947
 40
0.9405698761
 40
1.0
 40
1.0
 40
1.0
 40
1.0
 10
34.2883275607
 20
47.6662524666
 30
0.0
 10
34.2858660492
 20
47.6662648834
 30
0.0
 10
34.2808030951
 20
47.6668966089
 30
0.0
 10
34.2734427026
 20
47.6696055301
 30
0.0
 10
34.2664460079
 20
47.674094079
 30
0.0
 10
34.2600502869
 20
47.6803950616
 30
0.0
 10
34.2544882678
 20
47.6886048089
 30
0.0
 10
34.2501565139
 20
47.6987719422
 30
0.0
 10
34.247484304
 20
47.7107908632
 30
0.0
 10
34.246827192
 20
47.7248225163
 30
0.0
 10
34.248831046
 20
47.7406039657
 30
0.0
 10
34.2539551117
 20
47.7584401447
 30
0.0
 10
34.2624762785
 20
47.7769277195
 30
0.0
 10
34.2735785871
 20
47.7948950156
 30
0.0
 10
34.285413218
 20
47.8109775132
 30
0.0
 10
34.2962840211
 20
47.8251173064
 30
0.0
 10
34.303825444
 20
47.8386567961
 30
0.0
 10
34.3084561773
 20
47.8516268379
 30
0.0
 10
34.3105598491
 20
47.8652996049
 30
0.0
 10
34.3098781136
 20
47.8810484928
 30
0.0
 10
34.3057306565
 20
47.8980786246
 30
0.0
 10
34.2989405086
 20
47.916516501
 30
0.0
 10
34.2903017794
 20
47.9356523517
 30
0.0
 10
34.2846034365
 20
47.9587988036
 30
0.0
 10
34.2859440752
 20
47.9843258979
 30
0.0
 10
34.2849901181
 20
48.0130857902
 30
0.0
 10
34.2848470041
 20
48.0410143559
 30
0.0
 10
34.2844532261
 20
48.0696421494
 30
0.0
 10
34.2840947643
 20
48.1001765744
 30
0.0
 10
34.2836513412
 20
48.1360187345
 30
0.0
 10
34.2832308027
 20
48.1705594159
 30
0.0
 10
34.2828284297
 20
48.2034711984
 30
0.0
 10
34.2823938216
 20
48.2390493863
 30
0.0
 10
34.2818633599
 20
48.2824633981
 30
0.0
 10
34.2813096209
 20
48.3277860876
 30
0.0
 10
34.2807260497
 20
48.3755494837
 30
0.0
 10
34.2801122672
 20
48.4257858299
 30
0.0
 10
34.279428956
 20
48.4817128083
 30
0.0
 10
34.2787235536
 20
48.5394479091
 30
0.0
 10
34.2780319567
 20
48.596053073
 30
0.0
 10
34.2773837424
 20
48.6491074978
 30
0.0
 10
34.2767833233
 20
48.6982500186
 30
0.0
 10
34.2762118821
 20
48.7450207945
 30
0.0
 10
34.275643862
 20
48.7915115573
 30
0.0
 10
34.2751163482
 20
48.8346870026
 30
0.0
 10
34.2746729798
 20
48.8709753979
 30
0.0
 10
34.2743382799
 20
48.8983696013
 30
0.0
 10
34.2741783481
 20
48.9114595345
 30
0.0
 10
34.2740475465
 20
48.9221652707
 30
0.0
 10
34.2743481095
 20
48.8975650777
 30
0.0
 10
34.2745154507
 20
48.8838687009
 30
0.0
 10
34.2750083367
 20
48.8435274401
 30
0.0
 10
34.2755678319
 20
48.7977344199
 30
0.0
 10
34.2763070195
 20
48.7372340989
 30
0.0
 10
34.27717637
 20
48.6660803385
 30
0.0
 10
34.2781876001
 20
48.5833141445
 30
0.0
 10
34.2793302448
 20
48.4897920638
 30
0.0
 10
34.28059795
 20
48.386034145
 30
0.0
 10
34.281985324
 20
48.2724816931
 30
0.0
 10
34.2834768063
 20
48.1504082776
 30
0.0
 10
34.2850692383
 20
48.0200724371
 30
0.0
 10
34.2861604324
 20
47.9307614165
 30
0.0
 10
34.2867235134
 20
47.8846748977
 30
0.0
  0
SPLINE
  5
2D6
100
AcDbEntity
  8
INTFCLR_1
100
AcDbSpline
 62
7
  6
BYLAYER
 70
0
 71
3
 72
48
 73
44
 74
0
 42
0.0000001
 43
0.0000001
 44
0.0000000001
 40
0.0
 40
0.0
 40
0.0
 40
0.0
 40
0.0174758219
 40
0.034312013
 40
0.0501697923
 40
0.0650171272
 40
0.0791665611
 40
0.0927909686
 40
0.1060221028
 40
0.1189908653
 40
0.1318129361
 40
0.1445929358
 40
0.1574332301
 40
0.1704364765
 40
0.1837041281
 40
0.1973487844
 40
0.2114969672
 40
0.2262906936
 40
0.2418830859
 40
0.258462413
 40
0.2762418173
 40
0.2955072777
 40
0.3165913385
 40
0.3399075276
 40
0.3659178898
 40
0.3950444311
 40
0.4276090452
 40
0.4638386708
 40
0.5042136228
 40
0.5483162412
 40
0.5936937827
 40
0.6378869636
 40
0.6805181574
 40
0.7215905927
 40
0.7608596961
 40
0.7982084216
 40
0.8335563341
 40
0.8668108227
 40
0.8979139873
 40
0.9268120587
 40
0.9534742252
 40
0.9778750873
 40
1.0
 40
1.0
 40
1.0
 40
1.0
 10
34.2867235629
 20
47.8846708386
 30
0.0
 10
34.2797924019
 20
47.8845861543
 30
0.0
 10
34.2661844058
 20
47.8843609688
 30
0.0
 10
34.2462909634
 20
47.8838594407
 30
0.0
 10
34.2274441707
 20
47.883234465
 30
0.0
 10
34.2096672486
 20
47.8825163383
 30
0.0
 10
34.1927803011
 20
47.8817237158
 30
0.0
 10
34.1765385591
 20
47.8808643389
 30
0.0
 10
34.1607692883
 20
47.8799433925
 30
0.0
 10
34.145322495
 20
47.8789628001
 30
0.0
 10
34.1300590347
 20
47.8779214948
 30
0.0
 10
34.1148511731
 20
47.8768161688
 30
0.0
 10
34.0995764494
 20
47.8756413667
 30
0.0
 10
34.0841137855
 20
47.8743895095
 30
0.0
 10
34.0683381972
 20
47.8730506528
 30
0.0
 10
34.0521154266
 20
47.8716120553
 30
0.0
 10
34.0352953757
 20
47.870057457
 30
0.0
 10
34.0177121675
 20
47.8683668165
 30
0.0
 10
33.9991758211
 20
47.8665151586
 30
0.0
 10
33.979468633
 20
47.8644716263
 30
0.0
 10
33.9583209426
 20
47.8621960964
 30
0.0
 10
33.9354068249
 20
47.8596372539
 30
0.0
 10
33.9103222511
 20
47.8567281564
 30
0.0
 10
33.8825950776
 20
47.8533845783
 30
0.0
 10
33.8517196809
 20
47.8495058079
 30
0.0
 10
33.8172288246
 20
47.8449804246
 30
0.0
 10
33.77875067
 20
47.8396914041
 30
0.0
 10
33.7358942583
 20
47.8334975298
 30
0.0
 10
33.6885641169
 20
47.8262729536
 30
0.0
 10
33.6377202558
 20
47.8180339687
 30
0.0
 10
33.5854722375
 20
47.8090087485
 30
0.0
 10
33.5339039701
 20
47.7994961957
 30
0.0
 10
33.4841308693
 20
47.789685117
 30
0.0
 10
33.4364026905
 20
47.7796199337
 30
0.0
 10
33.3908684481
 20
47.7693278595
 30
0.0
 10
33.3477100298
 20
47.7588478603
 30
0.0
 10
33.3070515018
 20
47.748209258
 30
0.0
 10
33.268995695
 20
47.7374388881
 30
0.0
 10
33.2336373242
 20
47.7265641187
 30
0.0
 10
33.2010504081
 20
47.7156095427
 30
0.0
 10
33.171301257
 20
47.7045975068
 30
0.0
 10
33.1444460148
 20
47.6935567169
 30
0.0
 10
33.1276902676
 20
47.6858033446
 30
0.0
 10
33.11982941
 20
47.6819020582
 30
0.0
  0
SPLINE
  5
2D7
100
AcDbEntity
  8
INTFCLR_1
100
AcDbSpline
 62
7
  6
BYLAYER
 70
0
 71
3
 72
10
 73
6
 74
0
 42
0.0000001
 43
0.0000001
 44
0.0000000001
 40
0.0
 40
0.0
 40
0.0
 40
0.0
 40
0.4088417359
 40
0.7397947368
 40
1.0
 40
1.0
 40
1.0
 40
1.0
 10
33.1198181432
 20
47.6819372688
 30
0.0
 10
33.1125952614
 20
47.6783514036
 30
0.0
 10
33.099324337
 20
47.6722244067
 30
0.0
 10
33.0805743868
 20
47.6659758896
 30
0.0
 10
33.0689309252
 20
47.6641912557
 30
0.0
 10
33.0637986191
 20
47.6641902735
 30
0.0
  0
LINE
  5
2D8
100
AcDbEntity
  8
INTFCLR_1
100
AcDbLine
 62
7
  6
BYLAYER
 10
34.2895876245
 20
47.6641366964
 11
34.2897572373
 21
47.6641366964
  0
LINE
  5
2D9
100
AcDbEntity
  8
INTFCLR_1
100
AcDbLine
 62
7
  6
BYLAYER
 10
12.5758122334
 20
47.6662654034
 11
12.5752033472
 21
47.6363735588
  0
SPLINE
  5
2DA
100
AcDbEntity
  8
INTFCLR_1
100
AcDbSpline
 62
7
  6
BYLAYER
 70
0
 71
3
 72
22
 73
18
 74
0
 42
0.0000001
 43
0.0000001
 44
0.0000000001
 40
0.0
 40
0.0
 40
0.0
 40
0.0
 40
0.1174634409
 40
0.2297684874
 40
0.3363222023
 40
0.4365616073
 40
0.5298667869
 40
0.6158415148
 40
0.6940402453
 40
0.7640499215
 40
0.8255026762
 40
0.8780764768
 40
0.9214890847
 40
0.9554743561
 40
0.9799273334
 40
0.994737392
 40
1.0
 40
1.0
 40
1.0
 40
1.0
 10
13.1462934829
 20
47.6662654024
 30
0.0
 10
13.1475145359
 20
47.7153326864
 30
0.0
 10
13.1498748062
 20
47.8113131758
 30
0.0
 10
13.1532258002
 20
47.9518065431
 30
0.0
 10
13.1562842772
 20
48.0851076699
 30
0.0
 10
13.1590210974
 20
48.2104748786
 30
0.0
 10
13.1614096979
 20
48.3272484984
 30
0.0
 10
13.1634266278
 20
48.4348180537
 30
0.0
 10
13.1650481692
 20
48.5326584863
 30
0.0
 10
13.166262176
 20
48.6202590568
 30
0.0
 10
13.1670285616
 20
48.6971518095
 30
0.0
 10
13.1674047553
 20
48.7629485605
 30
0.0
 10
13.1671815621
 20
48.8172280221
 30
0.0
 10
13.1669074337
 20
48.8598625125
 30
0.0
 10
13.1652800914
 20
48.8902785188
 30
0.0
 10
13.1651553544
 20
48.9091652792
 30
0.0
 10
13.1625327382
 20
48.9171234685
 30
0.0
 10
13.1616011899
 20
48.9191558757
 30
0.0
  0
LINE
  5
2DB
100
AcDbEntity
  8
INTFCLR_1
100
AcDbLine
 62
7
  6
BYLAYER
 10
12.5758122334
 20
47.6662654032
 11
13.1462934829
 21
47.6662654024
  0
SPLINE
  5
2DC
100
AcDbEntity
  8
INTFCLR_1
100
AcDbSpline
 62
7
  6
BYLAYER
 70
0
 71
3
 72
21
 73
17
 74
0
 42
0.0000001
 43
0.0000001
 44
0.0000000001
 40
0.0
 40
0.0
 40
0.0
 40
0.0
 40
0.0058330117
 40
0.0224884321
 40
0.0500487122
 40
0.0884119176
 40
0.1373229473
 40
0.196582243
 40
0.2659395013
 40
0.3450717981
 40
0.4335945572
 40
0.5310528142
 40
0.6369223937
 40
0.7507393721
 40
0.8719578048
 40
1.0
 40
1.0
 40
1.0
 40
1.0
 10
13.1616011899
 20
48.9191558757
 30
0.0
 10
13.1623485165
 20
48.9172599109
 30
0.0
 10
13.1644787384
 20
48.9098057709
 30
0.0
 10
13.1645439043
 20
48.8923359531
 30
0.0
 10
13.1658607214
 20
48.8639840214
 30
0.0
 10
13.1660396477
 20
48.8243118705
 30
0.0
 10
13.1661608573
 20
48.7737803206
 30
0.0
 10
13.1657571244
 20
48.7125278657
 30
0.0
 10
13.1649928892
 20
48.6408629308
 30
0.0
 10
13.1638095985
 20
48.5591032283
 30
0.0
 10
13.1622303872
 20
48.4676552418
 30
0.0
 10
13.1602567788
 20
48.3669884675
 30
0.0
 10
13.1578961911
 20
48.2576016757
 30
0.0
 10
13.1551744407
 20
48.1400238041
 30
0.0
 10
13.1520403729
 20
48.0148043359
 30
0.0
 10
13.1499131637
 20
47.9288378796
 30
0.0
 10
13.1488130645
 20
47.8846781225
 30
0.0
  0
LINE
  5
2DD
100
AcDbEntity
  8
INTFCLR_1
100
AcDbLine
 62
7
  6
BYLAYER
 10
13.1462934833
 20
47.6662654028
 11
12.5758122329
 21
47.666265402
  0
LINE
  5
2DE
100
AcDbEntity
  8
INTFCLR_1
100
AcDbLine
 62
7
  6
BYLAYER
 10
13.1459282673
 20
47.6641366964
 11
13.1460978781
 21
47.6641366964
  0
SPLINE
  5
2DF
100
AcDbEntity
  8
INTFCLR_1
100
AcDbSpline
 62
7
  6
BYLAYER
 70
0
 71
3
 72
10
 73
6
 74
0
 42
0.0000001
 43
0.0000001
 44
0.0000000001
 40
0.0
 40
0.0
 40
0.0
 40
0.0
 40
0.2599946034
 40
0.5903440755
 40
1.0
 40
1.0
 40
1.0
 40
1.0
 10
14.3718868919
 20
47.6641937554
 30
0.0
 10
14.366762691
 20
47.6641947327
 30
0.0
 10
14.3551660679
 20
47.6661796665
 30
0.0
 10
14.3364601378
 20
47.6724197361
 30
0.0
 10
14.3230992455
 20
47.6783466464
 30
0.0
 10
14.3158675499
 20
47.6819368759
 30
0.0
  0
SPLINE
  5
2E0
100
AcDbEntity
  8
INTFCLR_1
100
AcDbSpline
 62
7
  6
BYLAYER
 70
0
 71
3
 72
48
 73
44
 74
0
 42
0.0000001
 43
0.0000001
 44
0.0000000001
 40
0.0
 40
0.0
 40
0.0
 40
0.0
 40
0.0221129206
 40
0.046497532
 40
0.0731373291
 40
0.1020134625
 40
0.1330883424
 40
0.1663137538
 40
0.2016300744
 40
0.2389449814
 40
0.278173604
 40
0.3192023252
 40
0.3618342721
 40
0.4058873285
 40
0.4512891811
 40
0.4956802289
 40
0.536171406
 40
0.5725443295
 40
0.6053880676
 40
0.6348178085
 40
0.6611033296
 40
0.6846478084
 40
0.7059058756
 40
0.7252911536
 40
0.7431536739
 40
0.7597718103
 40
0.7753827685
 40
0.7901680891
 40
0.8042985504
 40
0.8179104341
 40
0.8311330209
 40
0.8440741932
 40
0.8568412574
 40
0.8695360345
 40
0.8822624787
 40
0.895123263
 40
0.9082344337
 40
0.9217238517
 40
0.9357204882
 40
0.9504027762
 40
0.9660510551
 40
0.9826549216
 40
1.0
 40
1.0
 40
1.0
 40
1.0
 10
14.3158603789
 20
47.6819020593
 30
0.0
 10
14.3080037583
 20
47.685801248
 30
0.0
 10
14.2912571311
 20
47.6935477769
 30
0.0
 10
14.2644213217
 20
47.7045831191
 30
0.0
 10
14.2346950397
 20
47.7155881005
 30
0.0
 10
14.2021360547
 20
47.7265356984
 30
0.0
 10
14.1668083883
 20
47.7374037116
 30
0.0
 10
14.1287872296
 20
47.7481673971
 30
0.0
 10
14.0881656692
 20
47.7587997592
 30
0.0
 10
14.0450487826
 20
47.7692734025
 30
0.0
 10
13.9995609207
 20
47.7795590349
 30
0.0
 10
13.9518658556
 20
47.7896216086
 30
0.0
 10
13.9021646586
 20
47.7994228289
 30
0.0
 10
13.8506420088
 20
47.8089319967
 30
0.0
 10
13.79832724
 20
47.8179740691
 30
0.0
 10
13.7473156985
 20
47.8262431251
 30
0.0
 10
13.6997706173
 20
47.8335010081
 30
0.0
 10
13.6567025023
 20
47.8397247497
 30
0.0
 10
13.6179387704
 20
47.8450507154
 30
0.0
 10
13.5831100405
 20
47.8496163275
 30
0.0
 10
13.5519163984
 20
47.8535295609
 30
0.0
 10
13.5239215859
 20
47.8568989423
 30
0.0
 10
13.4986304073
 20
47.8598249544
 30
0.0
 10
13.4755668167
 20
47.8623931472
 30
0.0
 10
13.4543229267
 20
47.8646715567
 30
0.0
 10
13.434559478
 20
47.8667134286
 30
0.0
 10
13.4160030071
 20
47.8685596409
 30
0.0
 10
13.398422023
 20
47.8702426677
 30
0.0
 10
13.3816245087
 20
47.8717878402
 30
0.0
 10
13.3654387982
 20
47.8732158426
 30
0.0
 10
13.3497178428
 20
47.874542781
 30
0.0
 10
13.334325856
 20
47.8757816655
 30
0.0
 10
13.3191377465
 20
47.876942599
 30
0.0
 10
13.3040298341
 20
47.8780335072
 30
0.0
 10
13.2888801419
 20
47.8790599737
 30
0.0
 10
13.2735609444
 20
47.8800255046
 30
0.0
 10
13.2579349404
 20
47.8809313056
 30
0.0
 10
13.2418543126
 20
47.8817756731
 30
0.0
 10
13.2251464488
 20
47.8825538689
 30
0.0
 10
13.2075782569
 20
47.8832582473
 30
0.0
 10
13.1889718503
 20
47.8838709979
 30
0.0
 10
13.1693053291
 20
47.8843646177
 30
0.0
 10
13.1558412657
 20
47.8845863774
 30
0.0
 10
13.1489619369
 20
47.8846704285
 30
0.0
  0
SPLINE
  5
2E1
100
AcDbEntity
  8
INTFCLR_1
100
AcDbSpline
 62
7
  6
BYLAYER
 70
0
 71
3
 72
56
 73
52
 74
0
 42
0.0000001
 43
0.0000001
 44
0.0000000001
 40
0.0
 40
0.0
 40
0.0
 40
0.0
 40
0.0053185538
 40
0.020841449
 40
0.0450523727
 40
0.0762764375
 40
0.1209469911
 40
0.1640297888
 40
0.2015326976
 40
0.2481022799
 40
0.292457136
 40
0.326925142
 40
0.3621912546
 40
0.4023485403
 40
0.4473643573
 40
0.483043727
 40
0.5269075274
 40
0.5605080867
 40
0.5856565508
 40
0.6155133831
 40
0.6388356684
 40
0.6626348207
 40
0.6873782845
 40
0.7066014387
 40
0.7263636002
 40
0.7451214653
 40
0.7595552362
 40
0.7741034929
 40
0.7888625612
 40
0.8006376474
 40
0.8106560276
 40
0.8221675029
 40
0.8312359709
 40
0.8396998594
 40
0.8478206714
 40
0.8558937911
 40
0.8644174584
 40
0.8732962687
 40
0.88341939
 40
0.8953328482
 40
0.9093214403
 40
0.9261284945
 40
0.9394578858
 40
0.9492211064
 40
0.9562126756
 40
0.9656860958
 40
0.9736173816
 40
0.9808504992
 40
0.987739144
 40
0.994189593
 40
1.0
 40
1.0
 40
1.0
 40
1.0
 10
13.161601168
 20
48.9191541664
 30
0.0
 10
13.161573188
 20
48.9168640615
 30
0.0
 10
13.1614635444
 20
48.907889986
 30
0.0
 10
13.1612265283
 20
48.88849098
 30
0.0
 10
13.1608532275
 20
48.8579373747
 30
0.0
 10
13.1603265835
 20
48.8148331408
 30
0.0
 10
13.1597006571
 20
48.7636029065
 30
0.0
 10
13.1590416983
 20
48.7096690781
 30
0.0
 10
13.1583727489
 20
48.6549175508
 30
0.0
 10
13.1576971074
 20
48.5996182907
 30
0.0
 10
13.1570374321
 20
48.5456258229
 30
0.0
 10
13.1564372231
 20
48.4965004922
 30
0.0
 10
13.155859097
 20
48.4491825846
 30
0.0
 10
13.1552254804
 20
48.3973229172
 30
0.0
 10
13.1545896884
 20
48.3452853064
 30
0.0
 10
13.1539344009
 20
48.2916517152
 30
0.0
 10
13.1533391545
 20
48.2429333955
 30
0.0
 10
13.1527993502
 20
48.1987495571
 30
0.0
 10
13.152333106
 20
48.1605969472
 30
0.0
 10
13.1519213864
 20
48.1268700459
 30
0.0
 10
13.1515152691
 20
48.0937241152
 30
0.0
 10
13.1511413499
 20
48.0627800318
 30
0.0
 10
13.1507697984
 20
48.0336006507
 30
0.0
 10
13.150472493
 20
48.0061606807
 30
0.0
 10
13.1500760208
 20
47.9812935654
 30
0.0
 10
13.1500488245
 20
47.9585048961
 30
0.0
 10
13.149679822
 20
47.9379064432
 30
0.0
 10
13.1454694056
 20
47.9193550482
 30
0.0
 10
13.1379437187
 20
47.9033034333
 30
0.0
 10
13.132244103
 20
47.8886209498
 30
0.0
 10
13.1282055053
 20
47.8748380613
 30
0.0
 10
13.1262881957
 20
47.8617200527
 30
0.0
 10
13.1268880116
 20
47.8491611215
 30
0.0
 10
13.1293270975
 20
47.8383323911
 30
0.0
 10
13.1333604787
 20
47.828461741
 30
0.0
 10
13.1387501286
 20
47.8192588295
 30
0.0
 10
13.1450256048
 20
47.810253295
 30
0.0
 10
13.1522727113
 20
47.8008732407
 30
0.0
 10
13.1602575502
 20
47.7902159589
 30
0.0
 10
13.1686982897
 20
47.7771830921
 30
0.0
 10
13.1774044188
 20
47.7609453085
 30
0.0
 10
13.1838938433
 20
47.7429760362
 30
0.0
 10
13.1868241181
 20
47.7259513863
 30
0.0
 10
13.1867578872
 20
47.7129403628
 30
0.0
 10
13.1850937389
 20
47.7017405935
 30
0.0
 10
13.1817951845
 20
47.6916852164
 30
0.0
 10
13.1765380772
 20
47.6823873526
 30
0.0
 10
13.170157922
 20
47.6752551813
 30
0.0
 10
13.1628958829
 20
47.670041922
 30
0.0
 10
13.1551541931
 20
47.6669685641
 30
0.0
 10
13.1498599798
 20
47.6662668926
 30
0.0
 10
13.1473579438
 20
47.6662524666
 30
0.0
  0
SPLINE
  5
2E2
100
AcDbEntity
  8
INTFCLR_1
100
AcDbSpline
 62
7
  6
BYLAYER
 70
0
 71
3
 72
11
 73
7
 74
0
 42
0.0000001
 43
0.0000001
 44
0.0000000001
 40
0.0
 40
0.0
 40
0.0
 40
0.0
 40
0.221174868
 40
0.4710222131
 40
0.8037015583
 40
1.0
 40
1.0
 40
1.0
 40
1.0
 10
13.1473579438
 20
47.6662524666
 30
0.0
 10
13.1474567727
 20
47.6661174924
 30
0.0
 10
13.147598638
 20
47.6657758768
 30
0.0
 10
13.1475869612
 20
47.6651557443
 30
0.0
 10
13.1473565794
 20
47.664593183
 30
0.0
 10
13.1470957722
 20
47.6642881178
 30
0.0
 10
13.1470138039
 20
47.6641643228
 30
0.0
  0
SPLINE
  5
2E3
100
AcDbEntity
  8
INTFCLR_1
100
AcDbSpline
 62
7
  6
BYLAYER
 70
0
 71
3
 72
14
 73
10
 74
0
 42
0.0000001
 43
0.0000001
 44
0.0000000001
 40
0.0
 40
0.0
 40
0.0
 40
0.0
 40
0.1227643097
 40
0.275611818
 40
0.4017622208
 40
0.5111897733
 40
0.6526478813
 40
0.8188814933
 40
1.0
 40
1.0
 40
1.0
 40
1.0
 10
13.1470138039
 20
47.6641643228
 30
0.0
 10
13.1474078418
 20
47.6641157039
 30
0.0
 10
13.1482954112
 20
47.6640474724
 30
0.0
 10
13.1495995832
 20
47.6639555783
 30
0.0
 10
13.1508425494
 20
47.6641806427
 30
0.0
 10
13.1520645995
 20
47.6641860188
 30
0.0
 10
13.1534118138
 20
47.6641168739
 30
0.0
 10
13.1549931049
 20
47.6641630196
 30
0.0
 10
13.156116477
 20
47.6641585717
 30
0.0
 10
13.1567021123
 20
47.6641471558
 30
0.0
  0
LINE
  5
2E4
100
AcDbEntity
  8
INTFCLR_1
100
AcDbLine
 62
7
  6
BYLAYER
 10
12.5752033467
 20
47.6363735592
 11
12.5758122329
 21
47.6662654022
  0
SPLINE
  5
2E5
100
AcDbEntity
  8
INTFCLR_1
100
AcDbSpline
 62
7
  6
BYLAYER
 70
0
 71
3
 72
43
 73
39
 74
0
 42
0.0000001
 43
0.0000001
 44
0.0000000001
 40
0.0
 40
0.0
 40
0.0
 40
0.0
 40
0.0435705678
 40
0.0868268443
 40
0.1293954779
 40
0.1709640796
 40
0.2113393963
 40
0.2500436338
 40
0.2868034183
 40
0.3213737635
 40
0.3535256574
 40
0.3830092354
 40
0.409552503
 40
0.4330162067
 40
0.4531564624
 40
0.4698656881
 40
0.482994226
 40
0.492441483
 40
0.4981175886
 40
0.4999998943
 40
0.5019190307
 40
0.5076266035
 40
0.5170639804
 40
0.5301621844
 40
0.5468647747
 40
0.5669710318
 40
0.5903540647
 40
0.6168887823
 40
0.6463684907
 40
0.6785320971
 40
0.7131190528
 40
0.7500036616
 40
0.7887431901
 40
0.8290351124
 40
0.8705632691
 40
0.9131565025
 40
0.956409244
 40
1.0
 40
1.0
 40
1.0
 40
1.0
 10
36.7624005211
 20
8.9641366964
 30
0.0
 10
36.7627660035
 20
8.9321856698
 30
0.0
 10
36.7634749185
 20
8.8685138685
 30
0.0
 10
36.76448133
 20
8.7736251245
 30
0.0
 10
36.7654290387
 20
8.6802040231
 30
0.0
 10
36.7663185101
 20
8.5888952392
 30
0.0
 10
36.7671491752
 20
8.5004200453
 30
0.0
 10
36.7679206106
 20
8.4154710345
 30
0.0
 10
36.7686318683
 20
8.3347789473
 30
0.0
 10
36.7692833494
 20
8.2588913359
 30
0.0
 10
36.7698751988
 20
8.1883410133
 30
0.0
 10
36.7704071198
 20
8.1236722725
 30
0.0
 10
36.7708787206
 20
8.0653905816
 30
0.0
 10
36.771290126
 20
8.013911695
 30
0.0
 10
36.7716393754
 20
7.969791501
 30
0.0
 10
36.7719316988
 20
7.9328307439
 30
0.0
 10
36.7721513416
 20
7.9048271944
 30
0.0
 10
36.7723358617
 20
7.8822698791
 30
0.0
 10
36.7724059967
 20
7.8730329354
 30
0.0
 10
36.7725109018
 20
7.8618940348
 30
0.0
 10
36.7724486759
 20
7.8731578085
 30
0.0
 10
36.7723814584
 20
7.8823721235
 30
0.0
 10
36.7722276483
 20
7.9049475901
 30
0.0
 10
36.772024513
 20
7.9329077293
 30
0.0
 10
36.7717532026
 20
7.9698204578
 30
0.0
 10
36.771421042
 20
8.0138505795
 30
0.0
 10
36.7710249334
 20
8.0652395921
 30
0.0
 10
36.7705651916
 20
8.1234529565
 30
0.0
 10
36.7700411625
 20
8.188121295
 30
0.0
 10
36.7694530558
 20
8.2586895667
 30
0.0
 10
36.7688000651
 20
8.3346894878
 30
0.0
 10
36.7680821927
 20
8.4155111247
 30
0.0
 10
36.7672993803
 20
8.5005162992
 30
0.0
 10
36.7664526931
 20
8.5889264006
 30
0.0
 10
36.7655411316
 20
8.680162185
 30
0.0
 10
36.7645640976
 20
8.7735687717
 30
0.0
 10
36.7635207867
 20
8.8684873737
 30
0.0
 10
36.7627822242
 20
8.9321710529
 30
0.0
 10
36.7624005211
 20
8.9641366961
 30
0.0
  0
SPLINE
  5
2E6
100
AcDbEntity
  8
INTFCLR_1
100
AcDbSpline
 62
7
  6
BYLAYER
 70
0
 71
3
 72
43
 73
39
 74
0
 42
0.0000001
 43
0.0000001
 44
0.0000000001
 40
0.0
 40
0.0
 40
0.0
 40
0.0
 40
0.0436129307
 40
0.0868787971
 40
0.1294324928
 40
0.1710082658
 40
0.2114250606
 40
0.2501236685
 40
0.2868476106
 40
0.3214083965
 40
0.3535889286
 40
0.3830767783
 40
0.4095938485
 40
0.4330658613
 40
0.4532106844
 40
0.4699108528
 40
0.4830189191
 40
0.4924680698
 40
0.4981318804
 40
0.50000027
 40
0.5019269907
 40
0.5076420936
 40
0.5170707828
 40
0.5301274328
 40
0.5468300865
 40
0.5669286399
 40
0.5902900714
 40
0.6168086998
 40
0.6463202928
 40
0.6785104296
 40
0.7130834567
 40
0.7500278302
 40
0.7888057416
 40
0.8290871472
 40
0.8706024598
 40
0.9132023572
 40
0.9564284099
 40
1.0
 40
1.0
 40
1.0
 40
1.0
 10
34.7620122709
 20
8.9641366961
 30
0.0
 10
34.762370171
 20
8.9321545396
 30
0.0
 10
34.7630648925
 20
8.8684445303
 30
0.0
 10
34.7640531502
 20
8.7735285242
 30
0.0
 10
34.7649858218
 20
8.6801060086
 30
0.0
 10
34.7658637092
 20
8.5887724612
 30
0.0
 10
34.7666859131
 20
8.5002657081
 30
0.0
 10
34.7674515271
 20
8.4153167078
 30
0.0
 10
34.7681594243
 20
8.3346620807
 30
0.0
 10
34.7688103941
 20
8.2587868206
 30
0.0
 10
34.7694044206
 20
8.188219444
 30
0.0
 10
34.7699407227
 20
8.1235458813
 30
0.0
 10
34.7704186285
 20
8.0652742213
 30
0.0
 10
34.7708384597
 20
8.0138053424
 30
0.0
 10
34.7711974057
 20
7.9696820772
 30
0.0
 10
34.7715023852
 20
7.9327411479
 30
0.0
 10
34.7717315885
 20
7.9047537989
 30
0.0
 10
34.7719365949
 20
7.8822274994
 30
0.0
 10
34.7720074541
 20
7.8729883542
 30
0.0
 10
34.7721427181
 20
7.8618980238
 30
0.0
 10
34.7721113273
 20
7.8731881063
 30
0.0
 10
34.7720476443
 20
7.8823888909
 30
0.0
 10
34.7719177178
 20
7.9049383415
 30
0.0
 10
34.7717295938
 20
7.9328606686
 30
0.0
 10
34.7714774803
 20
7.9697385295
 30
0.0
 10
34.7711627381
 20
8.0137468701
 30
0.0
 10
34.7707842379
 20
8.0651028074
 30
0.0
 10
34.7703410651
 20
8.1233119495
 30
0.0
 10
34.7698324774
 20
8.1880114224
 30
0.0
 10
34.7692586297
 20
8.2586123753
 30
0.0
 10
34.7686183388
 20
8.334665419
 30
0.0
 10
34.7679114557
 20
8.4155488539
 30
0.0
 10
34.7671376911
 20
8.5006183124
 30
0.0
 10
34.7662984149
 20
8.5890394318
 30
0.0
 10
34.7653921624
 20
8.6802629519
 30
0.0
 10
34.7644179881
 20
8.7736453889
 30
0.0
 10
34.7633747975
 20
8.8685351748
 30
0.0
 10
34.762634399
 20
8.9321851523
 30
0.0
 10
34.7622512502
 20
8.9641366964
 30
0.0
  0
SPLINE
  5
2E7
100
AcDbEntity
  8
INTFCLR_1
100
AcDbSpline
 62
7
  6
BYLAYER
 70
0
 71
3
 72
43
 73
39
 74
0
 42
0.0000001
 43
0.0000001
 44
0.0000000001
 40
0.0
 40
0.0
 40
0.0
 40
0.0
 40
0.0435403778
 40
0.0867889274
 40
0.1293807026
 40
0.1709393571
 40
0.2112808625
 40
0.2500160143
 40
0.286840251
 40
0.3214086906
 40
0.3535383096
 40
0.383013024
 40
0.4095750594
 40
0.4330102228
 40
0.4531446857
 40
0.4698558967
 40
0.4829791078
 40
0.4924179076
 40
0.4981051793
 40
0.5000004662
 40
0.501908715
 40
0.5076045371
 40
0.5170458709
 40
0.5301626569
 40
0.5468565205
 40
0.5669688572
 40
0.5903810678
 40
0.6169156982
 40
0.64637588
 40
0.6785182879
 40
0.7131095036
 40
0.7499309166
 40
0.7886514459
 40
0.8289769511
 40
0.8705183455
 40
0.9131051701
 40
0.9563834067
 40
1.0
 40
1.0
 40
1.0
 40
1.0
 10
34.7622512502
 20
8.9641366964
 30
0.0
 10
34.7618845856
 20
8.9960655024
 30
0.0
 10
34.761173915
 20
9.0597093457
 30
0.0
 10
34.7601668942
 20
9.1545870534
 30
0.0
 10
34.7592205677
 20
9.248011988
 30
0.0
 10
34.7583346036
 20
9.3393054993
 30
0.0
 10
34.7575090826
 20
9.4277711408
 30
0.0
 10
34.7567437968
 20
9.5127651781
 30
0.0
 10
34.7560397844
 20
9.5935257068
 30
0.0
 10
34.7553969525
 20
9.6694427735
 30
0.0
 10
34.7548150158
 20
9.739968796
 30
0.0
 10
34.7542934781
 20
9.8046284324
 30
0.0
 10
34.7538326335
 20
9.8628963671
 30
0.0
 10
34.7534321643
 20
9.9143639441
 30
0.0
 10
34.7530936219
 20
9.9584599852
 30
0.0
 10
34.7528121637
 20
9.9954153952
 30
0.0
 10
34.7526010219
 20
10.0234071937
 30
0.0
 10
34.7524281561
 20
10.0459697298
 30
0.0
 10
34.7523601289
 20
10.0551974815
 30
0.0
 10
34.7522682841
 20
10.066380686
 30
0.0
 10
34.7523392076
 20
10.0551563435
 30
0.0
 10
34.7524055498
 20
10.0459337422
 30
0.0
 10
34.7525627589
 20
10.0233580152
 30
0.0
 10
34.7527643764
 20
9.9953851012
 30
0.0
 10
34.7530330647
 20
9.958462172
 30
0.0
 10
34.7533595823
 20
9.9144121891
 30
0.0
 10
34.753747361
 20
9.8629975474
 30
0.0
 10
34.7541954306
 20
9.8047771447
 30
0.0
 10
34.7547040945
 20
9.7401387672
 30
0.0
 10
34.7552731915
 20
9.669597221
 30
0.0
 10
34.7559029573
 20
9.5936560307
 30
0.0
 10
34.7565934102
 20
9.5128914765
 30
0.0
 10
34.7573445197
 20
9.427921842
 30
0.0
 10
34.7581553767
 20
9.3394911818
 30
0.0
 10
34.7590263107
 20
9.2482255497
 30
0.0
 10
34.7599574861
 20
9.1547949797
 30
0.0
 10
34.7609496029
 20
9.0598430766
 30
0.0
 10
34.7616504366
 20
8.9961214545
 30
0.0
 10
34.7620122709
 20
8.9641366961
 30
0.0
  0
SPLINE
  5
2E8
100
AcDbEntity
  8
INTFCLR_1
100
AcDbSpline
 62
7
  6
BYLAYER
 70
0
 71
3
 72
43
 73
39
 74
0
 42
0.0000001
 43
0.0000001
 44
0.0000000001
 40
0.0
 40
0.0
 40
0.0
 40
0.0
 40
0.0435706756
 40
0.086826976
 40
0.1293955538
 40
0.1709641774
 40
0.2113396048
 40
0.2500437937
 40
0.2868034372
 40
0.3213737672
 40
0.35352574
 40
0.3830093467
 40
0.4095525181
 40
0.4330162947
 40
0.4531565624
 40
0.4698657788
 40
0.4829942929
 40
0.4924415642
 40
0.4981176322
 40
0.499999894
 40
0.5019190602
 40
0.5076266626
 40
0.5170640218
 40
0.5301621333
 40
0.5468647362
 40
0.5669709737
 40
0.5903539339
 40
0.6168886214
 40
0.6463684043
 40
0.6785320866
 40
0.713118999
 40
0.7500038043
 40
0.7887434175
 40
0.829035277
 40
0.8705633964
 40
0.9131566484
 40
0.9564093111
 40
1.0
 40
1.0
 40
1.0
 40
1.0
 10
36.7624005211
 20
8.9641366961
 30
0.0
 10
36.7620350728
 20
8.9960878021
 30
0.0
 10
36.7613262225
 20
9.0597597005
 30
0.0
 10
36.7603198972
 20
9.1546485008
 30
0.0
 10
36.7593722638
 20
9.2480695953
 30
0.0
 10
36.7584828562
 20
9.3393784359
 30
0.0
 10
36.7576522445
 20
9.4278536916
 30
0.0
 10
36.7568808535
 20
9.5128026447
 30
0.0
 10
36.7561696317
 20
9.5934945818
 30
0.0
 10
36.7555181767
 20
9.6693821366
 30
0.0
 10
36.7549263441
 20
9.7399325268
 30
0.0
 10
36.7543944326
 20
9.8046012758
 30
0.0
 10
36.7539228344
 20
9.8628829706
 30
0.0
 10
36.7535114247
 20
9.9143618484
 30
0.0
 10
36.7531621655
 20
9.9584820989
 30
0.0
 10
36.7528698246
 20
9.995442836
 30
0.0
 10
36.7526501681
 20
10.0234463831
 30
0.0
 10
36.7524656116
 20
10.0460036385
 30
0.0
 10
36.7523954764
 20
10.055240599
 30
0.0
 10
36.7522905139
 20
10.066379349
 30
0.0
 10
36.7523526777
 20
10.0551154709
 30
0.0
 10
36.7524198875
 20
10.0459011905
 30
0.0
 10
36.7525736483
 20
10.0233257613
 30
0.0
 10
36.7527767518
 20
9.9953657001
 30
0.0
 10
36.7530480218
 20
9.9584530402
 30
0.0
 10
36.7533801456
 20
9.9144229783
 30
0.0
 10
36.7537762173
 20
9.863034055
 30
0.0
 10
36.7542359249
 20
9.8048207114
 30
0.0
 10
36.7547599232
 20
9.7401522844
 30
0.0
 10
36.7553480025
 20
9.6695839343
 30
0.0
 10
36.7560009706
 20
9.5935838452
 30
0.0
 10
36.7567188252
 20
9.5127620338
 30
0.0
 10
36.7575016255
 20
9.4277566993
 30
0.0
 10
36.7583483051
 20
9.3393466094
 30
0.0
 10
36.7592598654
 20
9.248110885
 30
0.0
 10
36.7602369057
 20
9.1547043702
 30
0.0
 10
36.7612802311
 20
9.059785862
 30
0.0
 10
36.7620188088
 20
8.9961022902
 30
0.0
 10
36.7624005211
 20
8.9641366964
 30
0.0
  0
ELLIPSE
  5
2E9
100
AcDbEntity
  8
INTFCLR_1
100
AcDbEllipse
 62
7
  6
BYLAYER
 10
11.8288933568
 20
9.6641366964
 30
0.0
 11
0.0
 21
1.75
 31
0.0
 40
0.7499999995
 41
-4.2209088912
 42
-3.4601337812
  0
ELLIPSE
  5
2EA
100
AcDbEntity
  8
INTFCLR_1
100
AcDbEllipse
 62
7
  6
BYLAYER
 10
35.6067921478
 20
9.6641366964
 30
0.0
 11
0.0
 21
1.75
 31
0.0
 40
0.7499999995
 41
-2.8230515258
 42
-2.062276416
  0
ENDSEC
  0
SECTION
  2
OBJECTS
  0
DICTIONARY
  5
C
100
AcDbDictionary
280
0
281
1
  3
ACAD_GROUP
350
D
  3
ACAD_MLINESTYLE
350
17
  3
ACAD_LAYOUT
350
1A
  3
ACAD_PLOTSETTINGS
350
19
  3
ACAD_PLOTSTYLENAME
350
E
  0
DICTIONARY
  5
D
102
{ACAD_REACTORS
330
C
102
}
100
AcDbDictionary
280
0
281
1
  0
ACDBDICTIONARYWDFLT
  5
E
102
{ACAD_REACTORS
330
C
102
}
100
AcDbDictionary
281
1
  3
Normal
350
F
100
AcDbDictionaryWithDefault
340
F
  0
DICTIONARY
  5
17
102
{ACAD_REACTORS
330
C
102
}
100
AcDbDictionary
280
0
281
1
  3
Standard
350
18
  0
DICTIONARY
  5
19
102
{ACAD_REACTORS
330
C
102
}
100
AcDbDictionary
281
1
  0
DICTIONARY
  5
1A
102
{ACAD_REACTORS
330
C
102
}
100
AcDbDictionary
281
1
  3
Model
350
2EB
  3
Layout1
350
2EC
  0
ACDBPLACEHOLDER
  5
F
102
{ACAD_REACTORS
330
E
102
}
  0
MLINESTYLE
  5
18
102
{ACAD_REACTORS
330
17
102
}
100
AcDbMlineStyle
  2
STANDARD
 70
0
  3

 62
256
 51
90.0
 52
90.0
 71
2
 49
0.5
 62
256
  6
BYLAYER
 49
-0.5
 62
256
  6
BYLAYER
  0
LAYOUT
  5
2EB
102
{ACAD_REACTORS
330
1A
102
}
100
AcDbPlotSettings
  1

  2
none_device
  4

  6

 40
0.0
 41
0.0
 42
0.0
 43
0.0
 44
210.0
 45
297.0
 46
0.0
 47
0.0
 48
0.0
 49
0.0
140
0.0
141
0.0
142
1.0
143
1.0
 70
1024
 72
1
 73
0
 74
0
  7

 75
0
147
1.0
148
0.0
149
0.0
100
AcDbLayout
  1
Model
 70
0
 71
0
 10
0.0
 20
0.0
 11
210.0
 21
297.0
 12
0.0
 22
0.0
 32
0.0
 14
0.0
 24
0.0
 34
0.0
 15
0.0
 25
0.0
 35
0.0
146
0.0
 13
0.0
 23
0.0
 33
0.0
 16
1.0
 26
0.0
 36
0.0
 17
0.0
 27
1.0
 37
0.0
 76
0
330
219
345
0
346
0
  0
LAYOUT
  5
2EC
102
{ACAD_REACTORS
330
1A
102
}
100
AcDbPlotSettings
  1

  2
none_device
  4

  6

 40
0.0
 41
0.0
 42
0.0
 43
0.0
 44
210.0
 45
297.0
 46
0.0
 47
0.0
 48
0.0
 49
0.0
140
0.0
141
0.0
142
1.0
143
1.0
 70
0
 72
1
 73
0
 74
0
  7

 75
0
147
1.0
148
0.0
149
0.0
100
AcDbLayout
  1
Layout1
 70
0
 71
1
 10
0.0
 20
0.0
 11
210.0
 21
297.0
 12
0.0
 22
0.0
 32
0.0
 14
0.0
 24
0.0
 34
0.0
 15
0.0
 25
0.0
 35
0.0
146
0.0
 13
0.0
 23
0.0
 33
0.0
 16
1.0
 26
0.0
 36
0.0
 17
0.0
 27
1.0
 37
0.0
 76
0
330
21A
345
0
346
0
  0
ENDSEC
  0
EOF
