999
DXF file: C:\Users\sesa63760\Dev\_Creo\CAD\MCADID0004675_3D-CAD\drw0001_4.dxf
999
Pro/ENGINEER 2019471 by Parametric Technology Corporation
  0
SECTION
  2
HEADER
  9
$ACADVER
  1
AC1024
  9
$DWGCODEPAGE
  3
ANSI_1252
  9
$EXTMAX
 10
51.7415522128
 20
73.1773381295
 30
0.0
  9
$EXTMIN
 10
0.0
 20
0.0
 30
0.0
  9
$LIMMIN
 10
0.0
 20
0.0
  9
$LIMMAX
 10
51.7415522128
 20
73.1773381295
  9
$VIEWCTR
 10
25.8707761064
 20
36.5886690647
  9
$VIEWSIZE
 40
73.1773381295
  9
$CLAYER
  8
0
  9
$LTSCALE
 40
4.7700783373
  9
$CELTYPE
  6
BYLAYER
  9
$DIMSCALE
 40
1.0
  9
$DIMASZ
 40
0.6159708597
  9
$DIMEXO
 40
1.0
  9
$DIMDLI
 40
3.2956904876
  9
$DIMEXE
 40
1.0
  9
$DIMCEN
 40
0.7805582734
  9
$DIMLFAC
 40
1.0
  9
$DIMBLK
  1
_FILLED
  9
$DIMALT
 70
0
  9
$DIMALTF
 40
0.0393700787
  9
$DIMTXT
 40
0.8623592035
  9
$DIMTOL
 70
1
  9
$DIMLIM
 70
0
  9
$DIMTFAC
 40
1.0
  9
$DIMTP
 40
0.01
  9
$DIMTM
 40
0.01
  9
$DIMGAP
 40
0.625
  9
$DIMDSEP
 70
46
  9
$AUNITS
 70
0
  9
$PDMODE
 70
3
  9
$PDSIZE
 40
0.3125
  9
$HANDSEED
  5
274
  9
$TILEMODE
 70
1
  9
$MEASUREMENT
 70
1
  9
$INSUNITS
 70
4
  0
ENDSEC
  0
SECTION
  2
CLASSES
  0
CLASS
  1
ACDBDICTIONARYWDFLT
  2
AcDbDictionaryWithDefault
  3
AutoCAD 2000
 90
0
 91
1
280
0
281
0
  0
CLASS
  1
ACDBPLACEHOLDER
  2
AcDbPlaceHolder
  3
AutoCAD 2000
 90
0
 91
1
280
0
281
0
  0
CLASS
  1
LAYOUT
  2
AcDbLayout
  3
AutoCAD 2000
 90
0
 91
0
280
0
281
0
  0
ENDSEC
  0
SECTION
  2
TABLES
  0
TABLE
  2
VPORT
  5
8
100
AcDbSymbolTable
 70
2
  0
VPORT
  5
1F4
100
AcDbSymbolTableRecord
100
AcDbViewportTableRecord
  2
*ACTIVE
 70
0
 10
0.0
 20
0.0
 11
1.0
 21
1.0
 12
25.8707761064
 22
36.5886690647
 13
0.0
 23
0.0
 14
1.0
 24
1.0
 15
0.0
 25
0.0
 16
0.0
 26
0.0
 36
1.0
 17
0.0
 27
0.0
 37
0.0
 40
73.1773381295
 41
0.7070707071
 42
50.0
 43
0.0
 44
0.0
 50
0.0
 51
0.0
 71
0
 72
100
 73
1
 74
1
 75
0
 76
0
 77
0
 78
0
  0
ENDTAB
  0
TABLE
  2
LTYPE
  5
5
100
AcDbSymbolTable
 70
6
  0
LTYPE
  5
14
100
AcDbSymbolTableRecord
100
AcDbLinetypeTableRecord
  2
BYBLOCK
 70
0
  3

 72
65
 73
0
 40
0.0
  0
LTYPE
  5
15
100
AcDbSymbolTableRecord
100
AcDbLinetypeTableRecord
  2
BYLAYER
 70
0
  3

 72
65
 73
0
 40
0.0
  0
LTYPE
  5
16
100
AcDbSymbolTableRecord
100
AcDbLinetypeTableRecord
  2
CONTINUOUS
 70
64
  3
Solid line
 72
65
 73
0
 40
0.0
  0
LTYPE
  5
1F5
100
AcDbSymbolTableRecord
100
AcDbLinetypeTableRecord
  2
CENTER
 70
64
  3
____ _ ____ _ ____ _ ____ _ ____ _ ____ _ ____
 72
65
 73
4
 40
0.6
 49
0.375
 74
0
 49
-0.075
 74
0
 49
0.075
 74
0
 49
-0.075
 74
0
  0
LTYPE
  5
1F6
100
AcDbSymbolTableRecord
100
AcDbLinetypeTableRecord
  2
HIDDEN
 70
64
  3
- - - - - - - - - - - - - - - - - - - -
 72
65
 73
2
 40
0.2
 49
0.1
 74
0
 49
-0.1
 74
0
  0
LTYPE
  5
1F7
100
AcDbSymbolTableRecord
100
AcDbLinetypeTableRecord
  2
PHANTOM
 70
64
  3
_____ _ _ _____ _ _ _____ _ _ _____
 72
65
 73
6
 40
0.8
 49
0.45
 74
0
 49
-0.05
 74
0
 49
0.1
 74
0
 49
-0.05
 74
0
 49
0.1
 74
0
 49
-0.05
 74
0
  0
LTYPE
  5
1F8
100
AcDbSymbolTableRecord
100
AcDbLinetypeTableRecord
  2
DOT
 70
64
  3
. . . . . . . . . . . . . . . . . . . .
 72
65
 73
2
 40
0.2
 49
0.1
 74
0
 49
-0.1
 74
0
  0
LTYPE
  5
1F9
100
AcDbSymbolTableRecord
100
AcDbLinetypeTableRecord
  2
DASHED
 70
64
  3
- - - - - - - - - - - - - - - - - - - -
 72
65
 73
2
 40
0.2
 49
0.1
 74
0
 49
-0.1
 74
0
  0
ENDTAB
  0
TABLE
  2
LAYER
  5
2
100
AcDbSymbolTable
 70
36
  0
LAYER
  5
10
100
AcDbSymbolTableRecord
100
AcDbLayerTableRecord
  2
0
 70
0
 62
7
  6
CONTINUOUS
370
-3
390
F
  0
LAYER
  5
1FA
100
AcDbSymbolTableRecord
100
AcDbLayerTableRecord
  2
DEFAULT_1
 70
0
 62
7
  6
CENTER
370
-3
390
F
  0
LAYER
  5
1FB
100
AcDbSymbolTableRecord
100
AcDbLayerTableRecord
  2
DEFAULT_2
 70
0
 62
7
  6
HIDDEN
370
-3
390
F
  0
LAYER
  5
1FC
100
AcDbSymbolTableRecord
100
AcDbLayerTableRecord
  2
DEFAULT_3
 70
0
 62
7
  6
PHANTOM
370
-3
390
F
  0
LAYER
  5
1FD
100
AcDbSymbolTableRecord
100
AcDbLayerTableRecord
  2
00_COMPONENTS
 70
0
 62
7
  6
CONTINUOUS
370
-3
390
F
  0
LAYER
  5
1FE
100
AcDbSymbolTableRecord
100
AcDbLayerTableRecord
  2
01_1_DEFAULT_DATUMS
 70
0
 62
7
  6
CONTINUOUS
370
-3
390
F
  0
LAYER
  5
1FF
100
AcDbSymbolTableRecord
100
AcDbLayerTableRecord
  2
01_PLANES
 70
0
 62
7
  6
CONTINUOUS
370
-3
390
F
  0
LAYER
  5
200
100
AcDbSymbolTableRecord
100
AcDbLayerTableRecord
  2
02_COORD_SYS
 70
0
 62
7
  6
CONTINUOUS
370
-3
390
F
  0
LAYER
  5
201
100
AcDbSymbolTableRecord
100
AcDbLayerTableRecord
  2
03_AXES
 70
0
 62
7
  6
CONTINUOUS
370
-3
390
F
  0
LAYER
  5
202
100
AcDbSymbolTableRecord
100
AcDbLayerTableRecord
  2
04_POINTS
 70
0
 62
7
  6
CONTINUOUS
370
-3
390
F
  0
LAYER
  5
203
100
AcDbSymbolTableRecord
100
AcDbLayerTableRecord
  2
05_CURVES
 70
0
 62
7
  6
CONTINUOUS
370
-3
390
F
  0
LAYER
  5
204
100
AcDbSymbolTableRecord
100
AcDbLayerTableRecord
  2
06_SURFS
 70
0
 62
7
  6
CONTINUOUS
370
-3
390
F
  0
LAYER
  5
205
100
AcDbSymbolTableRecord
100
AcDbLayerTableRecord
  2
07_COSMETICS
 70
0
 62
7
  6
CONTINUOUS
370
-3
390
F
  0
LAYER
  5
206
100
AcDbSymbolTableRecord
100
AcDbLayerTableRecord
  2
10_NOTES
 70
0
 62
7
  6
CONTINUOUS
370
-3
390
F
  0
LAYER
  5
207
100
AcDbSymbolTableRecord
100
AcDbLayerTableRecord
  2
11_NOTES_PUB
 70
0
 62
7
  6
CONTINUOUS
370
-3
390
F
  0
LAYER
  5
208
100
AcDbSymbolTableRecord
100
AcDbLayerTableRecord
  2
13_REF_GTOL
 70
0
 62
7
  6
CONTINUOUS
370
-3
390
F
  0
LAYER
  5
209
100
AcDbSymbolTableRecord
100
AcDbLayerTableRecord
  2
16_MISC
 70
0
 62
7
  6
CONTINUOUS
370
-3
390
F
  0
LAYER
  5
20A
100
AcDbSymbolTableRecord
100
AcDbLayerTableRecord
  2
17_NO_PRINT
 70
0
 62
7
  6
CONTINUOUS
370
-3
390
F
  0
LAYER
  5
20B
100
AcDbSymbolTableRecord
100
AcDbLayerTableRecord
  2
18_DATUM_CAMS_JOINTS
 70
0
 62
7
  6
CONTINUOUS
370
-3
390
F
  0
LAYER
  5
20C
100
AcDbSymbolTableRecord
100
AcDbLayerTableRecord
  2
19_DATUM_FUNCTIONAL
 70
0
 62
7
  6
CONTINUOUS
370
-3
390
F
  0
LAYER
  5
20D
100
AcDbSymbolTableRecord
100
AcDbLayerTableRecord
  2
20_DATUM_KINEMATIC_SCHEME
 70
0
 62
7
  6
CONTINUOUS
370
-3
390
F
  0
ENDTAB
  0
TABLE
  2
STYLE
  5
3
100
AcDbSymbolTable
 70
1
  0
STYLE
  5
11
100
AcDbSymbolTableRecord
100
AcDbTextStyleTableRecord
  2
STANDARD
 70
0
 40
0.0
 41
1.0
 50
0.0
 71
0
 42
0.2
  3
ARIAL.TTF
  4

  0
STYLE
  5
20E
100
AcDbSymbolTableRecord
100
AcDbTextStyleTableRecord
  2
TEXTSTYLE_1
 70
0
 40
0.0
 41
0.8
 50
0.0
 71
0
 42
0.2
  3
gdt
  4

  0
ENDTAB
  0
TABLE
  2
VIEW
  5
6
100
AcDbSymbolTable
 70
0
  0
ENDTAB
  0
TABLE
  2
UCS
  5
7
100
AcDbSymbolTable
 70
0
  0
ENDTAB
  0
TABLE
  2
APPID
  5
9
100
AcDbSymbolTable
 70
1
  0
APPID
  5
20F
100
AcDbSymbolTableRecord
100
AcDbRegAppTableRecord
  2
ACAD
 70
0
  0
ENDTAB
  0
TABLE
  2
BLOCK_RECORD
  5
1
100
AcDbSymbolTable
 70
0
  0
BLOCK_RECORD
  5
210
100
AcDbSymbolTableRecord
100
AcDbBlockTableRecord
  2
*Model_Space
  0
BLOCK_RECORD
  5
211
100
AcDbSymbolTableRecord
100
AcDbBlockTableRecord
  2
*Paper_Space
  0
BLOCK_RECORD
  5
212
100
AcDbSymbolTableRecord
100
AcDbBlockTableRecord
  2
_FILLED
  0
ENDTAB
  0
TABLE
  2
DIMSTYLE
  5
A
100
AcDbSymbolTable
 70
1
100
AcDbDimStyleTable
 71
0
  0
DIMSTYLE
105
213
100
AcDbSymbolTableRecord
100
AcDbDimStyleTableRecord
  2
STANDARD
 70
0
  3

  4

 40
1.0
 41
0.6159708597
 42
1.0
 43
0.38
 44
1.0
 45
0.0
 46
0.0
 47
0.01
 48
0.01
140
0.8623592035
141
0.09
142
0.0
143
25.4
144
1.0
145
0.0
146
1.0
147
0.625
 71
1
 72
0
 73
0
 74
0
 75
0
 76
0
 77
1
 78
8
 79
2
170
0
171
1
172
0
173
0
174
0
175
0
176
0
177
0
178
0
270
2
179
2
271
2
272
2
273
2
274
2
275
0
280
0
281
0
282
0
283
1
284
8
285
0
286
0
287
3
288
0
340
11
278
46
341
212
342
212
343
212
344
212
  0
ENDTAB
  0
ENDSEC
  0
SECTION
  2
BLOCKS
  0
BLOCK
  5
20
100
AcDbEntity
  8
0
100
AcDbBlockBegin
  2
*Model_Space
 70
0
 10
0.0
 20
0.0
 30
0.0
  3
*Model_Space
  1

  0
ENDBLK
  5
21
100
AcDbEntity
  8
0
100
AcDbBlockEnd
  0
BLOCK
  5
1C
100
AcDbEntity
  8
0
100
AcDbBlockBegin
  2
*Paper_Space
 70
0
 10
0.0
 20
0.0
 30
0.0
  3
*Paper_Space
  1

  0
ENDBLK
  5
1D
100
AcDbEntity
  8
0
100
AcDbBlockEnd
  0
BLOCK
  5
214
100
AcDbEntity
  8
0
100
AcDbBlockBegin
  2
_FILLED
 70
64
 10
0.0
 20
0.0
  3
_FILLED
  1

  0
SOLID
  5
215
100
AcDbEntity
  8
0
  6
BYBLOCK
 62
0
100
AcDbTrace
 10
0.0
 20
0.0
 11
-1.0
 21
0.25
 12
-1.0
 22
-0.25
 13
-1.0
 23
-0.25
  0
ENDBLK
  5
216
100
AcDbEntity
  8
0
  6
BYBLOCK
 62
0
100
AcDbBlockEnd
  0
ENDSEC
  0
SECTION
  2
ENTITIES
  0
LINE
  5
217
100
AcDbEntity
  8
0
100
AcDbLine
 62
7
  6
BYLAYER
 10
36.5423981661
 20
5.2397482014
 11
32.2426792266
 21
5.2397482014
  0
LINE
  5
218
100
AcDbEntity
  8
0
100
AcDbLine
 62
7
  6
BYLAYER
 10
13.2425386963
 20
56.3897482014
 11
13.2425386963
 21
63.4247482014
  0
LINE
  5
219
100
AcDbEntity
  8
0
100
AcDbLine
 62
7
  6
BYLAYER
 10
13.7425386963
 20
55.8897482014
 11
13.7425386963
 21
56.058540242
  0
LINE
  5
21A
100
AcDbEntity
  8
0
100
AcDbLine
 62
7
  6
BYLAYER
 10
13.7425386963
 20
56.7556091399
 11
13.7425386963
 21
63.9247482014
  0
LINE
  5
21B
100
AcDbEntity
  8
0
100
AcDbLine
 62
7
  6
BYLAYER
 10
13.9425386963
 20
52.9897482014
 11
13.9425386963
 21
67.4897482014
  0
LINE
  5
21C
100
AcDbEntity
  8
0
100
AcDbLine
 62
7
  6
BYLAYER
 10
24.3425386963
 20
54.4178962082
 11
23.3425386963
 21
52.9897482014
  0
LINE
  5
21D
100
AcDbEntity
  8
0
100
AcDbLine
 62
7
  6
BYLAYER
 10
17.8425386963
 20
67.4897482014
 11
17.8425386963
 21
52.9897482014
  0
LINE
  5
21E
100
AcDbEntity
  8
0
100
AcDbLine
 62
7
  6
BYLAYER
 10
19.3425386963
 20
52.9897482014
 11
19.3425386963
 21
67.4897482014
  0
LINE
  5
21F
100
AcDbEntity
  8
0
100
AcDbLine
 62
7
  6
BYLAYER
 10
37.8925306404
 20
29.2397482014
 11
30.8925467522
 21
29.2397482014
  0
LINE
  5
220
100
AcDbEntity
  8
0
100
AcDbLine
 62
7
  6
BYLAYER
 10
38.8256045011
 20
29.8800424829
 11
29.9594728915
 21
29.8800424829
  0
LINE
  5
221
100
AcDbEntity
  8
0
100
AcDbLine
 62
7
  6
BYLAYER
 10
39.5425386963
 20
31.7397482014
 11
29.2425386963
 21
31.7397482014
  0
LINE
  5
222
100
AcDbEntity
  8
0
100
AcDbLine
 62
7
  6
BYLAYER
 10
23.3425386963
 20
67.4897482014
 11
23.3425386963
 21
52.9897482014
  0
LINE
  5
223
100
AcDbEntity
  8
0
100
AcDbLine
 62
7
  6
BYLAYER
 10
24.3425386963
 20
66.0616001947
 11
24.3425386963
 21
54.4178962082
  0
LINE
  5
224
100
AcDbEntity
  8
0
100
AcDbLine
 62
7
  6
BYLAYER
 10
29.2425484336
 20
32.2397482014
 11
39.542528959
 21
32.2397482014
  0
LINE
  5
225
100
AcDbEntity
  8
0
100
AcDbLine
 62
7
  6
BYLAYER
 10
26.3425386963
 20
54.4897482014
 11
26.3425386963
 21
65.9897482014
  0
LINE
  5
226
100
AcDbEntity
  8
0
100
AcDbLine
 62
7
  6
BYLAYER
 10
27.3425386963
 20
53.4897482014
 11
27.3425386963
 21
66.9897482014
  0
LINE
  5
227
100
AcDbEntity
  8
0
100
AcDbLine
 62
7
  6
BYLAYER
 10
29.9594728915
 20
29.8800424829
 11
29.2425386963
 21
31.7397482014
  0
LINE
  5
228
100
AcDbEntity
  8
0
100
AcDbLine
 62
7
  6
BYLAYER
 10
29.2425386963
 20
32.2397482014
 11
29.2425386963
 21
31.7397482014
  0
LINE
  5
229
100
AcDbEntity
  8
0
100
AcDbLine
 62
7
  6
BYLAYER
 10
29.2580401723
 20
56.0997745817
 11
29.2580401723
 21
56.5732090878
  0
LINE
  5
22A
100
AcDbEntity
  8
0
100
AcDbLine
 62
7
  6
BYLAYER
 10
29.5925386963
 20
45.2397482014
 11
29.5925386963
 21
42.7397482014
  0
LINE
  5
22B
100
AcDbEntity
  8
0
100
AcDbLine
 62
7
  6
BYLAYER
 10
29.9425386963
 20
32.2397482014
 11
29.9425386963
 21
41.2397482014
  0
LINE
  5
22C
100
AcDbEntity
  8
0
100
AcDbLine
 62
7
  6
BYLAYER
 10
29.5925386963
 20
42.7397482014
 11
29.9425386963
 21
41.2397482014
  0
LINE
  5
22D
100
AcDbEntity
  8
0
100
AcDbLine
 62
7
  6
BYLAYER
 10
27.6948509621
 20
53.4897482013
 11
27.529539951
 21
54.6623762439
  0
LINE
  5
22E
100
AcDbEntity
  8
0
100
AcDbLine
 62
7
  6
BYLAYER
 10
29.5925386963
 20
45.2397482014
 11
28.5220384954
 21
53.958272689
  0
LINE
  5
22F
100
AcDbEntity
  8
0
100
AcDbLine
 62
7
  6
BYLAYER
 10
31.7050953787
 20
66.9897482014
 11
31.7050940478
 21
56.0997745817
  0
LINE
  5
230
100
AcDbEntity
  8
0
100
AcDbLine
 62
7
  6
BYLAYER
 10
32.1325256963
 20
45.2397482014
 11
32.1325256963
 21
57.3953057936
  0
LINE
  5
231
100
AcDbEntity
  8
0
100
AcDbLine
 62
7
  6
BYLAYER
 10
32.2425386963
 20
5.2397482014
 11
32.2425386963
 21
29.2397482014
  0
LINE
  5
232
100
AcDbEntity
  8
0
100
AcDbLine
 62
7
  6
BYLAYER
 10
32.4857942336
 20
44.2397482014
 11
32.4857942336
 21
45.2397482014
  0
LINE
  5
233
100
AcDbEntity
  8
0
100
AcDbLine
 62
7
  6
BYLAYER
 10
32.573336267
 20
57.5608457704
 11
32.573336267
 21
66.9137869665
  0
LINE
  5
234
100
AcDbEntity
  8
0
100
AcDbLine
 62
7
  6
BYLAYER
 10
29.9425386963
 20
41.2397482014
 11
38.7425386963
 21
41.2397482014
  0
LINE
  5
235
100
AcDbEntity
  8
0
100
AcDbLine
 62
7
  6
BYLAYER
 10
29.2580399333
 20
56.0997745817
 11
30.5914835038
 21
45.2397482014
  0
LINE
  5
236
100
AcDbEntity
  8
0
100
AcDbLine
 62
7
  6
BYLAYER
 10
33.6447711443
 20
58.2057674455
 11
33.6447711443
 21
45.2397482014
  0
LINE
  5
237
100
AcDbEntity
  8
0
100
AcDbLine
 62
7
  6
BYLAYER
 10
35.6280451506
 20
45.2397482014
 11
35.6280451506
 21
59.6856213345
  0
LINE
  5
238
100
AcDbEntity
  8
0
100
AcDbLine
 62
7
  6
BYLAYER
 10
39.0925386963
 20
44.2397482014
 11
36.1992831591
 21
44.2397482014
  0
LINE
  5
239
100
AcDbEntity
  8
0
100
AcDbLine
 62
7
  6
BYLAYER
 10
32.4857942336
 20
44.2397482014
 11
29.5925386963
 21
44.2397482014
  0
LINE
  5
23A
100
AcDbEntity
  8
0
100
AcDbLine
 62
7
  6
BYLAYER
 10
29.5925386963
 20
45.2397482014
 11
39.0925386963
 21
45.2397482014
  0
LINE
  5
23B
100
AcDbEntity
  8
0
100
AcDbLine
 62
7
  6
BYLAYER
 10
36.1992831591
 20
45.2397482014
 11
36.1992831591
 21
44.2397482014
  0
LINE
  5
23C
100
AcDbEntity
  8
0
100
AcDbLine
 62
7
  6
BYLAYER
 10
36.5425386963
 20
5.2397482014
 11
36.5425386963
 21
29.2397482014
  0
LINE
  5
23D
100
AcDbEntity
  8
0
100
AcDbLine
 62
7
  6
BYLAYER
 10
37.1155016963
 20
60.2397482014
 11
37.1155016963
 21
45.2397482014
  0
LINE
  5
23E
100
AcDbEntity
  8
0
100
AcDbLine
 62
7
  6
BYLAYER
 10
37.441685193
 20
45.2397482014
 11
38.1898350516
 21
51.3329398304
  0
LINE
  5
23F
100
AcDbEntity
  8
0
100
AcDbLine
 62
7
  6
BYLAYER
 10
39.8424849449
 20
51.3475702525
 11
39.0925386963
 21
45.2397482014
  0
LINE
  5
240
100
AcDbEntity
  8
0
100
AcDbLine
 62
7
  6
BYLAYER
 10
38.7425386963
 20
41.2397482014
 11
39.0925386963
 21
42.7397482014
  0
LINE
  5
241
100
AcDbEntity
  8
0
100
AcDbLine
 62
7
  6
BYLAYER
 10
38.1898350516
 20
51.3329398304
 11
38.1898350516
 21
65.9234466937
  0
LINE
  5
242
100
AcDbEntity
  8
0
100
AcDbLine
 62
7
  6
BYLAYER
 10
38.7425386963
 20
41.2397482014
 11
38.7425386963
 21
32.2397482014
  0
LINE
  5
243
100
AcDbEntity
  8
0
100
AcDbLine
 62
7
  6
BYLAYER
 10
39.0925386963
 20
42.7397482014
 11
39.0925386963
 21
45.2397482014
  0
LINE
  5
244
100
AcDbEntity
  8
0
100
AcDbLine
 62
7
  6
BYLAYER
 10
39.5425386963
 20
32.2397482014
 11
39.5425386963
 21
31.7397482014
  0
LINE
  5
245
100
AcDbEntity
  8
0
100
AcDbLine
 62
7
  6
BYLAYER
 10
39.8425386963
 20
63.9538311876
 11
39.8425386963
 21
51.3480080224
  0
LINE
  5
246
100
AcDbEntity
  8
0
100
AcDbLine
 62
7
  6
BYLAYER
 10
38.8256045011
 20
29.8800424829
 11
39.5425386963
 21
31.7397482014
  0
LINE
  5
247
100
AcDbEntity
  8
0
100
AcDbLine
 62
7
  6
BYLAYER
 10
23.3425386963
 20
67.4897482014
 11
24.3425386963
 21
66.0616001947
  0
LINE
  5
248
100
AcDbEntity
  8
0
100
AcDbLine
 62
7
  6
BYLAYER
 10
13.9425386963
 20
52.9897482014
 11
17.8425386963
 21
52.9897482014
  0
LINE
  5
249
100
AcDbEntity
  8
0
100
AcDbLine
 62
7
  6
BYLAYER
 10
19.3425386963
 20
52.9897482014
 11
23.3425386963
 21
52.9897482014
  0
LINE
  5
24A
100
AcDbEntity
  8
0
100
AcDbLine
 62
7
  6
BYLAYER
 10
17.8425386963
 20
53.1397482014
 11
19.3425386963
 21
53.1397482014
  0
LINE
  5
24B
100
AcDbEntity
  8
0
100
AcDbLine
 62
7
  6
BYLAYER
 10
27.6948082039
 20
53.4897482014
 11
27.3425386963
 21
53.4897482014
  0
LWPOLYLINE
  5
24C
100
AcDbEntity
  8
0
100
AcDbPolyline
 62
7
  6
BYLAYER
 90
4
 70
0
 10
27.6948408032
 20
53.4897482013
 10
28.0952060523
 20
53.406007996
 10
28.4979826322
 20
53.0851970765
 10
28.6873876665
 20
52.611611752
  0
LINE
  5
24D
100
AcDbEntity
  8
0
100
AcDbLine
 62
7
  6
BYLAYER
 10
26.3425386963
 20
55.5397482014
 11
24.3425386963
 21
55.5397482014
  0
LINE
  5
24E
100
AcDbEntity
  8
0
100
AcDbLine
 62
7
  6
BYLAYER
 10
13.9425386963
 20
55.8897482014
 11
13.7425386963
 21
55.8897482014
  0
LINE
  5
24F
100
AcDbEntity
  8
0
100
AcDbLine
 62
7
  6
BYLAYER
 10
13.9425386963
 20
56.058540242
 11
13.7425386963
 21
56.058540242
  0
LINE
  5
250
100
AcDbEntity
  8
0
100
AcDbLine
 62
7
  6
BYLAYER
 10
29.2580399333
 20
56.0997745817
 11
31.7050655409
 21
56.0997745817
  0
LINE
  5
251
100
AcDbEntity
  8
0
100
AcDbLine
 62
7
  6
BYLAYER
 10
29.2580421283
 20
56.5732090878
 11
31.7050953787
 21
56.5732090878
  0
LINE
  5
252
100
AcDbEntity
  8
0
100
AcDbLine
 62
7
  6
BYLAYER
 10
13.7425386963
 20
56.7556091399
 11
13.9425386963
 21
56.7556091399
  0
LINE
  5
253
100
AcDbEntity
  8
0
100
AcDbLine
 62
7
  6
BYLAYER
 10
35.6280451506
 20
58.6490171429
 11
37.1155016963
 21
58.6490171429
  0
LINE
  5
254
100
AcDbEntity
  8
0
100
AcDbLine
 62
7
  6
BYLAYER
 10
36.9109280547
 20
60.2397482014
 11
39.8424894425
 21
60.2397482014
  0
LINE
  5
255
100
AcDbEntity
  8
0
100
AcDbLine
 62
7
  6
BYLAYER
 10
13.7425386963
 20
63.9247482014
 11
13.9425386963
 21
63.9247482014
  0
LINE
  5
256
100
AcDbEntity
  8
0
100
AcDbLine
 62
7
  6
BYLAYER
 10
24.3425386963
 20
64.9397482014
 11
26.3425386963
 21
64.9397482014
  0
LINE
  5
257
100
AcDbEntity
  8
0
100
AcDbLine
 62
7
  6
BYLAYER
 10
27.3425386963
 20
66.9897482014
 11
31.7050953787
 21
66.9897482014
  0
LINE
  5
258
100
AcDbEntity
  8
0
100
AcDbLine
 62
7
  6
BYLAYER
 10
19.3425386963
 20
67.3397482014
 11
17.8425386963
 21
67.3397482014
  0
LINE
  5
259
100
AcDbEntity
  8
0
100
AcDbLine
 62
7
  6
BYLAYER
 10
23.3425386963
 20
67.4897482014
 11
19.3425386963
 21
67.4897482014
  0
LINE
  5
25A
100
AcDbEntity
  8
0
100
AcDbLine
 62
7
  6
BYLAYER
 10
17.8425386963
 20
67.4897482014
 11
13.9425386963
 21
67.4897482014
  0
LINE
  5
25B
100
AcDbEntity
  8
0
100
AcDbLine
 62
7
  6
BYLAYER
 10
31.7050953787
 20
66.9897482014
 11
32.573336267
 21
66.9137869665
  0
LINE
  5
25C
100
AcDbEntity
  8
0
100
AcDbLine
 62
7
  6
BYLAYER
 10
38.1898350516
 20
65.9234466937
 11
32.573336267
 21
66.9137869665
  0
ARC
  5
25D
100
AcDbEntity
  8
0
100
AcDbCircle
 62
7
  6
BYLAYER
 10
31.7053195505
 20
59.0060910148
 40
2.9063161854
100
AcDbArc
 50
269.9949923942
 51
278.4526643401
  0
ARC
  5
25E
100
AcDbEntity
  8
0
100
AcDbCircle
 62
7
  6
BYLAYER
 10
31.7048035342
 20
58.9248279393
 40
2.3516199899
100
AcDbArc
 50
270.0071111689
 51
280.4797278092
  0
ARC
  5
25F
100
AcDbEntity
  8
0
100
AcDbCircle
 62
7
  6
BYLAYER
 10
37.8425386963
 20
63.9538311876
 40
2.0
100
AcDbArc
 50
0.0
 51
80.0
  0
ARC
  5
260
100
AcDbEntity
  8
0
100
AcDbCircle
 62
7
  6
BYLAYER
 10
31.6864510492
 20
59.2523656994
 40
1.9099126401
100
AcDbArc
 50
283.5066767315
 51
297.6685883746
  0
ARC
  5
261
100
AcDbEntity
  8
0
100
AcDbCircle
 62
7
  6
BYLAYER
 10
30.8925386963
 20
30.2397482014
 40
1.0
100
AcDbArc
 50
201.0821242987
 51
270.0
  0
ARC
  5
262
100
AcDbEntity
  8
0
100
AcDbCircle
 62
7
  6
BYLAYER
 10
37.8925386963
 20
30.2397482014
 40
1.0
100
AcDbArc
 50
270.0
 51
338.9178757013
  0
ARC
  5
263
100
AcDbEntity
  8
0
100
AcDbCircle
 62
7
  6
BYLAYER
 10
27.3425386963
 20
54.4897482014
 40
1.0
100
AcDbArc
 50
180.0
 51
270.0
  0
ARC
  5
264
100
AcDbEntity
  8
0
100
AcDbCircle
 62
7
  6
BYLAYER
 10
27.3425386963
 20
65.9897482014
 40
1.0
100
AcDbArc
 50
90.0
 51
180.0
  0
ARC
  5
265
100
AcDbEntity
  8
0
100
AcDbCircle
 62
7
  6
BYLAYER
 10
13.7425386963
 20
56.3897482014
 40
0.5
100
AcDbArc
 50
180.0
 51
270.0
  0
ARC
  5
266
100
AcDbEntity
  8
0
100
AcDbCircle
 62
7
  6
BYLAYER
 10
13.7425386963
 20
63.4247482014
 40
0.5
100
AcDbArc
 50
90.0
 51
180.0
  0
SPLINE
  5
267
100
AcDbEntity
  8
0
100
AcDbSpline
 62
7
  6
BYLAYER
 70
0
 71
3
 72
14
 73
10
 74
0
 42
0.0000001
 43
0.0000001
 44
0.0000000001
 40
0.0
 40
0.0
 40
0.0
 40
0.0
 40
0.2615789341
 40
0.3964970866
 40
0.5293743839
 40
0.6573808785
 40
0.7789085505
 40
0.8929540403
 40
1.0
 40
1.0
 40
1.0
 40
1.0
 10
27.5294923343
 20
54.662641013
 30
0.0
 10
27.6455712526
 20
54.667163876
 30
0.0
 10
27.824253655
 20
54.648629349
 30
0.0
 10
28.0462236895
 20
54.5687071336
 30
0.0
 10
28.2000060483
 20
54.4813805975
 30
0.0
 10
28.3291352643
 20
54.3693767727
 30
0.0
 10
28.4285462713
 20
54.2406234562
 30
0.0
 10
28.4937871428
 20
54.101893821
 30
0.0
 10
28.5162449724
 20
54.0054572301
 30
0.0
 10
28.5220385123
 20
53.9582725512
 30
0.0
  0
SPLINE
  5
268
100
AcDbEntity
  8
0
100
AcDbSpline
 62
7
  6
BYLAYER
 70
0
 71
3
 72
21
 73
17
 74
0
 42
0.0000001
 43
0.0000001
 44
0.0000000001
 40
0.0
 40
0.0
 40
0.0
 40
0.0
 40
0.0278979988
 40
0.0556934959
 40
0.0838434651
 40
0.1126805134
 40
0.1725190279
 40
0.2349225084
 40
0.299045021
 40
0.3641992174
 40
0.4298802974
 40
0.4957129076
 40
0.6266820052
 40
0.7553120866
 40
0.8801550248
 40
1.0
 40
1.0
 40
1.0
 40
1.0
 10
29.2580391725
 20
56.0997683637
 30
0.0
 10
29.235539564
 20
56.1024360652
 30
0.0
 10
29.189798597
 20
56.102683536
 30
0.0
 10
29.1230574418
 20
56.0862667866
 30
0.0
 10
29.0611362832
 20
56.0550395729
 30
0.0
 10
28.9853231266
 20
55.9973355731
 30
0.0
 10
28.904608691
 20
55.9034269815
 30
0.0
 10
28.8256130222
 20
55.7739741601
 30
0.0
 10
28.7588660468
 20
55.6330899046
 30
0.0
 10
28.7020217675
 20
55.485200915
 30
0.0
 10
28.653489886
 20
55.3329487493
 30
0.0
 10
28.5986849878
 20
55.1268753109
 30
0.0
 10
28.5470691102
 20
54.8673528151
 30
0.0
 10
28.5098036373
 20
54.5570473793
 30
0.0
 10
28.4983753611
 20
54.25372464
 30
0.0
 10
28.5101788411
 20
54.0548692338
 30
0.0
 10
28.5220396631
 20
53.9582631782
 30
0.0
  0
SPLINE
  5
269
100
AcDbEntity
  8
0
100
AcDbSpline
 62
7
  6
BYLAYER
 70
0
 71
3
 72
10
 73
6
 74
0
 42
0.0000001
 43
0.0000001
 44
0.0000000001
 40
0.0
 40
0.0
 40
0.0
 40
0.0
 40
0.2506421233
 40
0.5007836458
 40
1.0
 40
1.0
 40
1.0
 40
1.0
 10
35.6280451758
 20
57.5831206351
 30
0.0
 10
35.467869139
 20
57.4939190841
 30
0.0
 10
35.143799894
 20
57.3228873258
 30
0.0
 10
34.4853379294
 20
57.0041156529
 30
0.0
 10
33.982333407
 20
56.7856407577
 30
0.0
 10
33.6447711673
 20
56.6463645892
 30
0.0
  0
SPLINE
  5
26A
100
AcDbEntity
  8
0
100
AcDbSpline
 62
7
  6
BYLAYER
 70
0
 71
3
 72
14
 73
10
 74
0
 42
0.0000001
 43
0.0000001
 44
0.0000000001
 40
0.0
 40
0.0
 40
0.0
 40
0.0
 40
0.2493080621
 40
0.3744277205
 40
0.4995405546
 40
0.6246577647
 40
0.7497562445
 40
0.8749838875
 40
1.0
 40
1.0
 40
1.0
 40
1.0
 10
13.2425386963
 20
57.289455843
 30
0.0
 10
13.2425386963
 20
57.2220888631
 30
0.0
 10
13.2605458229
 20
57.1196555809
 30
0.0
 10
13.3193345956
 20
56.9975054598
 30
0.0
 10
13.3801920805
 20
56.9155255825
 30
0.0
 10
13.4558840574
 20
56.8470207301
 30
0.0
 10
13.5440064406
 20
56.7952667732
 30
0.0
 10
13.6409250218
 20
56.7630224771
 30
0.0
 10
13.7087573662
 20
56.7556091399
 30
0.0
 10
13.7425386963
 20
56.7556091399
 30
0.0
  0
SPLINE
  5
26B
100
AcDbEntity
  8
0
100
AcDbSpline
 62
7
  6
BYLAYER
 70
0
 71
3
 72
17
 73
13
 74
0
 42
0.0000001
 43
0.0000001
 44
0.0000000001
 40
0.0
 40
0.0
 40
0.0
 40
0.0
 40
0.1798342037
 40
0.2304334741
 40
0.283403928
 40
0.396639237
 40
0.5204661857
 40
0.6573891459
 40
0.7327687422
 40
0.8147103349
 40
0.9046964532
 40
1.0
 40
1.0
 40
1.0
 40
1.0
 10
27.5295259733
 20
54.6623756212
 30
0.0
 10
27.5058472325
 20
54.829936985
 30
0.0
 10
27.5435946838
 20
55.0541272351
 30
0.0
 10
27.6368943184
 20
55.3032323216
 30
0.0
 10
27.7227335189
 20
55.4886841494
 30
0.0
 10
27.8633649893
 20
55.723528173
 30
0.0
 10
28.0825458341
 20
56.0001082295
 30
0.0
 10
28.3149832998
 20
56.2172589538
 30
0.0
 10
28.543810645
 20
56.3741426511
 30
0.0
 10
28.7520526026
 20
56.4799545988
 30
0.0
 10
28.9934139934
 20
56.5553681936
 30
0.0
 10
29.1683603383
 20
56.5732136235
 30
0.0
 10
29.2580421283
 20
56.5732101756
 30
0.0
  0
SPLINE
  5
26C
100
AcDbEntity
  8
0
100
AcDbSpline
 62
7
  6
BYLAYER
 70
0
 71
3
 72
11
 73
7
 74
0
 42
0.0000001
 43
0.0000001
 44
0.0000000001
 40
0.0
 40
0.0
 40
0.0
 40
0.0
 40
0.2498753963
 40
0.4997807521
 40
0.7498078858
 40
1.0
 40
1.0
 40
1.0
 40
1.0
 10
13.7425386963
 20
56.058540242
 30
0.0
 10
13.676013037
 20
56.058540242
 30
0.0
 10
13.5413577395
 20
56.0871299353
 30
0.0
 10
13.3749230644
 20
56.2066898905
 30
0.0
 10
13.2669968449
 20
56.3804195789
 30
0.0
 10
13.2425386963
 20
56.5149282758
 30
0.0
 10
13.2425386963
 20
56.5815382567
 30
0.0
  0
SPLINE
  5
26D
100
AcDbEntity
  8
0
100
AcDbSpline
 62
7
  6
BYLAYER
 70
0
 71
3
 72
9
 73
5
 74
0
 42
0.0000001
 43
0.0000001
 44
0.0000000001
 40
0.0
 40
0.0
 40
0.0
 40
0.0
 40
0.4991618947
 40
1.0
 40
1.0
 40
1.0
 40
1.0
 10
36.9109280547
 20
60.2397482014
 30
0.0
 10
36.6926368567
 20
60.1593684013
 30
0.0
 10
36.2589675797
 20
59.9882130109
 30
0.0
 10
35.83579693
 20
59.791994212
 30
0.0
 10
35.6280451506
 20
59.6856213345
 30
0.0
  0
SPLINE
  5
26E
100
AcDbEntity
  8
0
100
AcDbSpline
 62
7
  6
BYLAYER
 70
0
 71
3
 72
9
 73
5
 74
0
 42
0.0000001
 43
0.0000001
 44
0.0000000001
 40
0.0
 40
0.0
 40
0.0
 40
0.0
 40
0.5000593589
 40
1.0
 40
1.0
 40
1.0
 40
1.0
 10
32.5733310916
 20
57.5608555908
 30
0.0
 10
32.7581744739
 20
57.6574714246
 30
0.0
 10
33.1234000754
 20
57.8592769232
 30
0.0
 10
33.4750019764
 20
58.0846911383
 30
0.0
 10
33.6447711443
 20
58.2057674455
 30
0.0
  0
SPLINE
  5
26F
100
AcDbEntity
  8
0
100
AcDbSpline
 62
7
  6
BYLAYER
 70
0
 71
3
 72
10
 73
6
 74
0
 42
0.0000001
 43
0.0000001
 44
0.0000000001
 40
0.0
 40
0.0
 40
0.0
 40
0.0
 40
0.5008935986
 40
0.7507458445
 40
1.0
 40
1.0
 40
1.0
 40
1.0
 10
33.6447711669
 20
57.1223284412
 30
0.0
 10
33.9823078814
 20
57.2493048942
 30
0.0
 10
34.4851952179
 20
57.4480591393
 30
0.0
 10
35.144150742
 20
57.7383163645
 30
0.0
 10
35.4680948723
 20
57.89409986
 30
0.0
 10
35.628045167
 20
57.9754662596
 30
0.0
  0
SPLINE
  5
270
100
AcDbEntity
  8
0
100
AcDbSpline
 62
7
  6
BYLAYER
 70
0
 71
3
 72
21
 73
17
 74
0
 42
0.0000001
 43
0.0000001
 44
0.0000000001
 40
0.0
 40
0.0
 40
0.0
 40
0.0
 40
0.1249574938
 40
0.1874537668
 40
0.2499610705
 40
0.3124762481
 40
0.3749899925
 40
0.4374982226
 40
0.5000017791
 40
0.5625049186
 40
0.6250115418
 40
0.6875248154
 40
0.7500396043
 40
0.8125465824
 40
0.8750426373
 40
1.0
 40
1.0
 40
1.0
 40
1.0
 10
32.4857942336
 20
44.2397482014
 30
0.0
 10
32.597258568
 20
44.0658315747
 30
0.0
 10
32.7736232394
 20
43.810354383
 30
0.0
 10
33.0356777524
 20
43.490556433
 30
0.0
 10
33.2490640354
 20
43.2652136718
 30
0.0
 10
33.4834384918
 20
43.0612964598
 30
0.0
 10
33.7433841745
 20
42.8900698282
 30
0.0
 10
34.0317441322
 20
42.769655591
 30
0.0
 10
34.3425464389
 20
42.7247922041
 30
0.0
 10
34.6533423595
 20
42.7696690206
 30
0.0
 10
34.9417012226
 20
42.8900736941
 30
0.0
 10
35.201642149
 20
43.061301148
 30
0.0
 10
35.4360155083
 20
43.2652162406
 30
0.0
 10
35.6494003143
 20
43.4905583845
 30
0.0
 10
35.9114549168
 20
43.810354761
 30
0.0
 10
36.0878189415
 20
44.0658317571
 30
0.0
 10
36.1992831591
 20
44.2397482014
 30
0.0
  0
SPLINE
  5
271
100
AcDbEntity
  8
0
100
AcDbSpline
 62
7
  6
BYLAYER
 70
0
 71
3
 72
21
 73
17
 74
0
 42
0.0000001
 43
0.0000001
 44
0.0000000001
 40
0.0
 40
0.0
 40
0.0
 40
0.0
 40
0.0029939854
 40
0.007655855
 40
0.0230430674
 40
0.0468765327
 40
0.0791746635
 40
0.119829112
 40
0.1686376414
 40
0.2252521743
 40
0.2892441634
 40
0.3601567221
 40
0.4374361157
 40
0.6087519033
 40
0.7982339126
 40
1.0
 40
1.0
 40
1.0
 40
1.0
 10
39.8424869791
 20
51.3475868196
 30
0.0
 10
39.8422850163
 20
51.3459419641
 30
0.0
 10
39.8395967542
 20
51.342221075
 30
0.0
 10
39.8288494502
 20
51.3354138697
 30
0.0
 10
39.805469951
 20
51.3276789401
 30
0.0
 10
39.7666855892
 20
51.3200737094
 30
0.0
 10
39.7133781578
 20
51.3139750708
 30
0.0
 10
39.6461740284
 20
51.3090492696
 30
0.0
 10
39.5653973635
 20
51.3051805876
 30
0.0
 10
39.471664735
 20
51.3023726359
 30
0.0
 10
39.3656643982
 20
51.3007751592
 30
0.0
 10
39.2482160533
 20
51.3004791669
 30
0.0
 10
39.0713673425
 20
51.3018429638
 30
0.0
 10
38.8289282027
 20
51.3068887821
 30
0.0
 10
38.5177152711
 20
51.3174704177
 30
0.0
 10
38.301372699
 20
51.327302103
 30
0.0
 10
38.1898350516
 20
51.3329398304
 30
0.0
  0
ENDSEC
  0
SECTION
  2
OBJECTS
  0
DICTIONARY
  5
C
100
AcDbDictionary
280
0
281
1
  3
ACAD_GROUP
350
D
  3
ACAD_MLINESTYLE
350
17
  3
ACAD_LAYOUT
350
1A
  3
ACAD_PLOTSETTINGS
350
19
  3
ACAD_PLOTSTYLENAME
350
E
  0
DICTIONARY
  5
D
102
{ACAD_REACTORS
330
C
102
}
100
AcDbDictionary
280
0
281
1
  0
ACDBDICTIONARYWDFLT
  5
E
102
{ACAD_REACTORS
330
C
102
}
100
AcDbDictionary
281
1
  3
Normal
350
F
100
AcDbDictionaryWithDefault
340
F
  0
DICTIONARY
  5
17
102
{ACAD_REACTORS
330
C
102
}
100
AcDbDictionary
280
0
281
1
  3
Standard
350
18
  0
DICTIONARY
  5
19
102
{ACAD_REACTORS
330
C
102
}
100
AcDbDictionary
281
1
  0
DICTIONARY
  5
1A
102
{ACAD_REACTORS
330
C
102
}
100
AcDbDictionary
281
1
  3
Model
350
272
  3
Layout1
350
273
  0
ACDBPLACEHOLDER
  5
F
102
{ACAD_REACTORS
330
E
102
}
  0
MLINESTYLE
  5
18
102
{ACAD_REACTORS
330
17
102
}
100
AcDbMlineStyle
  2
STANDARD
 70
0
  3

 62
256
 51
90.0
 52
90.0
 71
2
 49
0.5
 62
256
  6
BYLAYER
 49
-0.5
 62
256
  6
BYLAYER
  0
LAYOUT
  5
272
102
{ACAD_REACTORS
330
1A
102
}
100
AcDbPlotSettings
  1

  2
none_device
  4

  6

 40
0.0
 41
0.0
 42
0.0
 43
0.0
 44
210.0
 45
297.0
 46
0.0
 47
0.0
 48
0.0
 49
0.0
140
0.0
141
0.0
142
1.0
143
1.0
 70
1024
 72
1
 73
0
 74
0
  7

 75
0
147
1.0
148
0.0
149
0.0
100
AcDbLayout
  1
Model
 70
0
 71
0
 10
0.0
 20
0.0
 11
210.0
 21
297.0
 12
0.0
 22
0.0
 32
0.0
 14
0.0
 24
0.0
 34
0.0
 15
0.0
 25
0.0
 35
0.0
146
0.0
 13
0.0
 23
0.0
 33
0.0
 16
1.0
 26
0.0
 36
0.0
 17
0.0
 27
1.0
 37
0.0
 76
0
330
210
345
0
346
0
  0
LAYOUT
  5
273
102
{ACAD_REACTORS
330
1A
102
}
100
AcDbPlotSettings
  1

  2
none_device
  4

  6

 40
0.0
 41
0.0
 42
0.0
 43
0.0
 44
210.0
 45
297.0
 46
0.0
 47
0.0
 48
0.0
 49
0.0
140
0.0
141
0.0
142
1.0
143
1.0
 70
0
 72
1
 73
0
 74
0
  7

 75
0
147
1.0
148
0.0
149
0.0
100
AcDbLayout
  1
Layout1
 70
0
 71
1
 10
0.0
 20
0.0
 11
210.0
 21
297.0
 12
0.0
 22
0.0
 32
0.0
 14
0.0
 24
0.0
 34
0.0
 15
0.0
 25
0.0
 35
0.0
146
0.0
 13
0.0
 23
0.0
 33
0.0
 16
1.0
 26
0.0
 36
0.0
 17
0.0
 27
1.0
 37
0.0
 76
0
330
211
345
0
346
0
  0
ENDSEC
  0
EOF
