999
DXF file: C:\Users\sesa63760\Dev\_Creo\CAD\MCADID0000530_3D-CAD\drw0001_1.dxf
999
Pro/ENGINEER 2019471 by Parametric Technology Corporation
  0
SECTION
  2
HEADER
  9
$ACADVER
  1
AC1024
  9
$DWGCODEPAGE
  3
ANSI_1252
  9
$EXTMAX
 10
212.9839371379
 20
301.2201396664
 30
0.0
  9
$EXTMIN
 10
0.0
 20
0.0
 30
0.0
  9
$LIMMIN
 10
0.0
 20
0.0
  9
$LIMMAX
 10
212.9839371379
 20
301.2201396664
  9
$VIEWCTR
 10
106.4919685689
 20
150.6100698332
  9
$VIEWSIZE
 40
301.2201396664
  9
$CLAYER
  8
0
  9
$LTSCALE
 40
19.6350905857
  9
$CELTYPE
  6
BYLAYER
  9
$DIMSCALE
 40
1.0
  9
$DIMASZ
 40
2.5355230612
  9
$DIMEXO
 40
1.0
  9
$DIMDLI
 40
13.5660625865
  9
$DIMEXE
 40
1.0
  9
$DIMCEN
 40
3.2130148231
  9
$DIMLFAC
 40
1.0
  9
$DIMBLK
  1
_FILLED
  9
$DIMALT
 70
0
  9
$DIMALTF
 40
0.0393700787
  9
$DIMTXT
 40
3.5497322856
  9
$DIMTOL
 70
1
  9
$DIMLIM
 70
0
  9
$DIMTFAC
 40
1.0
  9
$DIMTP
 40
0.01
  9
$DIMTM
 40
0.01
  9
$DIMGAP
 40
0.625
  9
$DIMDSEP
 70
46
  9
$AUNITS
 70
0
  9
$PDMODE
 70
3
  9
$PDSIZE
 40
0.3125
  9
$HANDSEED
  5
48F
  9
$TILEMODE
 70
1
  9
$MEASUREMENT
 70
1
  9
$INSUNITS
 70
4
  0
ENDSEC
  0
SECTION
  2
CLASSES
  0
CLASS
  1
ACDBDICTIONARYWDFLT
  2
AcDbDictionaryWithDefault
  3
AutoCAD 2000
 90
0
 91
1
280
0
281
0
  0
CLASS
  1
ACDBPLACEHOLDER
  2
AcDbPlaceHolder
  3
AutoCAD 2000
 90
0
 91
1
280
0
281
0
  0
CLASS
  1
LAYOUT
  2
AcDbLayout
  3
AutoCAD 2000
 90
0
 91
0
280
0
281
0
  0
ENDSEC
  0
SECTION
  2
TABLES
  0
TABLE
  2
VPORT
  5
8
100
AcDbSymbolTable
 70
2
  0
VPORT
  5
1F4
100
AcDbSymbolTableRecord
100
AcDbViewportTableRecord
  2
*ACTIVE
 70
0
 10
0.0
 20
0.0
 11
1.0
 21
1.0
 12
106.4919685689
 22
150.6100698332
 13
0.0
 23
0.0
 14
1.0
 24
1.0
 15
0.0
 25
0.0
 16
0.0
 26
0.0
 36
1.0
 17
0.0
 27
0.0
 37
0.0
 40
301.2201396664
 41
0.7070707071
 42
50.0
 43
0.0
 44
0.0
 50
0.0
 51
0.0
 71
0
 72
100
 73
1
 74
1
 75
0
 76
0
 77
0
 78
0
  0
ENDTAB
  0
TABLE
  2
LTYPE
  5
5
100
AcDbSymbolTable
 70
6
  0
LTYPE
  5
14
100
AcDbSymbolTableRecord
100
AcDbLinetypeTableRecord
  2
BYBLOCK
 70
0
  3

 72
65
 73
0
 40
0.0
  0
LTYPE
  5
15
100
AcDbSymbolTableRecord
100
AcDbLinetypeTableRecord
  2
BYLAYER
 70
0
  3

 72
65
 73
0
 40
0.0
  0
LTYPE
  5
16
100
AcDbSymbolTableRecord
100
AcDbLinetypeTableRecord
  2
CONTINUOUS
 70
64
  3
Solid line
 72
65
 73
0
 40
0.0
  0
LTYPE
  5
1F5
100
AcDbSymbolTableRecord
100
AcDbLinetypeTableRecord
  2
CENTER
 70
64
  3
____ _ ____ _ ____ _ ____ _ ____ _ ____ _ ____
 72
65
 73
4
 40
0.6
 49
0.375
 74
0
 49
-0.075
 74
0
 49
0.075
 74
0
 49
-0.075
 74
0
  0
LTYPE
  5
1F6
100
AcDbSymbolTableRecord
100
AcDbLinetypeTableRecord
  2
HIDDEN
 70
64
  3
- - - - - - - - - - - - - - - - - - - -
 72
65
 73
2
 40
0.2
 49
0.1
 74
0
 49
-0.1
 74
0
  0
LTYPE
  5
1F7
100
AcDbSymbolTableRecord
100
AcDbLinetypeTableRecord
  2
PHANTOM
 70
64
  3
_____ _ _ _____ _ _ _____ _ _ _____
 72
65
 73
6
 40
0.8
 49
0.45
 74
0
 49
-0.05
 74
0
 49
0.1
 74
0
 49
-0.05
 74
0
 49
0.1
 74
0
 49
-0.05
 74
0
  0
LTYPE
  5
1F8
100
AcDbSymbolTableRecord
100
AcDbLinetypeTableRecord
  2
DOT
 70
64
  3
. . . . . . . . . . . . . . . . . . . .
 72
65
 73
2
 40
0.2
 49
0.1
 74
0
 49
-0.1
 74
0
  0
LTYPE
  5
1F9
100
AcDbSymbolTableRecord
100
AcDbLinetypeTableRecord
  2
DASHED
 70
64
  3
- - - - - - - - - - - - - - - - - - - -
 72
65
 73
2
 40
0.2
 49
0.1
 74
0
 49
-0.1
 74
0
  0
ENDTAB
  0
TABLE
  2
LAYER
  5
2
100
AcDbSymbolTable
 70
36
  0
LAYER
  5
10
100
AcDbSymbolTableRecord
100
AcDbLayerTableRecord
  2
0
 70
0
 62
7
  6
CONTINUOUS
370
-3
390
F
  0
LAYER
  5
1FA
100
AcDbSymbolTableRecord
100
AcDbLayerTableRecord
  2
DEFAULT_1
 70
0
 62
7
  6
CENTER
370
-3
390
F
  0
LAYER
  5
1FB
100
AcDbSymbolTableRecord
100
AcDbLayerTableRecord
  2
DEFAULT_2
 70
0
 62
8
  6
HIDDEN
370
-3
390
F
  0
LAYER
  5
1FC
100
AcDbSymbolTableRecord
100
AcDbLayerTableRecord
  2
DEFAULT_3
 70
0
 62
7
  6
PHANTOM
370
-3
390
F
  0
LAYER
  5
1FD
100
AcDbSymbolTableRecord
100
AcDbLayerTableRecord
  2
00_COMPONENTS
 70
0
 62
7
  6
CONTINUOUS
370
-3
390
F
  0
LAYER
  5
1FE
100
AcDbSymbolTableRecord
100
AcDbLayerTableRecord
  2
01_1_DEFAULT_DATUMS
 70
0
 62
7
  6
CONTINUOUS
370
-3
390
F
  0
LAYER
  5
1FF
100
AcDbSymbolTableRecord
100
AcDbLayerTableRecord
  2
01_PLANES
 70
0
 62
7
  6
CONTINUOUS
370
-3
390
F
  0
LAYER
  5
200
100
AcDbSymbolTableRecord
100
AcDbLayerTableRecord
  2
02_COORD_SYS
 70
0
 62
7
  6
CONTINUOUS
370
-3
390
F
  0
LAYER
  5
201
100
AcDbSymbolTableRecord
100
AcDbLayerTableRecord
  2
03_AXES
 70
0
 62
7
  6
CONTINUOUS
370
-3
390
F
  0
LAYER
  5
202
100
AcDbSymbolTableRecord
100
AcDbLayerTableRecord
  2
04_POINTS
 70
0
 62
7
  6
CONTINUOUS
370
-3
390
F
  0
LAYER
  5
203
100
AcDbSymbolTableRecord
100
AcDbLayerTableRecord
  2
05_CURVES
 70
0
 62
7
  6
CONTINUOUS
370
-3
390
F
  0
LAYER
  5
204
100
AcDbSymbolTableRecord
100
AcDbLayerTableRecord
  2
06_SURFS
 70
0
 62
7
  6
CONTINUOUS
370
-3
390
F
  0
LAYER
  5
205
100
AcDbSymbolTableRecord
100
AcDbLayerTableRecord
  2
07_COSMETICS
 70
0
 62
7
  6
CONTINUOUS
370
-3
390
F
  0
LAYER
  5
206
100
AcDbSymbolTableRecord
100
AcDbLayerTableRecord
  2
10_NOTES
 70
0
 62
7
  6
CONTINUOUS
370
-3
390
F
  0
LAYER
  5
207
100
AcDbSymbolTableRecord
100
AcDbLayerTableRecord
  2
11_NOTES_PUB
 70
0
 62
7
  6
CONTINUOUS
370
-3
390
F
  0
LAYER
  5
208
100
AcDbSymbolTableRecord
100
AcDbLayerTableRecord
  2
13_REF_GTOL
 70
0
 62
7
  6
CONTINUOUS
370
-3
390
F
  0
LAYER
  5
209
100
AcDbSymbolTableRecord
100
AcDbLayerTableRecord
  2
16_MISC
 70
0
 62
7
  6
CONTINUOUS
370
-3
390
F
  0
LAYER
  5
20A
100
AcDbSymbolTableRecord
100
AcDbLayerTableRecord
  2
17_NO_PRINT
 70
0
 62
7
  6
CONTINUOUS
370
-3
390
F
  0
LAYER
  5
20B
100
AcDbSymbolTableRecord
100
AcDbLayerTableRecord
  2
18_DATUM_CAMS_JOINTS
 70
0
 62
7
  6
CONTINUOUS
370
-3
390
F
  0
LAYER
  5
20C
100
AcDbSymbolTableRecord
100
AcDbLayerTableRecord
  2
19_DATUM_FUNCTIONAL
 70
0
 62
7
  6
CONTINUOUS
370
-3
390
F
  0
LAYER
  5
20D
100
AcDbSymbolTableRecord
100
AcDbLayerTableRecord
  2
20_DATUM_KINEMATIC_SCHEME
 70
0
 62
7
  6
CONTINUOUS
370
-3
390
F
  0
ENDTAB
  0
TABLE
  2
STYLE
  5
3
100
AcDbSymbolTable
 70
1
  0
STYLE
  5
11
100
AcDbSymbolTableRecord
100
AcDbTextStyleTableRecord
  2
STANDARD
 70
0
 40
0.0
 41
0.8
 50
0.0
 71
0
 42
0.2
  3
txt
  4

  0
STYLE
  5
20E
100
AcDbSymbolTableRecord
100
AcDbTextStyleTableRecord
  2
TEXTSTYLE_1
 70
0
 40
0.0
 41
0.8
 50
0.0
 71
0
 42
0.2
  3
gdt
  4

  0
ENDTAB
  0
TABLE
  2
VIEW
  5
6
100
AcDbSymbolTable
 70
0
  0
ENDTAB
  0
TABLE
  2
UCS
  5
7
100
AcDbSymbolTable
 70
0
  0
ENDTAB
  0
TABLE
  2
APPID
  5
9
100
AcDbSymbolTable
 70
1
  0
APPID
  5
20F
100
AcDbSymbolTableRecord
100
AcDbRegAppTableRecord
  2
ACAD
 70
0
  0
ENDTAB
  0
TABLE
  2
BLOCK_RECORD
  5
1
100
AcDbSymbolTable
 70
0
  0
BLOCK_RECORD
  5
210
100
AcDbSymbolTableRecord
100
AcDbBlockTableRecord
  2
*Model_Space
  0
BLOCK_RECORD
  5
211
100
AcDbSymbolTableRecord
100
AcDbBlockTableRecord
  2
*Paper_Space
  0
BLOCK_RECORD
  5
212
100
AcDbSymbolTableRecord
100
AcDbBlockTableRecord
  2
_FILLED
  0
ENDTAB
  0
TABLE
  2
DIMSTYLE
  5
A
100
AcDbSymbolTable
 70
1
100
AcDbDimStyleTable
 71
0
  0
DIMSTYLE
105
213
100
AcDbSymbolTableRecord
100
AcDbDimStyleTableRecord
  2
STANDARD
 70
0
  3

  4

 40
1.0
 41
2.5355230612
 42
1.0
 43
0.38
 44
1.0
 45
0.0
 46
0.0
 47
0.01
 48
0.01
140
3.5497322856
141
0.09
142
0.0
143
25.4
144
1.0
145
0.0
146
1.0
147
0.625
 71
1
 72
0
 73
0
 74
0
 75
0
 76
0
 77
1
 78
8
 79
2
170
0
171
1
172
0
173
0
174
0
175
0
176
0
177
0
178
0
270
2
179
2
271
2
272
2
273
2
274
2
275
0
280
0
281
0
282
0
283
1
284
8
285
0
286
0
287
3
288
0
340
11
278
46
341
212
342
212
343
212
344
212
  0
ENDTAB
  0
ENDSEC
  0
SECTION
  2
BLOCKS
  0
BLOCK
  5
20
100
AcDbEntity
  8
0
100
AcDbBlockBegin
  2
*Model_Space
 70
0
 10
0.0
 20
0.0
 30
0.0
  3
*Model_Space
  1

  0
ENDBLK
  5
21
100
AcDbEntity
  8
0
100
AcDbBlockEnd
  0
BLOCK
  5
1C
100
AcDbEntity
  8
0
100
AcDbBlockBegin
  2
*Paper_Space
 70
0
 10
0.0
 20
0.0
 30
0.0
  3
*Paper_Space
  1

  0
ENDBLK
  5
1D
100
AcDbEntity
  8
0
100
AcDbBlockEnd
  0
BLOCK
  5
214
100
AcDbEntity
  8
0
100
AcDbBlockBegin
  2
_FILLED
 70
64
 10
0.0
 20
0.0
  3
_FILLED
  1

  0
SOLID
  5
215
100
AcDbEntity
  8
0
  6
BYBLOCK
 62
0
100
AcDbTrace
 10
0.0
 20
0.0
 11
-1.0
 21
0.25
 12
-1.0
 22
-0.25
 13
-1.0
 23
-0.25
  0
ENDBLK
  5
216
100
AcDbEntity
  8
0
  6
BYBLOCK
 62
0
100
AcDbBlockEnd
  0
ENDSEC
  0
SECTION
  2
ENTITIES
  0
LINE
  5
217
100
AcDbEntity
  8
0
100
AcDbLine
 62
7
  6
CONTINUOUS
 10
28.0648715033
 20
211.6843500144
 11
27.3929004349
 21
207.1732894121
  0
LINE
  5
218
100
AcDbEntity
  8
0
100
AcDbLine
 62
7
  6
CONTINUOUS
 10
28.0648715033
 20
211.6843500144
 11
46.7073308555
 21
222.4475146923
  0
LINE
  5
219
100
AcDbEntity
  8
0
100
AcDbLine
 62
7
  6
CONTINUOUS
 10
55.3547206366
 20
227.4400577087
 11
63.696786508
 21
232.2563229359
  0
LINE
  5
21A
100
AcDbEntity
  8
0
100
AcDbLine
 62
7
  6
CONTINUOUS
 10
67.0317353484
 20
234.1817450535
 11
68.511210992
 21
235.0359156158
  0
LINE
  5
21B
100
AcDbEntity
  8
0
100
AcDbLine
 62
7
  6
CONTINUOUS
 10
30.009206418
 20
210.5618131232
 11
32.4840698482
 21
211.9906676617
  0
LINE
  5
21C
100
AcDbEntity
  8
0
100
AcDbLine
 62
7
  6
CONTINUOUS
 10
26.9065215336
 20
207.4540940491
 11
27.4844306681
 21
207.7877480518
  0
LINE
  5
21D
100
AcDbEntity
  8
0
100
AcDbLine
 62
7
  6
CONTINUOUS
 10
30.009206418
 20
208.1123058718
 11
31.6053990237
 21
209.0338626014
  0
LINE
  5
21E
100
AcDbEntity
  8
0
100
AcDbLine
 62
7
  6
CONTINUOUS
 10
36.7267281991
 20
209.5412231346
 11
34.2518647689
 21
208.1123685961
  0
LINE
  5
21F
100
AcDbEntity
  8
0
100
AcDbLine
 62
7
  6
CONTINUOUS
 10
30.009206418
 20
210.5618131232
 11
30.009206418
 21
208.1123058718
  0
LINE
  5
220
100
AcDbEntity
  8
0
100
AcDbLine
 62
7
  6
CONTINUOUS
 10
30.009206418
 20
205.6627986204
 11
30.009206418
 21
137.7297975152
  0
LINE
  5
221
100
AcDbEntity
  8
0
100
AcDbLine
 62
7
  6
CONTINUOUS
 10
45.1421372537
 20
217.2360927021
 11
42.8858401881
 21
212.3744367376
  0
LINE
  5
222
100
AcDbEntity
  8
0
100
AcDbLine
 62
7
  6
CONTINUOUS
 10
34.9236307836
 20
203.2338116025
 11
36.3378384581
 21
204.0502999103
  0
LINE
  5
223
100
AcDbEntity
  8
0
100
AcDbLine
 62
7
  6
CONTINUOUS
 10
31.6053990237
 20
209.6228420142
 11
31.6053990237
 21
208.3164381468
  0
LINE
  5
224
100
AcDbEntity
  8
0
100
AcDbLine
 62
7
  6
CONTINUOUS
 10
32.4840698482
 20
211.9906676617
 11
32.4840698482
 21
210.8475642778
  0
LINE
  5
225
100
AcDbEntity
  8
0
100
AcDbLine
 62
7
  6
CONTINUOUS
 10
34.2518647689
 20
208.1123685961
 11
34.2518647689
 21
205.6628613447
  0
LINE
  5
226
100
AcDbEntity
  8
0
100
AcDbLine
 62
7
  6
CONTINUOUS
 10
34.9236307836
 20
203.2338116025
 11
34.9236307836
 21
182.5763004492
  0
LINE
  5
227
100
AcDbEntity
  8
0
100
AcDbLine
 62
7
  6
CONTINUOUS
 10
62.1126293468
 20
227.033952395
 11
59.8563322812
 21
222.1722964305
  0
LINE
  5
228
100
AcDbEntity
  8
0
100
AcDbLine
 62
7
  6
CONTINUOUS
 10
73.8498474589
 20
217.9105015378
 11
64.6574975752
 21
212.6033275375
  0
LINE
  5
229
100
AcDbEntity
  8
0
100
AcDbLine
 62
7
  6
CONTINUOUS
 10
40.7926238385
 20
190.1754343218
 11
40.7926238385
 21
191.9961200513
  0
LINE
  5
22A
100
AcDbEntity
  8
0
100
AcDbLine
 62
7
  6
CONTINUOUS
 10
42.8858401881
 20
212.3744367376
 11
42.8858401881
 21
209.9249294862
  0
LINE
  5
22B
100
AcDbEntity
  8
0
100
AcDbLine
 62
7
  6
CONTINUOUS
 10
43.2611764867
 20
209.1162171911
 11
43.2611764867
 21
211.5657244425
  0
LINE
  5
22C
100
AcDbEntity
  8
0
100
AcDbLine
 62
7
  6
CONTINUOUS
 10
45.2073308555
 20
213.4604416338
 11
45.2073308555
 21
215.9099488852
  0
LINE
  5
22D
100
AcDbEntity
  8
0
100
AcDbLine
 62
7
  6
CONTINUOUS
 10
60.2725244573
 20
209.6847905655
 11
62.5288215229
 21
214.54644653
  0
LINE
  5
22E
100
AcDbEntity
  8
0
100
AcDbLine
 62
7
  6
CONTINUOUS
 10
62.5288215229
 20
212.0969392786
 11
60.2725244573
 21
207.2352833141
  0
LINE
  5
22F
100
AcDbEntity
  8
0
100
AcDbLine
 62
7
  6
CONTINUOUS
 10
46.6253941283
 20
183.3435968189
 11
48.8651061456
 21
185.3800825863
  0
LINE
  5
230
100
AcDbEntity
  8
0
100
AcDbLine
 62
7
  6
CONTINUOUS
 10
64.6575064071
 20
206.4795292347
 11
61.8290675065
 21
204.8465390217
  0
LINE
  5
231
100
AcDbEntity
  8
0
100
AcDbLine
 62
7
  6
CONTINUOUS
 10
41.444895472
 20
192.3727070065
 11
40.7926238385
 21
191.9961200513
  0
LINE
  5
232
100
AcDbEntity
  8
0
100
AcDbLine
 62
7
  6
CONTINUOUS
 10
39.1462141506
 20
189.2248849192
 11
42.328181418
 21
191.0619836117
  0
LINE
  5
233
100
AcDbEntity
  8
0
100
AcDbLine
 62
7
  6
CONTINUOUS
 10
37.9820053569
 20
187.9753832634
 11
39.3962130314
 21
188.7918715712
  0
LINE
  5
234
100
AcDbEntity
  8
0
100
AcDbLine
 62
7
  6
CONTINUOUS
 10
76.6783629027
 20
205.6632347107
 11
85.8707127864
 21
210.970408711
  0
LINE
  5
235
100
AcDbEntity
  8
0
100
AcDbLine
 62
7
  6
CONTINUOUS
 10
48.6509779644
 20
188.3682327613
 11
47.86372109
 21
187.9137125061
  0
LINE
  5
236
100
AcDbEntity
  8
0
100
AcDbLine
 62
7
  6
CONTINUOUS
 10
130.4963654538
 20
86.989454603
 11
119.7412802638
 21
85.924069802
  0
LINE
  5
237
100
AcDbEntity
  8
0
100
AcDbLine
 62
7
  6
CONTINUOUS
 10
46.7073308555
 20
215.9099488852
 11
46.7073308555
 21
224.0749730565
  0
LINE
  5
238
100
AcDbEntity
  8
0
100
AcDbLine
 62
7
  6
CONTINUOUS
 10
47.4573308555
 20
224.0749730565
 11
47.4573308555
 21
224.8914754736
  0
LINE
  5
239
100
AcDbEntity
  8
0
100
AcDbLine
 62
7
  6
CONTINUOUS
 10
47.86372109
 20
187.9137125061
 11
47.86372109
 21
184.4695608774
  0
LINE
  5
23A
100
AcDbEntity
  8
0
100
AcDbLine
 62
7
  6
CONTINUOUS
 10
49.2779287644
 20
185.738609205
 11
49.2779287644
 21
188.0062707368
  0
LINE
  5
23B
100
AcDbEntity
  8
0
100
AcDbLine
 62
7
  6
CONTINUOUS
 10
49.4256161545
 20
208.0067640554
 11
49.4256161545
 21
205.557256804
  0
LINE
  5
23C
100
AcDbEntity
  8
0
100
AcDbLine
 62
7
  6
CONTINUOUS
 10
50.8263700885
 20
205.3405661228
 11
50.8263700885
 21
207.7900733742
  0
LINE
  5
23D
100
AcDbEntity
  8
0
100
AcDbLine
 62
7
  6
CONTINUOUS
 10
77.2430165505
 20
219.4826502584
 11
79.4993136161
 21
224.3443062229
  0
LINE
  5
23E
100
AcDbEntity
  8
0
100
AcDbLine
 62
7
  6
CONTINUOUS
 10
79.4993136161
 20
221.8947989715
 11
77.2953868952
 21
217.145985683
  0
LINE
  5
23F
100
AcDbEntity
  8
0
100
AcDbLine
 62
7
  6
CONTINUOUS
 10
56.1713754178
 20
177.8323466328
 11
58.4110874351
 21
179.8688324003
  0
LINE
  5
240
100
AcDbEntity
  8
0
100
AcDbLine
 62
7
  6
CONTINUOUS
 10
41.4819896878
 20
181.9131963904
 11
42.8961973623
 21
182.7296846982
  0
LINE
  5
241
100
AcDbEntity
  8
0
100
AcDbLine
 62
7
  6
CONTINUOUS
 10
51.1258620024
 20
186.9393901205
 11
49.8468654684
 21
186.2009655351
  0
LINE
  5
242
100
AcDbEntity
  8
0
100
AcDbLine
 62
7
  6
CONTINUOUS
 10
43.1461962431
 20
182.2966713501
 11
46.3281635105
 21
184.1337700425
  0
LINE
  5
243
100
AcDbEntity
  8
0
100
AcDbLine
 62
7
  6
CONTINUOUS
 10
42.2068609526
 20
180.6576274456
 11
45.7423801387
 21
182.6988482149
  0
LINE
  5
244
100
AcDbEntity
  8
0
100
AcDbLine
 62
7
  6
CONTINUOUS
 10
48.1315374458
 20
182.2352418063
 11
48.6046019886
 21
182.5083641171
  0
LINE
  5
245
100
AcDbEntity
  8
0
100
AcDbLine
 62
7
  6
CONTINUOUS
 10
76.6783629027
 20
197.4982105394
 11
85.8707127864
 21
202.8053845397
  0
LINE
  5
246
100
AcDbEntity
  8
0
100
AcDbLine
 62
7
  6
CONTINUOUS
 10
77.3854814597
 20
195.8652424223
 11
88.6991428551
 21
202.3971488842
  0
LINE
  5
247
100
AcDbEntity
  8
0
100
AcDbLine
 62
7
  6
CONTINUOUS
 10
57.9573308555
 20
224.0749730565
 11
57.9573308555
 21
224.8914754736
  0
LINE
  5
248
100
AcDbEntity
  8
0
100
AcDbLine
 62
7
  6
CONTINUOUS
 10
58.7073308555
 20
215.9099488852
 11
58.7073308555
 21
224.0749730565
  0
LINE
  5
249
100
AcDbEntity
  8
0
100
AcDbLine
 62
7
  6
CONTINUOUS
 10
58.8239100539
 20
180.227359019
 11
58.8239100539
 21
182.4950205508
  0
LINE
  5
24A
100
AcDbEntity
  8
0
100
AcDbLine
 62
7
  6
CONTINUOUS
 10
59.2471068219
 20
209.0927689515
 11
59.2471068219
 21
206.6432617002
  0
LINE
  5
24B
100
AcDbEntity
  8
0
100
AcDbLine
 62
7
  6
CONTINUOUS
 10
59.8563322812
 20
222.1722964305
 11
59.8563322812
 21
219.7227891791
  0
LINE
  5
24C
100
AcDbEntity
  8
0
100
AcDbLine
 62
7
  6
CONTINUOUS
 10
60.2073308555
 20
213.4604416338
 11
60.2073308555
 21
215.9099488852
  0
LINE
  5
24D
100
AcDbEntity
  8
0
100
AcDbLine
 62
7
  6
CONTINUOUS
 10
60.2316685798
 20
218.9140768841
 11
60.2316685798
 21
221.3635841354
  0
LINE
  5
24E
100
AcDbEntity
  8
0
100
AcDbLine
 62
7
  6
CONTINUOUS
 10
60.2725244573
 20
207.2352833141
 11
60.2725244573
 21
209.6847905655
  0
LINE
  5
24F
100
AcDbEntity
  8
0
100
AcDbLine
 62
7
  6
CONTINUOUS
 10
61.8290675065
 20
204.8465390217
 11
61.8290675065
 21
202.8052829789
  0
LINE
  5
250
100
AcDbEntity
  8
0
100
AcDbLine
 62
7
  6
CONTINUOUS
 10
58.1969592538
 20
182.8569825753
 11
56.9179627199
 21
182.1185579899
  0
LINE
  5
251
100
AcDbEntity
  8
0
100
AcDbLine
 62
7
  6
CONTINUOUS
 10
77.3854814597
 20
193.8239863794
 11
88.6991428551
 21
200.3558928414
  0
LINE
  5
252
100
AcDbEntity
  8
0
100
AcDbLine
 62
7
  6
CONTINUOUS
 10
51.1315240152
 20
177.0390816294
 11
51.6468669151
 21
177.3366132154
  0
LINE
  5
253
100
AcDbEntity
  8
0
100
AcDbLine
 62
7
  6
CONTINUOUS
 10
60.6718432919
 20
181.4281399345
 11
59.3928467579
 21
180.6897153491
  0
LINE
  5
254
100
AcDbEntity
  8
0
100
AcDbLine
 62
7
  6
CONTINUOUS
 10
71.7286802017
 20
186.4756086065
 11
74.2035436319
 21
187.904463145
  0
LINE
  5
255
100
AcDbEntity
  8
0
100
AcDbLine
 62
7
  6
CONTINUOUS
 10
109.70015626
 20
208.3983196694
 11
112.1750196903
 21
209.8271742079
  0
LINE
  5
256
100
AcDbEntity
  8
0
100
AcDbLine
 62
7
  6
CONTINUOUS
 10
68.5820537006
 20
183.8015516874
 11
69.996261375
 21
184.6180399951
  0
LINE
  5
257
100
AcDbEntity
  8
0
100
AcDbLine
 62
7
  6
CONTINUOUS
 10
57.6775187353
 20
176.7239916202
 11
58.1505832781
 21
176.9971139311
  0
LINE
  5
258
100
AcDbEntity
  8
0
100
AcDbLine
 62
7
  6
CONTINUOUS
 10
71.7286802017
 20
184.0261013551
 11
73.3248728073
 21
184.9476580847
  0
LINE
  5
259
100
AcDbEntity
  8
0
100
AcDbLine
 62
7
  6
CONTINUOUS
 10
27.4386005391
 20
138.19926644
 11
63.5111455995
 21
117.3732439866
  0
LINE
  5
25A
100
AcDbEntity
  8
0
100
AcDbLine
 62
7
  6
CONTINUOUS
 10
152.1726639393
 20
67.1422303611
 11
148.0714275334
 21
69.5100267373
  0
LINE
  5
25B
100
AcDbEntity
  8
0
100
AcDbLine
 62
7
  6
CONTINUOUS
 10
26.6094904814
 20
139.6925800223
 11
119.7412802638
 21
85.924069802
  0
LINE
  5
25C
100
AcDbEntity
  8
0
100
AcDbLine
 62
7
  6
CONTINUOUS
 10
151.1371023357
 20
69.4311611002
 11
147.0358659298
 21
71.7989574764
  0
LINE
  5
25D
100
AcDbEntity
  8
0
100
AcDbLine
 62
7
  6
CONTINUOUS
 10
62.1778229486
 20
223.2583013267
 11
62.1778229486
 21
225.2995573695
  0
LINE
  5
25E
100
AcDbEntity
  8
0
100
AcDbLine
 62
7
  6
CONTINUOUS
 10
62.5288215229
 20
214.54644653
 11
62.5288215229
 21
212.0969392786
  0
LINE
  5
25F
100
AcDbEntity
  8
0
100
AcDbLine
 62
7
  6
CONTINUOUS
 10
62.7942880767
 20
198.5202732376
 11
62.7942880767
 21
196.4790171948
  0
LINE
  5
260
100
AcDbEntity
  8
0
100
AcDbLine
 62
7
  6
CONTINUOUS
 10
62.8898086373
 20
162.5111738043
 11
62.8898086373
 21
118.74660243
  0
LINE
  5
261
100
AcDbEntity
  8
0
100
AcDbLine
 62
7
  6
CONTINUOUS
 10
62.9278229486
 20
225.2995573695
 11
62.9278229486
 21
230.6068230809
  0
LINE
  5
262
100
AcDbEntity
  8
0
100
AcDbLine
 62
7
  6
CONTINUOUS
 10
63.7788591342
 20
200.0293179739
 11
63.7788591342
 21
198.7229141065
  0
LINE
  5
263
100
AcDbEntity
  8
0
100
AcDbLine
 62
7
  6
CONTINUOUS
 10
64.6574975752
 20
212.6033275375
 11
64.6575064071
 21
203.2135760036
  0
LINE
  5
264
100
AcDbEntity
  8
0
100
AcDbLine
 62
7
  6
CONTINUOUS
 10
65.6778229486
 20
230.6068230809
 11
65.6778229486
 21
232.2398279151
  0
LINE
  5
265
100
AcDbEntity
  8
0
100
AcDbLine
 62
7
  6
CONTINUOUS
 10
66.2097820085
 20
219.4189685877
 11
66.2097820085
 21
221.4602246305
  0
LINE
  5
266
100
AcDbEntity
  8
0
100
AcDbLine
 62
7
  6
CONTINUOUS
 10
66.3961082476
 20
217.8046237483
 11
66.3961082476
 21
215.3551164969
  0
LINE
  5
267
100
AcDbEntity
  8
0
100
AcDbLine
 62
7
  6
CONTINUOUS
 10
66.4279030147
 20
194.3811960913
 11
66.4279030147
 21
196.4224521341
  0
LINE
  5
268
100
AcDbEntity
  8
0
100
AcDbLine
 62
7
  6
CONTINUOUS
 10
67.7968621816
 20
215.1384258158
 11
67.7968621816
 21
217.5879330672
  0
LINE
  5
269
100
AcDbEntity
  8
0
100
AcDbLine
 62
7
  6
CONTINUOUS
 10
68.520266945
 20
221.4602301842
 11
68.520266945
 21
226.7674958956
  0
LINE
  5
26A
100
AcDbEntity
  8
0
100
AcDbLine
 62
7
  6
CONTINUOUS
 10
68.5820537006
 20
163.144040534
 11
68.5820537006
 21
183.8015516874
  0
LINE
  5
26B
100
AcDbEntity
  8
0
100
AcDbLine
 62
7
  6
CONTINUOUS
 10
62.8898086373
 20
160.5515261871
 11
63.7383622131
 21
162.021272252
  0
LINE
  5
26C
100
AcDbEntity
  8
0
100
AcDbLine
 62
7
  6
CONTINUOUS
 10
80.921068357
 20
186.4756307023
 11
112.1750579619
 21
204.5200223034
  0
LINE
  5
26D
100
AcDbEntity
  8
0
100
AcDbLine
 62
7
  6
CONTINUOUS
 10
78.4462049268
 20
182.5972689123
 11
80.921068357
 21
184.0261234509
  0
LINE
  5
26E
100
AcDbEntity
  8
0
100
AcDbLine
 62
7
  6
CONTINUOUS
 10
112.1750579619
 20
202.070515052
 11
114.6499213921
 21
203.4993695906
  0
LINE
  5
26F
100
AcDbEntity
  8
0
100
AcDbLine
 62
7
  6
CONTINUOUS
 10
79.7189918337
 20
182.9238571807
 11
113.3771344851
 21
202.356278905
  0
LINE
  5
270
100
AcDbEntity
  8
0
100
AcDbLine
 62
7
  6
CONTINUOUS
 10
60.6775053046
 20
171.5278314434
 11
61.1928482046
 21
171.8253630294
  0
LINE
  5
271
100
AcDbEntity
  8
0
100
AcDbLine
 62
7
  6
CONTINUOUS
 10
114.7913539354
 20
201.539797396
 11
81.133211284
 21
182.1073756717
  0
LINE
  5
272
100
AcDbEntity
  8
0
100
AcDbLine
 62
7
  6
CONTINUOUS
 10
79.7189918337
 20
180.8826011379
 11
78.4462049268
 21
180.147761661
  0
LINE
  5
273
100
AcDbEntity
  8
0
100
AcDbLine
 62
7
  6
CONTINUOUS
 10
61.945143567
 20
170.0082778925
 11
61.2988235316
 21
169.6351270735
  0
LINE
  5
274
100
AcDbEntity
  8
0
100
AcDbLine
 62
7
  6
CONTINUOUS
 10
51.3383063461
 20
175.1805446794
 11
52.6587791196
 21
175.6024854312
  0
LINE
  5
275
100
AcDbEntity
  8
0
100
AcDbLine
 62
7
  6
CONTINUOUS
 10
130.4963654538
 20
86.989454603
 11
122.0748926321
 21
91.8517332208
  0
LINE
  5
276
100
AcDbEntity
  8
0
100
AcDbLine
 62
7
  6
CONTINUOUS
 10
122.903341915
 20
91.400632307
 11
147.0358659298
 21
77.4680282685
  0
LINE
  5
277
100
AcDbEntity
  8
0
100
AcDbLine
 62
7
  6
CONTINUOUS
 10
147.0358659298
 20
78.8208782637
 11
122.0748926321
 21
93.2317768983
  0
LINE
  5
278
100
AcDbEntity
  8
0
100
AcDbLine
 62
7
  6
CONTINUOUS
 10
69.7788591342
 20
200.0293179739
 11
69.7788591342
 21
198.7229141065
  0
LINE
  5
279
100
AcDbEntity
  8
0
100
AcDbLine
 62
7
  6
CONTINUOUS
 10
69.996261375
 20
184.6180399951
 11
69.996261375
 21
163.9605288417
  0
LINE
  5
27A
100
AcDbEntity
  8
0
100
AcDbLine
 62
7
  6
CONTINUOUS
 10
70.8354343255
 20
226.7675014605
 11
70.8354343255
 21
221.4602357492
  0
LINE
  5
27B
100
AcDbEntity
  8
0
100
AcDbLine
 62
7
  6
CONTINUOUS
 10
71.7286802017
 20
186.4756086065
 11
71.7286802017
 21
184.0261013551
  0
LINE
  5
27C
100
AcDbEntity
  8
0
100
AcDbLine
 62
7
  6
CONTINUOUS
 10
73.145919262
 20
221.4602413029
 11
73.145919262
 21
219.4189852601
  0
LINE
  5
27D
100
AcDbEntity
  8
0
100
AcDbLine
 62
7
  6
CONTINUOUS
 10
73.3248728073
 20
185.5366374975
 11
73.3248728073
 21
184.2302336301
  0
LINE
  5
27E
100
AcDbEntity
  8
0
100
AcDbLine
 62
7
  6
CONTINUOUS
 10
73.6778229486
 20
230.6068230809
 11
73.6778229486
 21
232.2398279151
  0
LINE
  5
27F
100
AcDbEntity
  8
0
100
AcDbLine
 62
7
  6
CONTINUOUS
 10
74.2035436319
 20
187.904463145
 11
74.2035436319
 21
186.7613597611
  0
LINE
  5
280
100
AcDbEntity
  8
0
100
AcDbLine
 62
7
  6
CONTINUOUS
 10
74.2035642397
 20
182.5972587143
 11
74.2035642397
 21
157.0407330581
  0
LINE
  5
281
100
AcDbEntity
  8
0
100
AcDbLine
 62
7
  6
CONTINUOUS
 10
74.5570425591
 20
205.6632296116
 11
74.5570425591
 21
197.4982054403
  0
LINE
  5
282
100
AcDbEntity
  8
0
100
AcDbLine
 62
7
  6
CONTINUOUS
 10
76.2175989151
 20
218.8906286445
 11
76.2175989151
 21
217.7682327863
  0
LINE
  5
283
100
AcDbEntity
  8
0
100
AcDbLine
 62
7
  6
CONTINUOUS
 10
76.4278229486
 20
225.2995573695
 11
76.4278229486
 21
230.6068230809
  0
LINE
  5
284
100
AcDbEntity
  8
0
100
AcDbLine
 62
7
  6
CONTINUOUS
 10
76.6783629027
 20
205.6632347107
 11
76.6783629027
 21
197.4982105394
  0
LINE
  5
285
100
AcDbEntity
  8
0
100
AcDbLine
 62
7
  6
CONTINUOUS
 10
77.1778229486
 20
223.2583013267
 11
77.1778229486
 21
225.2995573695
  0
LINE
  5
286
100
AcDbEntity
  8
0
100
AcDbLine
 62
7
  6
CONTINUOUS
 10
77.2430165505
 20
217.1762210316
 11
77.2430165505
 21
219.4826502584
  0
LINE
  5
287
100
AcDbEntity
  8
0
100
AcDbLine
 62
7
  6
CONTINUOUS
 10
77.3854814597
 20
195.8652424223
 11
77.3854814597
 21
193.8239863794
  0
LINE
  5
288
100
AcDbEntity
  8
0
100
AcDbLine
 62
7
  6
CONTINUOUS
 10
107.5081844121
 20
190.3946120655
 11
88.4163808073
 21
179.372019911
  0
LINE
  5
289
100
AcDbEntity
  8
0
100
AcDbLine
 62
7
  6
CONTINUOUS
 10
60.8842876356
 20
169.6692944934
 11
62.204760409
 21
170.0912352452
  0
LINE
  5
28A
100
AcDbEntity
  8
0
100
AcDbLine
 62
7
  6
CONTINUOUS
 10
158.8604841678
 20
78.725643403
 11
159.9918597281
 21
78.0724581957
  0
LINE
  5
28B
100
AcDbEntity
  8
0
100
AcDbLine
 62
7
  6
CONTINUOUS
 10
62.7942880767
 20
196.4790171948
 11
61.8290675065
 21
202.8052829789
  0
LINE
  5
28C
100
AcDbEntity
  8
0
100
AcDbLine
 62
7
  6
CONTINUOUS
 10
61.8290675065
 20
204.8465390217
 11
62.7942880767
 21
198.5202732376
  0
LINE
  5
28D
100
AcDbEntity
  8
0
100
AcDbLine
 62
7
  6
CONTINUOUS
 10
78.446184319
 20
186.7613699591
 11
78.446184319
 21
187.9044733431
  0
LINE
  5
28E
100
AcDbEntity
  8
0
100
AcDbLine
 62
7
  6
CONTINUOUS
 10
78.4462049268
 20
157.0407432562
 11
78.4462049268
 21
182.5972689123
  0
LINE
  5
28F
100
AcDbEntity
  8
0
100
AcDbLine
 62
7
  6
CONTINUOUS
 10
79.3248728073
 20
185.5366374975
 11
79.3248728073
 21
184.2302336301
  0
LINE
  5
290
100
AcDbEntity
  8
0
100
AcDbLine
 62
7
  6
CONTINUOUS
 10
79.4856369692
 20
163.6012982917
 11
79.4856369692
 21
180.7478744483
  0
LINE
  5
291
100
AcDbEntity
  8
0
100
AcDbLine
 62
7
  6
CONTINUOUS
 10
79.4993136161
 20
224.3443062229
 11
79.4993136161
 21
221.8947989715
  0
LINE
  5
292
100
AcDbEntity
  8
0
100
AcDbLine
 62
7
  6
CONTINUOUS
 10
79.7189918337
 20
162.2663460274
 11
79.7189918337
 21
182.9238571807
  0
LINE
  5
293
100
AcDbEntity
  8
0
100
AcDbLine
 62
7
  6
CONTINUOUS
 10
80.921068357
 20
186.4756307023
 11
80.921068357
 21
184.0261234509
  0
LINE
  5
294
100
AcDbEntity
  8
0
100
AcDbLine
 62
7
  6
CONTINUOUS
 10
81.133211284
 20
182.1073756717
 11
81.133211284
 21
161.4498645183
  0
LINE
  5
295
100
AcDbEntity
  8
0
100
AcDbLine
 62
7
  6
CONTINUOUS
 10
86.2950516319
 20
170.1671463514
 11
86.3473767976
 21
170.232239958
  0
LINE
  5
296
100
AcDbEntity
  8
0
100
AcDbLine
 62
7
  6
CONTINUOUS
 10
69.996261375
 20
163.9605288417
 11
68.5820537006
 21
163.144040534
  0
LINE
  5
297
100
AcDbEntity
  8
0
100
AcDbLine
 62
7
  6
CONTINUOUS
 10
69.0021239498
 20
161.7631563219
 11
67.5879162754
 21
160.9466680142
  0
LINE
  5
298
100
AcDbEntity
  8
0
100
AcDbLine
 62
7
  6
CONTINUOUS
 10
93.9158819188
 20
175.1985471043
 11
93.0688525498
 21
174.7095173891
  0
LINE
  5
299
100
AcDbEntity
  8
0
100
AcDbLine
 62
7
  6
CONTINUOUS
 10
85.3477544488
 20
170.2517659312
 11
84.8808321816
 21
169.9821898438
  0
LINE
  5
29A
100
AcDbEntity
  8
0
100
AcDbLine
 62
7
  6
CONTINUOUS
 10
88.4163808073
 20
167.9409860712
 11
98.1480810246
 21
173.559552273
  0
LINE
  5
29B
100
AcDbEntity
  8
0
100
AcDbLine
 62
7
  6
CONTINUOUS
 10
102.6642460959
 20
176.1669458285
 11
107.5081844121
 21
178.9635782257
  0
LINE
  5
29C
100
AcDbEntity
  8
0
100
AcDbLine
 62
7
  6
CONTINUOUS
 10
44.2758576968
 20
182.9488778014
 11
44.3281724643
 21
182.8837979239
  0
LINE
  5
29D
100
AcDbEntity
  8
0
100
AcDbLine
 62
7
  6
CONTINUOUS
 10
47.86372109
 20
187.9137125061
 11
46.5001757478
 21
189.6099709081
  0
LINE
  5
29E
100
AcDbEntity
  8
0
100
AcDbLine
 62
7
  6
CONTINUOUS
 10
85.8707127864
 20
202.8053845397
 11
85.8707039545
 21
212.1951360736
  0
LINE
  5
29F
100
AcDbEntity
  8
0
100
AcDbLine
 62
7
  6
CONTINUOUS
 10
86.5779844297
 20
146.8754609106
 11
86.5779844297
 21
105.0705371536
  0
LINE
  5
2A0
100
AcDbEntity
  8
0
100
AcDbLine
 62
7
  6
CONTINUOUS
 10
86.7493512274
 20
209.8271776668
 11
86.7493512274
 21
208.5207737994
  0
LINE
  5
2A1
100
AcDbEntity
  8
0
100
AcDbLine
 62
7
  6
CONTINUOUS
 10
88.6991428551
 20
202.3971488842
 11
88.6991428551
 21
200.3558928414
  0
LINE
  5
2A2
100
AcDbEntity
  8
0
100
AcDbLine
 62
7
  6
CONTINUOUS
 10
89.830570818
 20
179.2794854756
 11
89.830570818
 21
177.4588145102
  0
LINE
  5
2A3
100
AcDbEntity
  8
0
100
AcDbLine
 62
7
  6
CONTINUOUS
 10
90.8912147979
 20
180.8008574526
 11
90.8912147979
 21
176.846465276
  0
LINE
  5
2A4
100
AcDbEntity
  8
0
100
AcDbLine
 62
7
  6
CONTINUOUS
 10
88.6992959414
 20
150.5497006236
 11
86.5779844297
 21
146.8754609106
  0
LINE
  5
2A5
100
AcDbEntity
  8
0
100
AcDbLine
 62
7
  6
CONTINUOUS
 10
114.6499213921
 20
177.9428439344
 11
113.6851869198
 21
177.3858575519
  0
LINE
  5
2A6
100
AcDbEntity
  8
0
100
AcDbLine
 62
7
  6
CONTINUOUS
 10
82.2393573867
 20
159.2307077777
 11
78.4462049268
 21
157.0407432562
  0
LINE
  5
2A7
100
AcDbEntity
  8
0
100
AcDbLine
 62
7
  6
CONTINUOUS
 10
84.5273097027
 20
159.4902248547
 11
111.3972555168
 21
175.0035027018
  0
LINE
  5
2A8
100
AcDbEntity
  8
0
100
AcDbLine
 62
7
  6
CONTINUOUS
 10
119.7412802638
 20
132.6280080618
 11
130.4963654538
 21
133.6933928628
  0
LINE
  5
2A9
100
AcDbEntity
  8
0
100
AcDbLine
 62
7
  6
CONTINUOUS
 10
122.0748926321
 20
117.7268494122
 11
147.0358659298
 21
103.3159507776
  0
LINE
  5
2AA
100
AcDbEntity
  8
0
100
AcDbLine
 62
7
  6
CONTINUOUS
 10
170.241685816
 20
95.8260793803
 11
183.2525047587
 21
88.3144494971
  0
LINE
  5
2AB
100
AcDbEntity
  8
0
100
AcDbLine
 62
7
  6
CONTINUOUS
 10
147.0358659298
 20
109.8478864824
 11
124.903307981
 21
122.6258356962
  0
LINE
  5
2AC
100
AcDbEntity
  8
0
100
AcDbLine
 62
7
  6
CONTINUOUS
 10
147.0358659298
 20
110.3378715649
 11
151.1371023357
 21
107.9700751887
  0
LINE
  5
2AD
100
AcDbEntity
  8
0
100
AcDbLine
 62
7
  6
CONTINUOUS
 10
125.6104118182
 20
123.03407985
 11
147.0828222612
 21
110.6372583542
  0
LINE
  5
2AE
100
AcDbEntity
  8
0
100
AcDbLine
 62
7
  6
CONTINUOUS
 10
93.6490816812
 20
142.7930533654
 11
93.6490816812
 21
100.9881296084
  0
LINE
  5
2AF
100
AcDbEntity
  8
0
100
AcDbLine
 62
7
  6
CONTINUOUS
 10
99.9018782992
 20
211.5826581554
 11
99.9018782992
 21
208.7248996954
  0
LINE
  5
2B0
100
AcDbEntity
  8
0
100
AcDbLine
 62
7
  6
CONTINUOUS
 10
100.4371166003
 20
186.3121535299
 11
100.4371166003
 21
184.0444690038
  0
LINE
  5
2B1
100
AcDbEntity
  8
0
100
AcDbLine
 62
7
  6
CONTINUOUS
 10
95.7703931929
 20
146.4672930784
 11
93.6490816812
 21
142.7930533654
  0
LINE
  5
2B2
100
AcDbEntity
  8
0
100
AcDbLine
 62
7
  6
CONTINUOUS
 10
124.9030124067
 20
171.4518013019
 11
88.6992959414
 21
150.5497006236
  0
LINE
  5
2B3
100
AcDbEntity
  8
0
100
AcDbLine
 62
7
  6
CONTINUOUS
 10
62.8898086373
 20
160.5515261871
 11
117.6199687521
 21
128.9537683488
  0
LINE
  5
2B4
100
AcDbEntity
  8
0
100
AcDbLine
 62
7
  6
CONTINUOUS
 10
38.3177574643
 20
176.6975332252
 11
65.1879270199
 21
161.1843845535
  0
LINE
  5
2B5
100
AcDbEntity
  8
0
100
AcDbLine
 62
7
  6
CONTINUOUS
 10
74.2035642397
 20
157.0407330581
 11
67.5504656797
 21
160.8818144058
  0
LINE
  5
2B6
100
AcDbEntity
  8
0
100
AcDbLine
 62
7
  6
CONTINUOUS
 10
77.818431133
 20
156.8316287336
 11
119.7412802638
 21
132.6280080618
  0
LINE
  5
2B7
100
AcDbEntity
  8
0
100
AcDbLine
 62
7
  6
CONTINUOUS
 10
150.3354390008
 20
116.2711277473
 11
128.8630894694
 21
128.6679140766
  0
LINE
  5
2B8
100
AcDbEntity
  8
0
100
AcDbLine
 62
7
  6
CONTINUOUS
 10
154.6726215217
 20
114.0938080437
 11
150.5713851159
 21
116.4616044199
  0
LINE
  5
2B9
100
AcDbEntity
  8
0
100
AcDbLine
 62
7
  6
CONTINUOUS
 10
128.8630894694
 20
129.4844164938
 11
150.9955749895
 21
116.7065090958
  0
LINE
  5
2BA
100
AcDbEntity
  8
0
100
AcDbLine
 62
7
  6
CONTINUOUS
 10
174.7416094644
 20
103.6203520955
 11
187.7524284071
 21
96.1087222123
  0
LINE
  5
2BB
100
AcDbEntity
  8
0
100
AcDbLine
 62
7
  6
CONTINUOUS
 10
42.2068609526
 20
180.6576274456
 11
47.0533115084
 21
177.8595912126
  0
LINE
  5
2BC
100
AcDbEntity
  8
0
100
AcDbLine
 62
7
  6
CONTINUOUS
 10
51.5670557394
 20
175.2536387203
 11
56.5992927978
 21
172.3483410266
  0
LINE
  5
2BD
100
AcDbEntity
  8
0
100
AcDbLine
 62
7
  6
CONTINUOUS
 10
61.1130370288
 20
169.7423885343
 11
61.2988235316
 21
169.6351270735
  0
LINE
  5
2BE
100
AcDbEntity
  8
0
100
AcDbLine
 62
7
  6
CONTINUOUS
 10
88.6991428551
 20
202.3971488842
 11
87.7339222849
 21
208.7234146683
  0
LINE
  5
2BF
100
AcDbEntity
  8
0
100
AcDbLine
 62
7
  6
CONTINUOUS
 10
107.9018782992
 20
211.5826581554
 11
107.9018782992
 21
208.7248996954
  0
LINE
  5
2C0
100
AcDbEntity
  8
0
100
AcDbLine
 62
7
  6
CONTINUOUS
 10
131.9741096582
 20
167.3693937567
 11
95.7703931929
 21
146.4672930784
  0
LINE
  5
2C1
100
AcDbEntity
  8
0
100
AcDbLine
 62
7
  6
CONTINUOUS
 10
80.7131309732
 20
160.0689725178
 11
82.1273504235
 21
159.2524910088
  0
LINE
  5
2C2
100
AcDbEntity
  8
0
100
AcDbLine
 62
7
  6
CONTINUOUS
 10
81.133211284
 20
161.4498645183
 11
79.7189918337
 21
162.2663460274
  0
LINE
  5
2C3
100
AcDbEntity
  8
0
100
AcDbLine
 62
7
  6
CONTINUOUS
 10
46.1313446366
 20
182.4742845377
 11
45.7423801387
 21
182.6988482149
  0
LINE
  5
2C4
100
AcDbEntity
  8
0
100
AcDbLine
 62
7
  6
CONTINUOUS
 10
156.6524781159
 20
119.9725041432
 11
131.6915048182
 21
134.3834027778
  0
LINE
  5
2C5
100
AcDbEntity
  8
0
100
AcDbLine
 62
7
  6
CONTINUOUS
 10
117.6199687521
 20
128.9537683488
 11
122.0748926321
 21
119.1068930896
  0
LINE
  5
2C6
100
AcDbEntity
  8
0
100
AcDbLine
 62
7
  6
CONTINUOUS
 10
109.70015626
 20
207.2552162854
 11
109.70015626
 21
208.3983196694
  0
LINE
  5
2C7
100
AcDbEntity
  8
0
100
AcDbLine
 62
7
  6
CONTINUOUS
 10
109.9126053596
 20
133.4035160115
 11
109.9126053596
 21
91.5985922544
  0
LINE
  5
2C8
100
AcDbEntity
  8
0
100
AcDbLine
 62
7
  6
CONTINUOUS
 10
112.1750196903
 20
209.8271742079
 11
112.1750196903
 21
207.7480639873
  0
LINE
  5
2C9
100
AcDbEntity
  8
0
100
AcDbLine
 62
7
  6
CONTINUOUS
 10
112.1750579619
 20
204.5200223034
 11
112.1750579619
 21
202.070515052
  0
LINE
  5
2CA
100
AcDbEntity
  8
0
100
AcDbLine
 62
7
  6
CONTINUOUS
 10
114.6499213921
 20
203.4993695906
 11
114.6499213921
 21
201.6214516657
  0
LINE
  5
2CB
100
AcDbEntity
  8
0
100
AcDbLine
 62
7
  6
CONTINUOUS
 10
114.6499213921
 20
179.980506616
 11
114.6499213921
 21
177.9428439344
  0
LINE
  5
2CC
100
AcDbEntity
  8
0
100
AcDbLine
 62
7
  6
CONTINUOUS
 10
114.7913539354
 20
180.8822862426
 11
114.7913539354
 21
201.539797396
  0
LINE
  5
2CD
100
AcDbEntity
  8
0
100
AcDbLine
 62
7
  6
CONTINUOUS
 10
114.8214854355
 20
206.0304940219
 11
114.8214854355
 21
204.7240901544
  0
LINE
  5
2CE
100
AcDbEntity
  8
0
100
AcDbLine
 62
7
  6
CONTINUOUS
 10
115.5285922167
 20
179.167566198
 11
115.5285922167
 21
204.7240918541
  0
LINE
  5
2CF
100
AcDbEntity
  8
0
100
AcDbLine
 62
7
  6
CONTINUOUS
 10
61.2988235316
 20
181.0661609133
 11
42.2068609526
 21
192.0886612854
  0
LINE
  5
2D0
100
AcDbEntity
  8
0
100
AcDbLine
 62
7
  6
CONTINUOUS
 10
88.4163808073
 20
167.9409860712
 11
84.8808321816
 21
169.9821898438
  0
LINE
  5
2D1
100
AcDbEntity
  8
0
100
AcDbLine
 62
7
  6
CONTINUOUS
 10
87.4770793291
 20
169.5800206525
 11
84.2950855659
 21
171.4171040479
  0
LINE
  5
2D2
100
AcDbEntity
  8
0
100
AcDbLine
 62
7
  6
CONTINUOUS
 10
89.1412945376
 20
169.1965542943
 11
87.7270750874
 21
170.0130358034
  0
LINE
  5
2D3
100
AcDbEntity
  8
0
100
AcDbLine
 62
7
  6
CONTINUOUS
 10
74.2035642397
 20
180.1477514629
 11
69.996261375
 21
182.5767839523
  0
LINE
  5
2D4
100
AcDbEntity
  8
0
100
AcDbLine
 62
7
  6
CONTINUOUS
 10
34.9236307836
 20
202.8255185779
 11
26.9065215336
 21
207.4540940491
  0
LINE
  5
2D5
100
AcDbEntity
  8
0
100
AcDbLine
 62
7
  6
CONTINUOUS
 10
68.5820537006
 20
183.8015516874
 11
34.9236307836
 21
203.2338116025
  0
LINE
  5
2D6
100
AcDbEntity
  8
0
100
AcDbLine
 62
7
  6
CONTINUOUS
 10
122.0748926321
 20
119.1068930896
 11
122.0748926321
 21
91.8517332208
  0
LINE
  5
2D7
100
AcDbEntity
  8
0
100
AcDbLine
 62
7
  6
CONTINUOUS
 10
112.0339168712
 20
137.0777557245
 11
109.9126053596
 21
133.4035160115
  0
LINE
  5
2D8
100
AcDbEntity
  8
0
100
AcDbLine
 62
7
  6
CONTINUOUS
 10
148.2376333366
 20
157.9798564027
 11
112.0339168712
 21
137.0777557245
  0
LINE
  5
2D9
100
AcDbEntity
  8
0
100
AcDbLine
 62
7
  6
CONTINUOUS
 10
36.3378384581
 20
204.0502999103
 11
69.996261375
 21
184.6180399951
  0
LINE
  5
2DA
100
AcDbEntity
  8
0
100
AcDbLine
 62
7
  6
CONTINUOUS
 10
30.009206418
 20
208.1123058718
 11
34.2518647689
 21
205.6628613447
  0
LINE
  5
2DB
100
AcDbEntity
  8
0
100
AcDbLine
 62
7
  6
CONTINUOUS
 10
71.7286802017
 20
184.0261013551
 11
74.2035642397
 21
182.5972587143
  0
LINE
  5
2DC
100
AcDbEntity
  8
0
100
AcDbLine
 62
7
  6
CONTINUOUS
 10
28.0648715033
 20
211.6843500144
 11
30.009206418
 21
210.5618131232
  0
LINE
  5
2DD
100
AcDbEntity
  8
0
100
AcDbLine
 62
7
  6
CONTINUOUS
 10
34.2518647689
 20
208.1123685961
 11
71.7286802017
 21
186.4756086065
  0
LINE
  5
2DE
100
AcDbEntity
  8
0
100
AcDbLine
 62
7
  6
CONTINUOUS
 10
183.8600599921
 20
122.0271584873
 11
184.9914355524
 21
121.3739732801
  0
LINE
  5
2DF
100
AcDbEntity
  8
0
100
AcDbLine
 62
7
  6
CONTINUOUS
 10
92.6412351531
 20
175.2587664062
 11
91.2270157028
 21
176.0752479152
  0
LINE
  5
2E0
100
AcDbEntity
  8
0
100
AcDbLine
 62
7
  6
CONTINUOUS
 10
81.133211284
 20
182.1073756717
 11
79.7189918337
 21
182.9238571807
  0
LINE
  5
2E1
100
AcDbEntity
  8
0
100
AcDbLine
 62
7
  6
CONTINUOUS
 10
91.5393888627
 20
176.4365276151
 11
92.7971780025
 21
175.7103591448
  0
LINE
  5
2E2
100
AcDbEntity
  8
0
100
AcDbLine
 62
7
  6
CONTINUOUS
 10
91.477011461
 20
176.508263066
 11
88.2950176978
 21
178.3453464614
  0
LINE
  5
2E3
100
AcDbEntity
  8
0
100
AcDbLine
 62
7
  6
CONTINUOUS
 10
79.3248728073
 20
184.9476665331
 11
80.921068357
 21
184.0261234509
  0
LINE
  5
2E4
100
AcDbEntity
  8
0
100
AcDbLine
 62
7
  6
CONTINUOUS
 10
89.0433316074
 20
179.7339879635
 11
89.830570818
 21
179.2794854756
  0
LINE
  5
2E5
100
AcDbEntity
  8
0
100
AcDbLine
 62
7
  6
CONTINUOUS
 10
98.5836372357
 20
175.3449858997
 11
98.0677935276
 21
175.642801666
  0
LINE
  5
2E6
100
AcDbEntity
  8
0
100
AcDbLine
 62
7
  6
CONTINUOUS
 10
128.8630894694
 20
128.6679140766
 11
128.8630894694
 21
129.4844164938
  0
LINE
  5
2E7
100
AcDbEntity
  8
0
100
AcDbLine
 62
7
  6
CONTINUOUS
 10
119.7412802638
 20
132.6280080618
 11
117.6199687521
 21
128.9537683488
  0
LINE
  5
2E8
100
AcDbEntity
  8
0
100
AcDbLine
 62
7
  6
CONTINUOUS
 10
83.5411153027
 20
170.4131482812
 11
86.2950516319
 21
170.1671463514
  0
LINE
  5
2E9
100
AcDbEntity
  8
0
100
AcDbLine
 62
7
  6
CONTINUOUS
 10
98.3768631497
 20
173.4864493627
 11
97.0563899653
 21
173.9083810702
  0
LINE
  5
2EA
100
AcDbEntity
  8
0
100
AcDbLine
 62
7
  6
CONTINUOUS
 10
78.446184319
 20
187.9044733431
 11
80.921068357
 21
186.4756307023
  0
LINE
  5
2EB
100
AcDbEntity
  8
0
100
AcDbLine
 62
7
  6
CONTINUOUS
 10
91.5181950377
 20
181.1628425021
 11
92.7971780025
 21
180.424438048
  0
LINE
  5
2EC
100
AcDbEntity
  8
0
100
AcDbLine
 62
7
  6
CONTINUOUS
 10
43.2611764867
 20
209.1162171911
 11
49.4256161545
 21
205.557256804
  0
LINE
  5
2ED
100
AcDbEntity
  8
0
100
AcDbLine
 62
7
  6
CONTINUOUS
 10
152.9046199346
 20
146.6307273939
 11
177.8655932323
 21
132.2198287593
  0
LINE
  5
2EE
100
AcDbEntity
  8
0
100
AcDbLine
 62
7
  6
CONTINUOUS
 10
154.9045860006
 20
146.8288389321
 11
179.0371400163
 21
132.8962175729
  0
LINE
  5
2EF
100
AcDbEntity
  8
0
100
AcDbLine
 62
7
  6
CONTINUOUS
 10
154.099759299
 20
147.3207373089
 11
162.5212321208
 21
142.458458691
  0
LINE
  5
2F0
100
AcDbEntity
  8
0
100
AcDbLine
 62
7
  6
CONTINUOUS
 10
49.4256161545
 20
208.0067640554
 11
43.2611764867
 21
211.5657244425
  0
LINE
  5
2F1
100
AcDbEntity
  8
0
100
AcDbLine
 62
7
  6
CONTINUOUS
 10
101.5835863346
 20
180.5411677098
 11
101.1103541893
 21
180.8143822354
  0
LINE
  5
2F2
100
AcDbEntity
  8
0
100
AcDbLine
 62
7
  6
CONTINUOUS
 10
64.6575064071
 20
203.2135760036
 11
67.2853926194
 21
201.6963995146
  0
LINE
  5
2F3
100
AcDbEntity
  8
0
100
AcDbLine
 62
7
  6
CONTINUOUS
 10
69.7081156051
 20
200.2976713901
 11
74.5570425591
 21
197.4982054403
  0
LINE
  5
2F4
100
AcDbEntity
  8
0
100
AcDbLine
 62
7
  6
CONTINUOUS
 10
106.8618143306
 20
179.336751724
 11
107.5081844121
 21
178.9635782257
  0
LINE
  5
2F5
100
AcDbEntity
  8
0
100
AcDbLine
 62
7
  6
CONTINUOUS
 10
183.9466862324
 20
135.7307284826
 11
188.0479226382
 21
133.3629321064
  0
LINE
  5
2F6
100
AcDbEntity
  8
0
100
AcDbLine
 62
7
  6
CONTINUOUS
 10
103.0897174319
 20
181.6495370976
 11
100.8500226337
 21
183.6859739974
  0
LINE
  5
2F7
100
AcDbEntity
  8
0
100
AcDbLine
 62
7
  6
CONTINUOUS
 10
137.9848614479
 20
108.5414324354
 11
137.9848614479
 21
84.0463599216
  0
LINE
  5
2F8
100
AcDbEntity
  8
0
100
AcDbLine
 62
7
  6
CONTINUOUS
 10
122.0748926321
 20
119.1068930896
 11
130.4963654538
 21
133.6933928628
  0
LINE
  5
2F9
100
AcDbEntity
  8
0
100
AcDbLine
 62
7
  6
CONTINUOUS
 10
154.099759299
 20
147.3207373089
 11
130.4963654538
 21
133.6933928628
  0
LINE
  5
2FA
100
AcDbEntity
  8
0
100
AcDbLine
 62
7
  6
CONTINUOUS
 10
89.830570818
 20
179.2794854756
 11
88.4670674235
 21
179.4012836678
  0
LINE
  5
2FB
100
AcDbEntity
  8
0
100
AcDbLine
 62
7
  6
CONTINUOUS
 10
107.9227649521
 20
178.99774544
 11
106.6022917677
 21
179.4196771475
  0
LINE
  5
2FC
100
AcDbEntity
  8
0
100
AcDbLine
 62
7
  6
CONTINUOUS
 10
98.5892334098
 20
185.2452840408
 11
99.8682163746
 21
184.5068795867
  0
LINE
  5
2FD
100
AcDbEntity
  8
0
100
AcDbLine
 62
7
  6
CONTINUOUS
 10
108.1295390381
 20
180.856281977
 11
107.6136953299
 21
181.1540977432
  0
LINE
  5
2FE
100
AcDbEntity
  8
0
100
AcDbLine
 62
7
  6
CONTINUOUS
 10
158.0663082408
 20
152.3053339503
 11
114.154936031
 21
177.6570657088
  0
LINE
  5
2FF
100
AcDbEntity
  8
0
100
AcDbLine
 62
7
  6
CONTINUOUS
 10
190.5478802207
 20
133.6105715292
 11
186.4466438148
 21
135.9783679054
  0
LINE
  5
300
100
AcDbEntity
  8
0
100
AcDbLine
 62
7
  6
CONTINUOUS
 10
101.0640968401
 20
186.6741385793
 11
102.3430798048
 21
185.9357341253
  0
LINE
  5
301
100
AcDbEntity
  8
0
100
AcDbLine
 62
7
  6
CONTINUOUS
 10
64.6575064071
 20
211.3786001749
 11
74.5570425591
 21
205.6632296116
  0
LINE
  5
302
100
AcDbEntity
  8
0
100
AcDbLine
 62
7
  6
CONTINUOUS
 10
81.6887742619
 20
201.6857675128
 11
82.0423291244
 21
201.4816471355
  0
LINE
  5
303
100
AcDbEntity
  8
0
100
AcDbLine
 62
7
  6
CONTINUOUS
 10
80.5245505698
 20
202.9352641726
 11
81.3043794713
 21
202.4850399319
  0
LINE
  5
304
100
AcDbEntity
  8
0
100
AcDbLine
 62
7
  6
CONTINUOUS
 10
111.129488137
 20
186.0524637871
 11
110.6562559917
 21
186.3256783126
  0
LINE
  5
305
100
AcDbEntity
  8
0
100
AcDbLine
 62
7
  6
CONTINUOUS
 10
112.6356192343
 20
187.1608331749
 11
110.3959244361
 21
189.1972700746
  0
LINE
  5
306
100
AcDbEntity
  8
0
100
AcDbLine
 62
7
  6
CONTINUOUS
 10
144.7730582852
 20
120.2989995171
 11
144.7730582852
 21
119.4824970999
  0
LINE
  5
307
100
AcDbEntity
  8
0
100
AcDbLine
 62
7
  6
CONTINUOUS
 10
147.0358659298
 20
71.7989574764
 11
147.0358659298
 21
78.8208782637
  0
LINE
  5
308
100
AcDbEntity
  8
0
100
AcDbLine
 62
7
  6
CONTINUOUS
 10
147.0358659298
 20
103.3159507776
 11
147.0358659298
 21
110.3378715649
  0
LINE
  5
309
100
AcDbEntity
  8
0
100
AcDbLine
 62
7
  6
CONTINUOUS
 10
124.903307981
 20
122.6258356962
 11
125.6104118182
 21
123.03407985
  0
LINE
  5
30A
100
AcDbEntity
  8
0
100
AcDbLine
 62
7
  6
CONTINUOUS
 10
44.3281724643
 20
182.8837979239
 11
46.4317350924
 21
183.0717122199
  0
LINE
  5
30B
100
AcDbEntity
  8
0
100
AcDbLine
 62
7
  6
CONTINUOUS
 10
59.9624494639
 20
216.6201252938
 11
62.1534852243
 21
215.355158825
  0
LINE
  5
30C
100
AcDbEntity
  8
0
100
AcDbLine
 62
7
  6
CONTINUOUS
 10
82.0245251193
 20
205.5333550777
 11
82.8060213108
 21
205.0821682484
  0
LINE
  5
30D
100
AcDbEntity
  8
0
100
AcDbLine
 62
7
  6
CONTINUOUS
 10
108.2693441586
 20
190.6790962997
 11
109.414118177
 21
190.018175664
  0
LINE
  5
30E
100
AcDbEntity
  8
0
100
AcDbLine
 62
7
  6
CONTINUOUS
 10
83.6887403278
 20
205.1498887195
 11
84.0422951904
 21
204.9457683422
  0
LINE
  5
30F
100
AcDbEntity
  8
0
100
AcDbLine
 62
7
  6
CONTINUOUS
 10
60.2316685798
 20
218.9140768841
 11
66.3961082476
 21
215.3551164969
  0
LINE
  5
310
100
AcDbEntity
  8
0
100
AcDbLine
 62
7
  6
CONTINUOUS
 10
66.3961082476
 20
217.8046237483
 11
60.2316685798
 21
221.3635841354
  0
LINE
  5
311
100
AcDbEntity
  8
0
100
AcDbLine
 62
7
  6
CONTINUOUS
 10
151.1371023357
 20
107.9700751887
 11
151.1371023357
 21
69.4311611002
  0
LINE
  5
312
100
AcDbEntity
  8
0
100
AcDbLine
 62
7
  6
CONTINUOUS
 10
155.9449967291
 20
153.53010874
 11
154.099759299
 21
147.3207373089
  0
LINE
  5
313
100
AcDbEntity
  8
0
100
AcDbLine
 62
7
  6
CONTINUOUS
 10
168.8145887505
 20
137.4453104172
 11
147.601473634
 21
125.1979858011
  0
LINE
  5
314
100
AcDbEntity
  8
0
100
AcDbLine
 62
7
  6
CONTINUOUS
 10
42.1337301233
 20
192.115923018
 11
40.7926238385
 21
191.9961200513
  0
LINE
  5
315
100
AcDbEntity
  8
0
100
AcDbLine
 62
7
  6
CONTINUOUS
 10
76.6783629027
 20
197.4982105394
 11
74.5570425591
 21
197.4982054403
  0
LINE
  5
316
100
AcDbEntity
  8
0
100
AcDbLine
 62
7
  6
CONTINUOUS
 10
77.3854814597
 20
193.8239863794
 11
66.4279030147
 21
194.3811960913
  0
LINE
  5
317
100
AcDbEntity
  8
0
100
AcDbLine
 62
7
  6
CONTINUOUS
 10
66.4279030147
 20
196.4224521341
 11
77.3854814597
 21
195.8652424223
  0
LINE
  5
318
100
AcDbEntity
  8
0
100
AcDbLine
 62
7
  6
CONTINUOUS
 10
85.8707039545
 20
212.1951360736
 11
75.9711678025
 21
217.9105066369
  0
LINE
  5
319
100
AcDbEntity
  8
0
100
AcDbLine
 62
7
  6
CONTINUOUS
 10
114.7913539354
 20
201.539797396
 11
113.3771344851
 21
202.356278905
  0
LINE
  5
31A
100
AcDbEntity
  8
0
100
AcDbLine
 62
7
  6
CONTINUOUS
 10
112.1750579619
 20
204.5200223034
 11
109.7001739238
 21
205.9488649442
  0
LINE
  5
31B
100
AcDbEntity
  8
0
100
AcDbLine
 62
7
  6
CONTINUOUS
 10
158.0663082408
 20
152.3053339503
 11
162.5212321208
 21
142.458458691
  0
LINE
  5
31C
100
AcDbEntity
  8
0
100
AcDbLine
 62
7
  6
CONTINUOUS
 10
162.5212321208
 20
142.4314657262
 11
162.5212321208
 21
142.458458691
  0
LINE
  5
31D
100
AcDbEntity
  8
0
100
AcDbLine
 62
7
  6
CONTINUOUS
 10
122.0748926321
 20
91.8517332208
 11
117.6199687521
 21
87.1488445918
  0
LINE
  5
31E
100
AcDbEntity
  8
0
100
AcDbLine
 62
7
  6
CONTINUOUS
 10
141.520380634
 20
113.8486628733
 11
140.8132767968
 21
113.4404187195
  0
LINE
  5
31F
100
AcDbEntity
  8
0
100
AcDbLine
 62
7
  6
CONTINUOUS
 10
150.5713851159
 20
116.4616044199
 11
156.6524781159
 21
119.9725041432
  0
LINE
  5
320
100
AcDbEntity
  8
0
100
AcDbLine
 62
7
  6
CONTINUOUS
 10
177.8655932323
 20
132.2198287593
 11
183.9466862324
 21
135.7307284826
  0
LINE
  5
321
100
AcDbEntity
  8
0
100
AcDbLine
 62
7
  6
CONTINUOUS
 10
188.0479226382
 20
133.3629321064
 11
154.6726215217
 21
114.0938080437
  0
LINE
  5
322
100
AcDbEntity
  8
0
100
AcDbLine
 62
7
  6
CONTINUOUS
 10
74.5570425591
 20
205.6632296116
 11
76.6783629027
 21
205.6632347107
  0
LINE
  5
323
100
AcDbEntity
  8
0
100
AcDbLine
 62
7
  6
CONTINUOUS
 10
76.8279021622
 20
226.4786281376
 11
79.1239773175
 21
225.153018518
  0
LINE
  5
324
100
AcDbEntity
  8
0
100
AcDbLine
 62
7
  6
CONTINUOUS
 10
112.1750196903
 20
209.8271742079
 11
107.4408598888
 21
212.5603808103
  0
LINE
  5
325
100
AcDbEntity
  8
0
100
AcDbLine
 62
7
  6
CONTINUOUS
 10
105.5953383547
 20
213.6258690603
 11
76.4278229486
 21
230.4653609713
  0
LINE
  5
326
100
AcDbEntity
  8
0
100
AcDbLine
 62
7
  6
CONTINUOUS
 10
69.4556708974
 20
234.4906437709
 11
68.511210992
 21
235.0359156158
  0
LINE
  5
327
100
AcDbEntity
  8
0
100
AcDbLine
 62
7
  6
CONTINUOUS
 10
59.2471068219
 20
206.6432617002
 11
50.8263700885
 21
205.3405661228
  0
LINE
  5
328
100
AcDbEntity
  8
0
100
AcDbLine
 62
7
  6
CONTINUOUS
 10
130.4963654538
 20
86.989454603
 11
130.5199580343
 21
87.0030757044
  0
LINE
  5
329
100
AcDbEntity
  8
0
100
AcDbLine
 62
7
  6
CONTINUOUS
 10
50.8263700885
 20
207.7900733742
 11
59.2471068219
 21
209.0927689515
  0
LINE
  5
32A
100
AcDbEntity
  8
0
100
AcDbLine
 62
7
  6
CONTINUOUS
 10
69.5065583196
 20
215.4029173523
 11
67.7968621816
 21
215.1384258158
  0
LINE
  5
32B
100
AcDbEntity
  8
0
100
AcDbLine
 62
7
  6
CONTINUOUS
 10
67.7968621816
 20
217.5879330672
 11
76.2175989151
 21
218.8906286445
  0
LINE
  5
32C
100
AcDbEntity
  8
0
100
AcDbLine
 62
7
  6
CONTINUOUS
 10
75.9711678025
 20
217.9105066369
 11
73.8498474589
 21
217.9105015378
  0
LINE
  5
32D
100
AcDbEntity
  8
0
100
AcDbLine
 62
7
  6
CONTINUOUS
 10
73.145919262
 20
219.4189852601
 11
66.2097820085
 21
219.4189685877
  0
LINE
  5
32E
100
AcDbEntity
  8
0
100
AcDbLine
 62
7
  6
CONTINUOUS
 10
66.2097820085
 20
221.4602246305
 11
68.520266945
 21
221.4602301842
  0
LINE
  5
32F
100
AcDbEntity
  8
0
100
AcDbLine
 62
7
  6
CONTINUOUS
 10
70.8354343255
 20
221.4602357492
 11
73.145919262
 21
221.4602413029
  0
LINE
  5
330
100
AcDbEntity
  8
0
100
AcDbLine
 62
7
  6
CONTINUOUS
 10
185.5024665829
 20
94.3753172601
 11
186.162933489
 21
94.617770208
  0
LINE
  5
331
100
AcDbEntity
  8
0
100
AcDbLine
 62
7
  6
CONTINUOUS
 10
68.520266945
 20
226.7674958956
 11
70.8354343255
 21
226.7675014605
  0
LINE
  5
332
100
AcDbEntity
  8
0
100
AcDbLine
 62
7
  6
CONTINUOUS
 10
191.5834418243
 20
92.7827267016
 11
191.5834418243
 21
131.3216407901
  0
LINE
  5
333
100
AcDbEntity
  8
0
100
AcDbLine
 62
7
  6
CONTINUOUS
 10
154.6726215217
 20
67.3898697839
 11
188.0479226382
 21
86.6589938466
  0
ARC
  5
334
100
AcDbEntity
  8
0
100
AcDbCircle
 62
7
  6
CONTINUOUS
 10
52.6092158367
 20
221.5012122336
 40
16.2586906509
100
AcDbArc
 50
258.708006814
 51
263.704575237
  0
ARC
  5
335
100
AcDbEntity
  8
0
100
AcDbCircle
 62
7
  6
CONTINUOUS
 10
69.5797079299
 20
231.2990719266
 40
16.2586906509
100
AcDbArc
 50
258.7080068141
 51
263.704575237
  0
ARC
  5
336
100
AcDbEntity
  8
0
100
AcDbCircle
 62
7
  6
CONTINUOUS
 10
52.5779178817
 20
223.7484000619
 40
16.0541617764
100
AcDbArc
 50
258.6761582775
 51
263.7364237736
  0
ARC
  5
337
100
AcDbEntity
  8
0
100
AcDbCircle
 62
7
  6
CONTINUOUS
 10
69.5484099749
 20
233.5462597548
 40
16.0541617764
100
AcDbArc
 50
258.6761582775
 51
263.7364237736
  0
ARC
  5
338
100
AcDbEntity
  8
0
100
AcDbCircle
 62
7
  6
CONTINUOUS
 10
54.7702020584
 20
218.0686784224
 40
10.03043504
100
AcDbArc
 50
296.5085953077
 51
299.9538958529
  0
ARC
  5
339
100
AcDbEntity
  8
0
100
AcDbCircle
 62
7
  6
CONTINUOUS
 10
71.7406941515
 20
227.8665381153
 40
10.0304350399
100
AcDbArc
 50
296.5085953077
 51
299.9538958529
  0
ARC
  5
33A
100
AcDbEntity
  8
0
100
AcDbCircle
 62
7
  6
CONTINUOUS
 10
54.8523503702
 20
215.4661656301
 40
9.8568513242
100
AcDbArc
 50
296.4782492513
 51
299.9842419093
  0
ARC
  5
33B
100
AcDbEntity
  8
0
100
AcDbCircle
 62
7
  6
CONTINUOUS
 10
67.5020190343
 20
218.8557311867
 40
9.7958533663
100
AcDbArc
 50
117.8384397392
 51
119.9822164381
  0
ARC
  5
33C
100
AcDbEntity
  8
0
100
AcDbCircle
 62
7
  6
CONTINUOUS
 10
50.5288859054
 20
209.0626220945
 40
9.7904186809
100
AcDbArc
 50
117.8696895449
 51
119.982722126
  0
ARC
  5
33D
100
AcDbEntity
  8
0
100
AcDbCircle
 62
7
  6
CONTINUOUS
 10
50.1351148601
 20
209.7451452701
 40
9.0024507112
100
AcDbArc
 50
119.9827745882
 51
123.6848389693
  0
ARC
  5
33E
100
AcDbEntity
  8
0
100
AcDbCircle
 62
7
  6
CONTINUOUS
 10
67.1056069532
 20
219.543004963
 40
9.0024507112
100
AcDbArc
 50
119.9827745882
 51
123.6848389692
  0
ARC
  5
33F
100
AcDbEntity
  8
0
100
AcDbCircle
 62
7
  6
CONTINUOUS
 10
55.2795468509
 20
217.1757379975
 40
9.0024507112
100
AcDbArc
 50
299.9827745882
 51
303.6848389692
  0
ARC
  5
340
100
AcDbEntity
  8
0
100
AcDbCircle
 62
7
  6
CONTINUOUS
 10
72.250038944
 20
226.9735976905
 40
9.0024507113
100
AcDbArc
 50
299.9827745882
 51
303.6848389692
  0
ARC
  5
341
100
AcDbEntity
  8
0
100
AcDbCircle
 62
7
  6
CONTINUOUS
 10
55.3678839554
 20
214.5839451084
 40
8.835062457
100
AcDbArc
 50
299.9476925528
 51
303.7199210046
  0
ARC
  5
342
100
AcDbEntity
  8
0
100
AcDbCircle
 62
7
  6
CONTINUOUS
 10
136.9926012487
 20
120.2173573531
 40
7.883378361
100
AcDbArc
 50
322.5413270612
 51
330.0081404155
  0
ARC
  5
343
100
AcDbEntity
  8
0
100
AcDbCircle
 62
7
  6
CONTINUOUS
 10
137.0567480016
 20
120.188142511
 40
7.8132201874
100
AcDbArc
 50
329.9585489263
 51
337.4925207248
  0
ARC
  5
344
100
AcDbEntity
  8
0
100
AcDbCircle
 62
7
  6
CONTINUOUS
 10
137.6444988306
 20
119.9513215203
 40
7.1795852488
100
AcDbArc
 50
337.4429533972
 51
343.4019975051
  0
ARC
  5
345
100
AcDbEntity
  8
0
100
AcDbCircle
 62
7
  6
CONTINUOUS
 10
49.2599801334
 20
188.7793797261
 40
7.0246973729
100
AcDbArc
 50
236.4866183773
 51
239.9505301938
  0
ARC
  5
346
100
AcDbEntity
  8
0
100
AcDbCircle
 62
7
  6
CONTINUOUS
 10
104.1267092447
 20
184.8182782657
 40
6.7610566383
100
AcDbArc
 50
300.0092656966
 51
301.5087322251
  0
ARC
  5
347
100
AcDbEntity
  8
0
100
AcDbCircle
 62
7
  6
CONTINUOUS
 10
76.3248758141
 20
184.7966630473
 40
5.1562245781
100
AcDbArc
 50
263.5258730156
 51
276.4737961813
  0
ARC
  5
348
100
AcDbEntity
  8
0
100
AcDbCircle
 62
7
  6
CONTINUOUS
 10
34.6011045373
 20
212.9977297938
 40
5.1068004083
100
AcDbArc
 50
266.0731906649
 51
266.2771437932
  0
ARC
  5
349
100
AcDbEntity
  8
0
100
AcDbCircle
 62
7
  6
CONTINUOUS
 10
111.8257807701
 20
209.4053706159
 40
5.1067891917
100
AcDbArc
 50
273.7231339529
 51
273.927243542
  0
ARC
  5
34A
100
AcDbEntity
  8
0
100
AcDbCircle
 62
7
  6
CONTINUOUS
 10
34.6006437731
 20
212.9911016558
 40
5.1001562768
100
AcDbArc
 50
265.6065755673
 51
266.0732555268
  0
ARC
  5
34B
100
AcDbEntity
  8
0
100
AcDbCircle
 62
7
  6
CONTINUOUS
 10
111.8262417849
 20
209.3987395618
 40
5.1001421338
100
AcDbArc
 50
273.9271786807
 51
274.3938670824
  0
ARC
  5
34C
100
AcDbEntity
  8
0
100
AcDbCircle
 62
7
  6
CONTINUOUS
 10
50.697201467
 20
223.8493499031
 40
3.6024865403
100
AcDbArc
 50
129.8108218451
 51
131.628549866
  0
ARC
  5
34D
100
AcDbEntity
  8
0
100
AcDbCircle
 62
7
  6
CONTINUOUS
 10
84.9603722463
 20
207.3127224948
 40
3.2685552596
100
AcDbArc
 50
54.1481884919
 51
56.1930200839
  0
ARC
  5
34E
100
AcDbEntity
  8
0
100
AcDbCircle
 62
7
  6
CONTINUOUS
 10
84.4936816695
 20
208.6665032554
 40
2.7543134927
100
AcDbArc
 50
58.7062448429
 51
60.0042197212
  0
ARC
  5
34F
100
AcDbEntity
  8
0
100
AcDbCircle
 62
7
  6
CONTINUOUS
 10
109.5782379324
 20
182.1633178638
 40
2.0660341192
100
AcDbArc
 50
189.5582097366
 51
191.6454332383
  0
ARC
  5
350
100
AcDbEntity
  8
0
100
AcDbCircle
 62
7
  6
CONTINUOUS
 10
100.0323361301
 20
176.6520217865
 40
2.0660341193
100
AcDbArc
 50
189.5582097366
 51
191.6454332383
  0
ARC
  5
351
100
AcDbEntity
  8
0
100
AcDbCircle
 62
7
  6
CONTINUOUS
 10
49.6845315328
 20
178.3458042304
 40
2.0642975998
100
AcDbArc
 50
348.2951726533
 51
350.4397728068
  0
ARC
  5
352
100
AcDbEntity
  8
0
100
AcDbCircle
 62
7
  6
CONTINUOUS
 10
59.2305128223
 20
172.8345540443
 40
2.0642975999
100
AcDbArc
 50
348.2951726533
 51
350.4397728068
  0
ARC
  5
353
100
AcDbEntity
  8
0
100
AcDbCircle
 62
7
  6
CONTINUOUS
 10
38.766316482
 20
186.6168939901
 40
0.9686216445
100
AcDbArc
 50
119.9994246274
 51
121.1501284934
  0
ARC
  5
354
100
AcDbEntity
  8
0
100
AcDbCircle
 62
7
  6
CONTINUOUS
 10
91.8569632244
 20
173.9002942273
 40
0.9685859768
100
AcDbArc
 50
58.8593659041
 51
60.0018216588
  0
ARC
  5
355
100
AcDbEntity
  8
0
100
AcDbCircle
 62
7
  6
CONTINUOUS
 10
82.4854304856
 20
202.1593876745
 40
0.8162385302
100
AcDbArc
 50
213.2929199836
 51
214.5333680429
  0
SPLINE
  5
356
100
AcDbEntity
  8
0
100
AcDbSpline
 62
7
  6
CONTINUOUS
 70
0
 71
3
 72
14
 73
10
 74
0
 42
0.0000001
 43
0.0000001
 44
0.0000000001
 40
0.0
 40
0.0
 40
0.0
 40
0.0
 40
0.2892788785
 40
0.4225377813
 40
0.5484922121
 40
0.6678919699
 40
0.7818652625
 40
0.8919497476
 40
1.0
 40
1.0
 40
1.0
 40
1.0
 10
172.4916476402
 20
103.397476615
 30
0.0
 10
172.6891737717
 20
103.5115176995
 30
0.0
 10
172.9924245228
 20
103.6558494361
 30
0.0
 10
173.4083049629
 20
103.7771180744
 30
0.0
 10
173.7034964612
 20
103.8266200012
 30
0.0
 10
173.9875326869
 20
103.8365207821
 30
0.0
 10
174.2577262342
 20
103.8063814088
 30
0.0
 10
174.511179116
 20
103.7362881051
 30
0.0
 10
174.6678288368
 20
103.6629456826
 30
0.0
 10
174.741608423
 20
103.6203502914
 30
0.0
  0
SPLINE
  5
357
100
AcDbEntity
  8
0
100
AcDbSpline
 62
7
  6
CONTINUOUS
 70
0
 71
3
 72
23
 73
19
 74
0
 42
0.0000001
 43
0.0000001
 44
0.0000000001
 40
0.0
 40
0.0
 40
0.0
 40
0.0
 40
0.0623916983
 40
0.1287423442
 40
0.1983450203
 40
0.2703325552
 40
0.3437219147
 40
0.4174665113
 40
0.4905033157
 40
0.5618018359
 40
0.6304104097
 40
0.6955086082
 40
0.75646609
 40
0.812912539
 40
0.8648215158
 40
0.912604092
 40
0.957185771
 40
1.0
 40
1.0
 40
1.0
 40
1.0
 10
185.5024665829
 20
88.5373249777
 30
0.0
 10
185.6641402736
 20
88.6306667693
 30
0.0
 10
185.9853216569
 20
88.8453073128
 30
0.0
 10
186.4401588324
 20
89.2280754716
 30
0.0
 10
186.8749343717
 20
89.6744797909
 30
0.0
 10
187.2803608694
 20
90.1749547034
 30
0.0
 10
187.6478476075
 20
90.7188918587
 30
0.0
 10
187.9695588183
 20
91.2946781222
 30
0.0
 10
188.2386261857
 20
91.8900331424
 30
0.0
 10
188.4493155138
 20
92.4922672369
 30
0.0
 10
188.5971384053
 20
93.0885941371
 30
0.0
 10
188.6789287408
 20
93.6664313775
 30
0.0
 10
188.6928558556
 20
94.2137047067
 30
0.0
 10
188.6383338972
 20
94.7191230969
 30
0.0
 10
188.5158800378
 20
95.1722982178
 30
0.0
 10
188.3267634097
 20
95.5636762583
 30
0.0
 10
188.0736778447
 20
95.8837017661
 30
0.0
 10
187.863371136
 20
96.0446687012
 30
0.0
 10
187.7524274207
 20
96.1087205035
 30
0.0
  0
SPLINE
  5
358
100
AcDbEntity
  8
0
100
AcDbSpline
 62
7
  6
CONTINUOUS
 70
0
 71
3
 72
23
 73
19
 74
0
 42
0.0000001
 43
0.0000001
 44
0.0000000001
 40
0.0
 40
0.0
 40
0.0
 40
0.0
 40
0.0428149581
 40
0.0873974424
 40
0.1351808469
 40
0.1870905525
 40
0.243537527
 40
0.3044952463
 40
0.3695933208
 40
0.4382013601
 40
0.509498991
 40
0.5825347113
 40
0.656278212
 40
0.7296666734
 40
0.8016536994
 40
0.8712562238
 40
0.9376075212
 40
1.0
 40
1.0
 40
1.0
 40
1.0
 10
170.2416868575
 20
95.8260811844
 30
0.0
 10
170.1307411167
 20
95.8901338238
 30
0.0
 10
169.9204313857
 20
96.0511047406
 30
0.0
 10
169.6673435052
 20
96.3711374823
 30
0.0
 10
169.4782272621
 20
96.7625236498
 30
0.0
 10
169.3557758367
 20
97.2157058551
 30
0.0
 10
169.3012575701
 20
97.7211290931
 30
0.0
 10
169.3151886211
 20
98.2684041727
 30
0.0
 10
169.3969821709
 20
98.8462396163
 30
0.0
 10
169.5448066687
 20
99.442561269
 30
0.0
 10
169.7554955379
 20
100.0447874916
 30
0.0
 10
170.0245604115
 20
100.6401334743
 30
0.0
 10
170.3462676951
 20
101.2159112874
 30
0.0
 10
170.7137501402
 20
101.7598422267
 30
0.0
 10
171.1191733033
 20
102.2603137277
 30
0.0
 10
171.5539476502
 20
102.7067191183
 30
0.0
 10
172.0087874379
 20
103.0894900709
 30
0.0
 10
172.3299719382
 20
103.3041336621
 30
0.0
 10
172.4916476402
 20
103.397476615
 30
0.0
  0
SPLINE
  5
359
100
AcDbEntity
  8
0
100
AcDbSpline
 62
7
  6
CONTINUOUS
 70
0
 71
3
 72
14
 73
10
 74
0
 42
0.0000001
 43
0.0000001
 44
0.0000000001
 40
0.0
 40
0.0
 40
0.0
 40
0.0
 40
0.1080488667
 40
0.2181321678
 40
0.3321045072
 40
0.4515036959
 40
0.5774576959
 40
0.710717211
 40
1.0
 40
1.0
 40
1.0
 40
1.0
 10
183.2525057452
 20
88.314451206
 30
0.0
 10
183.326284289
 20
88.2718561956
 30
0.0
 10
183.4829321217
 20
88.1985145076
 30
0.0
 10
183.7363821684
 20
88.1284216021
 30
0.0
 10
184.0065734175
 20
88.0982811067
 30
0.0
 10
184.290608148
 20
88.108180829
 30
0.0
 10
184.5857995482
 20
88.1576813675
 30
0.0
 10
185.0016836281
 20
88.2789491601
 30
0.0
 10
185.3049377825
 20
88.4232823523
 30
0.0
 10
185.5024665829
 20
88.5373249777
 30
0.0
  0
SPLINE
  5
35A
100
AcDbEntity
  8
0
100
AcDbSpline
 62
7
  6
CONTINUOUS
 70
0
 71
3
 72
16
 73
12
 74
0
 42
0.0000001
 43
0.0000001
 44
0.0000000001
 40
0.0
 40
0.0
 40
0.0
 40
0.0
 40
0.0994019373
 40
0.1544800457
 40
0.2129740543
 40
0.3388344208
 40
0.4734917711
 40
0.6121085057
 40
0.7493638734
 40
0.8800999342
 40
1.0
 40
1.0
 40
1.0
 40
1.0
 10
183.7489172168
 20
90.4364773761
 30
0.0
 10
183.692101323
 20
90.5778347509
 30
0.0
 10
183.6400093886
 20
90.812696409
 30
0.0
 10
183.6241452236
 20
91.1389012871
 30
0.0
 10
183.6443814167
 20
91.5059859485
 30
0.0
 10
183.7402023131
 20
91.9880339886
 30
0.0
 10
183.9506047339
 20
92.564629677
 30
0.0
 10
184.2475986069
 20
93.121594643
 30
0.0
 10
184.6146855217
 20
93.627793555
 30
0.0
 10
185.0311789101
 20
94.054966352
 30
0.0
 10
185.3433215879
 20
94.2834354029
 30
0.0
 10
185.5024665829
 20
94.3753172601
 30
0.0
  0
SPLINE
  5
35B
100
AcDbEntity
  8
0
100
AcDbSpline
 62
7
  6
CONTINUOUS
 70
0
 71
3
 72
12
 73
8
 74
0
 42
0.0000001
 43
0.0000001
 44
0.0000000001
 40
0.0
 40
0.0
 40
0.0
 40
0.0
 40
0.2412278865
 40
0.5004004399
 40
0.7592624793
 40
0.8829454518
 40
1.0
 40
1.0
 40
1.0
 40
1.0
 10
183.8085963534
 20
92.0608279693
 30
0.0
 10
183.9399385229
 20
92.1561930911
 30
0.0
 10
184.1866740711
 20
92.3903016345
 30
0.0
 10
184.4821671292
 20
92.81021357
 30
0.0
 10
184.6626438066
 20
93.2058650269
 30
0.0
 10
184.7537924379
 20
93.529955037
 30
0.0
 10
184.7799962109
 20
93.6902894285
 30
0.0
 10
184.7875558746
 20
93.7686869565
 30
0.0
  0
SPLINE
  5
35C
100
AcDbEntity
  8
0
100
AcDbSpline
 62
7
  6
CONTINUOUS
 70
0
 71
3
 72
23
 73
19
 74
0
 42
0.0000001
 43
0.0000001
 44
0.0000000001
 40
0.0
 40
0.0
 40
0.0
 40
0.0
 40
0.0623916983
 40
0.1287423442
 40
0.1983450203
 40
0.2703325552
 40
0.3437219147
 40
0.4174665113
 40
0.4905033157
 40
0.5618018359
 40
0.6304104097
 40
0.6955086082
 40
0.75646609
 40
0.812912539
 40
0.8648215158
 40
0.912604092
 40
0.957185771
 40
1.0
 40
1.0
 40
1.0
 40
1.0
 10
185.5024665829
 20
95.8858467318
 30
0.0
 10
185.3407928922
 20
95.7925049402
 30
0.0
 10
185.019611509
 20
95.5778643967
 30
0.0
 10
184.5647743334
 20
95.1950962379
 30
0.0
 10
184.1299987942
 20
94.7486919185
 30
0.0
 10
183.7245722964
 20
94.2482170061
 30
0.0
 10
183.3570855584
 20
93.7042798508
 30
0.0
 10
183.0353743476
 20
93.1284935873
 30
0.0
 10
182.7663069801
 20
92.5331385671
 30
0.0
 10
182.555617652
 20
91.9309044726
 30
0.0
 10
182.4077947606
 20
91.3345775724
 30
0.0
 10
182.3260044251
 20
90.756740332
 30
0.0
 10
182.3120773102
 20
90.2094670028
 30
0.0
 10
182.3665992686
 20
89.7040486125
 30
0.0
 10
182.489053128
 20
89.2508734917
 30
0.0
 10
182.6781697561
 20
88.8594954512
 30
0.0
 10
182.9312553211
 20
88.5394699434
 30
0.0
 10
183.1415620299
 20
88.3785030083
 30
0.0
 10
183.2525057452
 20
88.314451206
 30
0.0
  0
SPLINE
  5
35D
100
AcDbEntity
  8
0
100
AcDbSpline
 62
7
  6
CONTINUOUS
 70
0
 71
3
 72
16
 73
12
 74
0
 42
0.0000001
 43
0.0000001
 44
0.0000000001
 40
0.0
 40
0.0
 40
0.0
 40
0.0
 40
0.2001944611
 40
0.2603822214
 40
0.323982996
 40
0.3904859498
 40
0.4592602699
 40
0.6005884705
 40
0.7418302517
 40
0.8767330106
 40
1.0
 40
1.0
 40
1.0
 40
1.0
 10
185.2147702885
 20
94.1576212191
 30
0.0
 10
185.3247475639
 20
93.9962499038
 30
0.0
 10
185.3732514105
 20
93.7248698938
 30
0.0
 10
185.3529324827
 20
93.4111256218
 30
0.0
 10
185.3229301427
 20
93.2273151221
 30
0.0
 10
185.2745674297
 20
93.0392873747
 30
0.0
 10
185.1859337596
 20
92.7841418357
 30
0.0
 10
185.0356800568
 20
92.474538186
 30
0.0
 10
184.8050358581
 20
92.1370670924
 30
0.0
 10
184.537334825
 20
91.8518499422
 30
0.0
 10
184.3338029185
 20
91.7001366876
 30
0.0
 10
184.2296690777
 20
91.6400153455
 30
0.0
  0
SPLINE
  5
35E
100
AcDbEntity
  8
0
100
AcDbSpline
 62
7
  6
CONTINUOUS
 70
0
 71
3
 72
15
 73
11
 74
0
 42
0.0000001
 43
0.0000001
 44
0.0000000001
 40
0.0
 40
0.0
 40
0.0
 40
0.0
 40
0.1514262642
 40
0.2905956316
 40
0.4182190328
 40
0.5364945931
 40
0.6490587531
 40
0.7606659999
 40
0.876265557
 40
1.0
 40
1.0
 40
1.0
 40
1.0
 10
185.5024665829
 20
90.0478544493
 30
0.0
 10
185.4116755732
 20
89.9954365483
 30
0.0
 10
185.2308197125
 20
89.9055620961
 30
0.0
 10
184.95372093
 20
89.8172340146
 30
0.0
 10
184.6875057475
 20
89.7834200834
 30
0.0
 10
184.43809267
 20
89.8060157104
 30
0.0
 10
184.2120326644
 20
89.885938106
 30
0.0
 10
184.0164793992
 20
90.0216326605
 30
0.0
 10
183.8573684652
 20
90.2083853522
 30
0.0
 10
183.7808644813
 20
90.3569929021
 30
0.0
 10
183.7489172168
 20
90.4364773761
 30
0.0
  0
SPLINE
  5
35F
100
AcDbEntity
  8
0
100
AcDbSpline
 62
7
  6
CONTINUOUS
 70
0
 71
3
 72
14
 73
10
 74
0
 42
0.0000001
 43
0.0000001
 44
0.0000000001
 40
0.0
 40
0.0
 40
0.0
 40
0.0
 40
0.1080488667
 40
0.2181321678
 40
0.3321045072
 40
0.4515036959
 40
0.5774576959
 40
0.710717211
 40
1.0
 40
1.0
 40
1.0
 40
1.0
 10
187.7524274207
 20
96.1087205035
 30
0.0
 10
187.6786488769
 20
96.1513155139
 30
0.0
 10
187.5220010441
 20
96.2246572018
 30
0.0
 10
187.2685509974
 20
96.2947501074
 30
0.0
 10
186.9983597483
 20
96.3248906028
 30
0.0
 10
186.7143250178
 20
96.3149908805
 30
0.0
 10
186.4191336176
 20
96.265490342
 30
0.0
 10
186.0032495377
 20
96.1442225494
 30
0.0
 10
185.6999953834
 20
95.9998893572
 30
0.0
 10
185.5024665829
 20
95.8858467318
 30
0.0
  0
SPLINE
  5
360
100
AcDbEntity
  8
0
100
AcDbSpline
 62
7
  6
CONTINUOUS
 70
0
 71
3
 72
11
 73
7
 74
0
 42
0.0000001
 43
0.0000001
 44
0.0000000001
 40
0.0
 40
0.0
 40
0.0
 40
0.0
 40
0.278937078
 40
0.5378689226
 40
0.7773049567
 40
1.0
 40
1.0
 40
1.0
 40
1.0
 10
184.2296690777
 20
91.6400153455
 30
0.0
 10
184.1804382429
 20
91.6115920794
 30
0.0
 10
184.0822839877
 20
91.5620594401
 30
0.0
 10
183.932064846
 20
91.5100669273
 30
0.0
 10
183.7867374197
 20
91.4841922481
 30
0.0
 10
183.6918270586
 20
91.4849639252
 30
0.0
 10
183.6467482835
 20
91.4902253116
 30
0.0
  0
SPLINE
  5
361
100
AcDbEntity
  8
0
100
AcDbSpline
 62
7
  6
CONTINUOUS
 70
0
 71
3
 72
23
 73
19
 74
0
 42
0.0000001
 43
0.0000001
 44
0.0000000001
 40
0.0
 40
0.0
 40
0.0
 40
0.0
 40
0.0491585562
 40
0.0948360355
 40
0.1393418639
 40
0.1852978286
 40
0.2349400869
 40
0.2896740522
 40
0.3500289584
 40
0.4158140311
 40
0.486303281
 40
0.5603923499
 40
0.6367256574
 40
0.7138037319
 40
0.7900804643
 40
0.864062465
 40
0.9344005313
 40
1.0
 40
1.0
 40
1.0
 40
1.0
 10
186.1629342151
 20
94.6177728529
 30
0.0
 10
186.2597680335
 20
94.6315586265
 30
0.0
 10
186.4505732375
 20
94.6382732226
 30
0.0
 10
186.7238450735
 20
94.5726141714
 30
0.0
 10
186.9598361567
 20
94.4310396275
 30
0.0
 10
187.1478245463
 20
94.2200513891
 30
0.0
 10
187.2824612514
 20
93.9496961975
 30
0.0
 10
187.3619240581
 20
93.6295390048
 30
0.0
 10
187.3854693185
 20
93.2688663403
 30
0.0
 10
187.3531227375
 20
92.8777678019
 30
0.0
 10
187.2660732601
 20
92.4673588718
 30
0.0
 10
187.1269342722
 20
92.0495225063
 30
0.0
 10
186.9398090366
 20
91.6365028157
 30
0.0
 10
186.7102172559
 20
91.2404761118
 30
0.0
 10
186.4449472226
 20
90.8731426975
 30
0.0
 10
186.1517818358
 20
90.5453113818
 30
0.0
 10
185.8394117997
 20
90.2666838207
 30
0.0
 10
185.6155025476
 20
90.1131154045
 30
0.0
 10
185.5024665829
 20
90.0478544493
 30
0.0
  0
SPLINE
  5
362
100
AcDbEntity
  8
0
100
AcDbSpline
 62
7
  6
CONTINUOUS
 70
0
 71
3
 72
18
 73
14
 74
0
 42
0.0000001
 43
0.0000001
 44
0.0000000001
 40
0.0
 40
0.0
 40
0.0
 40
0.0
 40
0.1260240661
 40
0.2643678792
 40
0.408692361
 40
0.5516500214
 40
0.6861091271
 40
0.7483794462
 40
0.8066152127
 40
0.8605996432
 40
0.9104288479
 40
0.9565870489
 40
1.0
 40
1.0
 40
1.0
 40
1.0
 10
55.4651889069
 20
175.8609330388
 30
0.0
 10
55.4651889069
 20
175.4775866521
 30
0.0
 10
55.5665494581
 20
174.6724935118
 30
0.0
 10
55.9488312666
 20
173.4838736147
 30
0.0
 10
56.5422483594
 20
172.3267405636
 30
0.0
 10
57.3029648499
 20
171.2873155877
 30
0.0
 10
58.0493972609
 20
170.5631631332
 30
0.0
 10
58.6840806491
 20
170.1150075774
 30
0.0
 10
59.1513279425
 20
169.8603181217
 30
0.0
 10
59.613219823
 20
169.6834091996
 30
0.0
 10
60.0616430792
 20
169.5881746317
 30
0.0
 10
60.488166502
 20
169.5774332137
 30
0.0
 10
60.7584898332
 20
169.6291131536
 30
0.0
 10
60.8842770965
 20
169.6693160868
 30
0.0
  0
SPLINE
  5
363
100
AcDbEntity
  8
0
100
AcDbSpline
 62
7
  6
CONTINUOUS
 70
0
 71
3
 72
11
 73
7
 74
0
 42
0.0000001
 43
0.0000001
 44
0.0000000001
 40
0.0
 40
0.0
 40
0.0
 40
0.0
 40
0.2897894332
 40
0.5490567506
 40
0.7822291216
 40
1.0
 40
1.0
 40
1.0
 40
1.0
 10
61.2988441394
 20
172.4929468141
 30
0.0
 10
61.2988441394
 20
172.3155530468
 30
0.0
 10
61.2720437307
 20
171.9782904774
 30
0.0
 10
61.1353283173
 20
171.5149461459
 30
0.0
 10
60.9054674547
 20
171.1389230476
 30
0.0
 10
60.6893875413
 20
170.9573718883
 30
0.0
 10
60.5739461794
 20
170.8907065613
 30
0.0
  0
SPLINE
  5
364
100
AcDbEntity
  8
0
100
AcDbSpline
 62
7
  6
CONTINUOUS
 70
0
 71
3
 72
11
 73
7
 74
0
 42
0.0000001
 43
0.0000001
 44
0.0000000001
 40
0.0
 40
0.0
 40
0.0
 40
0.0
 40
0.2177689138
 40
0.4509403876
 40
0.7102101045
 40
1.0
 40
1.0
 40
1.0
 40
1.0
 10
57.6775246743
 20
176.7239813346
 30
0.0
 10
57.5785757522
 20
176.6668404247
 30
0.0
 10
57.3933666506
 20
176.5112254069
 30
0.0
 10
57.1963396609
 20
176.1889227294
 30
0.0
 10
57.0791560334
 20
175.7917689722
 30
0.0
 10
57.0561828445
 20
175.5026857373
 30
0.0
 10
57.0561828445
 20
175.3506337954
 30
0.0
  0
SPLINE
  5
365
100
AcDbEntity
  8
0
100
AcDbSpline
 62
7
  6
CONTINUOUS
 70
0
 71
3
 72
12
 73
8
 74
0
 42
0.0000001
 43
0.0000001
 44
0.0000000001
 40
0.0
 40
0.0
 40
0.0
 40
0.0
 40
0.24598788
 40
0.4949046066
 40
0.7473667995
 40
0.8745375055
 40
1.0
 40
1.0
 40
1.0
 40
1.0
 10
66.1748107781
 20
171.7596845521
 30
0.0
 10
65.8539417137
 20
171.6119123844
 30
0.0
 10
65.2072720411
 20
171.3169959604
 30
0.0
 10
64.2258714473
 20
170.8824639486
 30
0.0
 10
63.3941431369
 20
170.5313682167
 30
0.0
 10
62.7183826283
 20
170.2676740909
 30
0.0
 10
62.3763858138
 20
170.1460779791
 30
0.0
 10
62.2047598417
 20
170.0912343577
 30
0.0
  0
SPLINE
  5
366
100
AcDbEntity
  8
0
100
AcDbSpline
 62
7
  6
CONTINUOUS
 70
0
 71
3
 72
9
 73
5
 74
0
 42
0.0000001
 43
0.0000001
 44
0.0000000001
 40
0.0
 40
0.0
 40
0.0
 40
0.0
 40
0.5164118446
 40
1.0
 40
1.0
 40
1.0
 40
1.0
 10
59.3928467579
 20
180.6897153491
 30
0.0
 10
59.2201295914
 20
180.5529361076
 30
0.0
 10
58.8880576759
 20
180.2850675924
 30
0.0
 10
58.5637320625
 20
180.007630413
 30
0.0
 10
58.4110870902
 20
179.86883231
 30
0.0
  0
SPLINE
  5
367
100
AcDbEntity
  8
0
100
AcDbSpline
 62
7
  6
CONTINUOUS
 70
0
 71
3
 72
17
 73
13
 74
0
 42
0.0000001
 43
0.0000001
 44
0.0000000001
 40
0.0
 40
0.0
 40
0.0
 40
0.0
 40
0.0428585896
 40
0.0874886164
 40
0.1353233296
 40
0.1872868727
 40
0.3045519755
 40
0.4382202868
 40
0.5825647604
 40
0.7297203277
 40
0.8713075678
 40
1.0
 40
1.0
 40
1.0
 40
1.0
 10
38.2820140837
 20
187.4557498044
 30
0.0
 10
38.3535080271
 20
187.4970258189
 30
0.0
 10
38.5111028916
 20
187.5625413772
 30
0.0
 10
38.7712574089
 20
187.6006643777
 30
0.0
 10
39.0506365654
 20
187.5801013601
 30
0.0
 10
39.4565756314
 20
187.4721341543
 30
0.0
 10
39.9754889212
 20
187.1883652795
 30
0.0
 10
40.5488210284
 20
186.6806293251
 30
0.0
 10
41.0556077251
 20
186.0319537572
 30
0.0
 10
41.4544300728
 20
185.2947495219
 30
0.0
 10
41.7132685853
 20
184.5294805239
 30
0.0
 10
41.7826157253
 20
184.0082770892
 30
0.0
 10
41.7826157253
 20
183.7603916388
 30
0.0
  0
SPLINE
  5
368
100
AcDbEntity
  8
0
100
AcDbSpline
 62
7
  6
CONTINUOUS
 70
0
 71
3
 72
12
 73
8
 74
0
 42
0.0000001
 43
0.0000001
 44
0.0000000001
 40
0.0
 40
0.0
 40
0.0
 40
0.0
 40
0.1081597158
 40
0.2183621399
 40
0.4513573357
 40
0.7104307796
 40
1.0
 40
1.0
 40
1.0
 40
1.0
 10
37.9820123273
 20
187.9753711914
 30
0.0
 10
37.9246328797
 20
187.9422357192
 30
0.0
 10
37.8142982764
 20
187.8652432679
 30
0.0
 10
37.6163873501
 20
187.6705676133
 30
0.0
 10
37.4203652205
 20
187.3510105595
 30
0.0
 10
37.2840036884
 20
186.8878304115
 30
0.0
 10
37.2571134844
 20
186.550525661
 30
0.0
 10
37.2571134844
 20
186.3731324677
 30
0.0
  0
SPLINE
  5
369
100
AcDbEntity
  8
0
100
AcDbSpline
 62
7
  6
CONTINUOUS
 70
0
 71
3
 72
12
 73
8
 74
0
 42
0.0000001
 43
0.0000001
 44
0.0000000001
 40
0.0
 40
0.0
 40
0.0
 40
0.0
 40
0.2895802184
 40
0.5486333627
 40
0.7816359182
 40
0.8918377609
 40
1.0
 40
1.0
 40
1.0
 40
1.0
 10
65.1879270199
 20
161.1843845535
 30
0.0
 10
65.3986193103
 20
161.0627440548
 30
0.0
 10
65.8176542667
 20
160.8633823455
 30
0.0
 10
66.4612577396
 20
160.7077837835
 30
0.0
 10
66.9751953613
 20
160.7214061974
 30
0.0
 10
67.3420970114
 20
160.8230371541
 30
0.0
 10
67.5092160009
 20
160.9012401325
 30
0.0
 10
67.5879121781
 20
160.9466751109
 30
0.0
  0
SPLINE
  5
36A
100
AcDbEntity
  8
0
100
AcDbSpline
 62
7
  6
CONTINUOUS
 70
0
 71
3
 72
15
 73
11
 74
0
 42
0.0000001
 43
0.0000001
 44
0.0000000001
 40
0.0
 40
0.0
 40
0.0
 40
0.0
 40
0.1141555516
 40
0.2373276756
 40
0.3669773296
 40
0.5000011
 40
0.6330247168
 40
0.7626739247
 40
0.885845342
 40
1.0
 40
1.0
 40
1.0
 40
1.0
 10
34.9236307836
 20
182.5763004492
 30
0.0
 10
34.9236307836
 20
182.3079992895
 30
0.0
 10
34.9727739582
 20
181.7496842137
 30
0.0
 10
35.168682237
 20
180.9074052974
 30
0.0
 10
35.482515997
 20
180.0542443032
 30
0.0
 10
35.9025466446
 20
179.2222828157
 30
0.0
 10
36.4130342505
 20
178.442548167
 30
0.0
 10
36.9949782061
 20
177.744185079
 30
0.0
 10
37.6264592748
 20
177.1533913541
 30
0.0
 10
38.0854023492
 20
176.8316804787
 30
0.0
 10
38.3177574643
 20
176.6975332252
 30
0.0
  0
SPLINE
  5
36B
100
AcDbEntity
  8
0
100
AcDbSpline
 62
7
  6
CONTINUOUS
 70
0
 71
3
 72
21
 73
17
 74
0
 42
0.0000001
 43
0.0000001
 44
0.0000000001
 40
0.0
 40
0.0
 40
0.0
 40
0.0
 40
0.0624059336
 40
0.1287802775
 40
0.198399858
 40
0.2704081466
 40
0.4174472014
 40
0.5616807736
 40
0.6303080181
 40
0.6954238822
 40
0.7563980741
 40
0.812860221
 40
0.8647836888
 40
0.9125795186
 40
0.9571736294
 40
1.0
 40
1.0
 40
1.0
 40
1.0
 10
61.2988235316
 20
181.0661609133
 30
0.0
 10
61.5503049337
 20
180.9209713428
 30
0.0
 10
62.0499260113
 20
180.5870710685
 30
0.0
 10
62.757459409
 20
179.9916817327
 30
0.0
 10
63.433819182
 20
179.2972276903
 30
0.0
 10
64.2802096022
 20
178.2522740845
 30
0.0
 10
65.1697463889
 20
176.8049247455
 30
0.0
 10
65.800999822
 20
175.2437121771
 30
0.0
 10
66.1128020156
 20
173.9864834549
 30
0.0
 10
66.2400155159
 20
173.0875871898
 30
0.0
 10
66.261689322
 20
172.2362850644
 30
0.0
 10
66.1768838017
 20
171.4500748526
 30
0.0
 10
65.986404309
 20
170.7451330335
 30
0.0
 10
65.692216478
 20
170.1363236698
 30
0.0
 10
65.2985229272
 20
169.6385068308
 30
0.0
 10
64.9713755122
 20
169.3881161299
 30
0.0
 10
64.7987961068
 20
169.2884775155
 30
0.0
  0
SPLINE
  5
36C
100
AcDbEntity
  8
0
100
AcDbSpline
 62
7
  6
CONTINUOUS
 70
0
 71
3
 72
10
 73
6
 74
0
 42
0.0000001
 43
0.0000001
 44
0.0000000001
 40
0.0
 40
0.0
 40
0.0
 40
0.0
 40
0.2352955031
 40
0.4771460935
 40
1.0
 40
1.0
 40
1.0
 40
1.0
 10
39.146216589
 20
189.224880695
 30
0.0
 10
39.0660331679
 20
189.1785874757
 30
0.0
 10
38.9128683174
 20
189.0671834702
 30
0.0
 10
38.64661171
 20
188.7746369951
 30
0.0
 10
38.512458341
 20
188.4967753466
 30
0.0
 10
38.4489408267
 20
188.3010854597
 30
0.0
  0
SPLINE
  5
36D
100
AcDbEntity
  8
0
100
AcDbSpline
 62
7
  6
CONTINUOUS
 70
0
 71
3
 72
12
 73
8
 74
0
 42
0.0000001
 43
0.0000001
 44
0.0000000001
 40
0.0
 40
0.0
 40
0.0
 40
0.0
 40
0.289581202
 40
0.5486347013
 40
0.7816368512
 40
0.8918382666
 40
1.0
 40
1.0
 40
1.0
 40
1.0
 10
69.996261375
 20
163.9605288417
 30
0.0
 10
69.996261375
 20
163.7172363795
 30
0.0
 10
69.9593995183
 20
163.2546467174
 30
0.0
 10
69.7723500717
 20
162.6194511022
 30
0.0
 10
69.503579036
 20
162.1811662878
 30
0.0
 10
69.2321068017
 20
161.9142291283
 30
0.0
 10
69.0808177638
 20
161.8085994077
 30
0.0
 10
69.0021198526
 20
161.7631634187
 30
0.0
  0
SPLINE
  5
36E
100
AcDbEntity
  8
0
100
AcDbSpline
 62
7
  6
CONTINUOUS
 70
0
 71
3
 72
11
 73
7
 74
0
 42
0.0000001
 43
0.0000001
 44
0.0000000001
 40
0.0
 40
0.0
 40
0.0
 40
0.0
 40
0.2177689138
 40
0.4509403876
 40
0.7102101045
 40
1.0
 40
1.0
 40
1.0
 40
1.0
 10
48.1315433848
 20
182.2352315207
 30
0.0
 10
48.0325944627
 20
182.1780906108
 30
0.0
 10
47.8473853611
 20
182.0224755929
 30
0.0
 10
47.6503583714
 20
181.7001729155
 30
0.0
 10
47.5331747439
 20
181.3030191582
 30
0.0
 10
47.510201555
 20
181.0139359233
 30
0.0
 10
47.510201555
 20
180.8618839814
 30
0.0
  0
SPLINE
  5
36F
100
AcDbEntity
  8
0
100
AcDbSpline
 62
7
  6
CONTINUOUS
 70
0
 71
3
 72
18
 73
14
 74
0
 42
0.0000001
 43
0.0000001
 44
0.0000000001
 40
0.0
 40
0.0
 40
0.0
 40
0.0
 40
0.0428483717
 40
0.0874661025
 40
0.1352879326
 40
0.1872396155
 40
0.2437305431
 40
0.3047358314
 40
0.4383696647
 40
0.5826768886
 40
0.7297921552
 40
0.8713433041
 40
1.0
 40
1.0
 40
1.0
 40
1.0
 10
47.5279927338
 20
182.4641225345
 30
0.0
 10
47.6142754078
 20
182.5139492394
 30
0.0
 10
47.8044982635
 20
182.592972299
 30
0.0
 10
48.1184702847
 20
182.6390227439
 30
0.0
 10
48.4556450125
 20
182.6141985585
 30
0.0
 10
48.8084997476
 20
182.5204259257
 30
0.0
 10
49.1701622791
 20
182.3606198678
 30
0.0
 10
49.6694133516
 20
182.0550541409
 30
0.0
 10
50.2641398364
 20
181.5283040952
 30
0.0
 10
50.8753372581
 20
180.7458175599
 30
0.0
 10
51.3568256311
 20
179.8559872484
 30
0.0
 10
51.6691546852
 20
178.9324074879
 30
0.0
 10
51.7528628499
 20
178.303365483
 30
0.0
 10
51.7528628499
 20
178.0041970001
 30
0.0
  0
SPLINE
  5
370
100
AcDbEntity
  8
0
100
AcDbSpline
 62
7
  6
CONTINUOUS
 70
0
 71
3
 72
11
 73
7
 74
0
 42
0.0000001
 43
0.0000001
 44
0.0000000001
 40
0.0
 40
0.0
 40
0.0
 40
0.0
 40
0.2190098651
 40
0.4554836677
 40
0.7151567722
 40
1.0
 40
1.0
 40
1.0
 40
1.0
 10
46.625403108
 20
183.3435835834
 30
0.0
 10
46.5092155013
 20
183.2379532092
 30
0.0
 10
46.298616828
 20
182.9824314827
 30
0.0
 10
46.0777459405
 20
182.5151556309
 30
0.0
 10
45.945728436
 20
181.9677013973
 30
0.0
 10
45.9192076174
 20
181.5764112306
 30
0.0
 10
45.9192076174
 20
181.3721832249
 30
0.0
  0
SPLINE
  5
371
100
AcDbEntity
  8
0
100
AcDbSpline
 62
7
  6
CONTINUOUS
 70
0
 71
3
 72
13
 73
9
 74
0
 42
0.0000001
 43
0.0000001
 44
0.0000000001
 40
0.0
 40
0.0
 40
0.0
 40
0.0
 40
0.1080954013
 40
0.2182277661
 40
0.3322536475
 40
0.4517064024
 40
0.7105885478
 40
1.0
 40
1.0
 40
1.0
 40
1.0
 10
38.7068883775
 20
192.4353108434
 30
0.0
 10
38.8216534492
 20
192.5015703874
 30
0.0
 10
39.0653077534
 20
192.6157037984
 30
0.0
 10
39.4595781283
 20
192.7247007845
 30
0.0
 10
39.8798908201
 20
192.7715971711
 30
0.0
 10
40.4849727649
 20
192.750514672
 30
0.0
 10
41.2890025494
 20
192.5569054708
 30
0.0
 10
41.8995907001
 20
192.2660598351
 30
0.0
 10
42.2068609526
 20
192.0886612854
 30
0.0
  0
SPLINE
  5
372
100
AcDbEntity
  8
0
100
AcDbSpline
 62
7
  6
CONTINUOUS
 70
0
 71
3
 72
11
 73
7
 74
0
 42
0.0000001
 43
0.0000001
 44
0.0000000001
 40
0.0
 40
0.0
 40
0.0
 40
0.0
 40
0.2190098651
 40
0.4554836677
 40
0.7151567722
 40
1.0
 40
1.0
 40
1.0
 40
1.0
 10
56.1713843975
 20
177.8323333973
 30
0.0
 10
56.0551967908
 20
177.7267030232
 30
0.0
 10
55.8445981175
 20
177.4711812967
 30
0.0
 10
55.62372723
 20
177.0039054449
 30
0.0
 10
55.4917097255
 20
176.4564512113
 30
0.0
 10
55.4651889069
 20
176.0651610446
 30
0.0
 10
55.4651889069
 20
175.8609330388
 30
0.0
  0
SPLINE
  5
373
100
AcDbEntity
  8
0
100
AcDbSpline
 62
7
  6
CONTINUOUS
 70
0
 71
3
 72
18
 73
14
 74
0
 42
0.0000001
 43
0.0000001
 44
0.0000000001
 40
0.0
 40
0.0
 40
0.0
 40
0.0
 40
0.0428483717
 40
0.0874661025
 40
0.1352879326
 40
0.1872396155
 40
0.2437305431
 40
0.3047358314
 40
0.4383696647
 40
0.5826768886
 40
0.7297921552
 40
0.8713433041
 40
1.0
 40
1.0
 40
1.0
 40
1.0
 10
57.0739740233
 20
176.9528723485
 30
0.0
 10
57.1602566973
 20
177.0026990534
 30
0.0
 10
57.350479553
 20
177.081722113
 30
0.0
 10
57.6644515742
 20
177.1277725579
 30
0.0
 10
58.001626302
 20
177.1029483725
 30
0.0
 10
58.3544810371
 20
177.0091757397
 30
0.0
 10
58.7161435686
 20
176.8493696817
 30
0.0
 10
59.2153946411
 20
176.5438039548
 30
0.0
 10
59.8101211259
 20
176.0170539092
 30
0.0
 10
60.4213185476
 20
175.2345673739
 30
0.0
 10
60.9028069205
 20
174.3447370624
 30
0.0
 10
61.2151359747
 20
173.4211573018
 30
0.0
 10
61.2988441394
 20
172.792115297
 30
0.0
 10
61.2988441394
 20
172.4929468141
 30
0.0
  0
SPLINE
  5
374
100
AcDbEntity
  8
0
100
AcDbSpline
 62
7
  6
CONTINUOUS
 70
0
 71
3
 72
17
 73
13
 74
0
 42
0.0000001
 43
0.0000001
 44
0.0000000001
 40
0.0
 40
0.0
 40
0.0
 40
0.0
 40
0.1286894184
 40
0.2702754234
 40
0.4174277438
 40
0.5617747655
 40
0.6954471371
 40
0.8127114826
 40
0.8646769314
 40
0.9125112108
 40
0.9571404173
 40
1.0
 40
1.0
 40
1.0
 40
1.0
 10
57.0561828445
 20
175.3506337954
 30
0.0
 10
57.0561828445
 20
175.0942063096
 30
0.0
 10
57.1279253271
 20
174.5550402729
 30
0.0
 10
57.3956551445
 20
173.7633857757
 30
0.0
 10
57.808249649
 20
173.0007716279
 30
0.0
 10
58.3325085017
 20
172.3297240055
 30
0.0
 10
58.9255953393
 20
171.8044295335
 30
0.0
 10
59.4624373893
 20
171.5109305435
 30
0.0
 10
59.88236071
 20
171.3991869979
 30
0.0
 10
60.1713816968
 20
171.3779300029
 30
0.0
 10
60.4404957311
 20
171.4173967286
 30
0.0
 10
60.6035429042
 20
171.4851334365
 30
0.0
 10
60.6774993657
 20
171.527841729
 30
0.0
  0
SPLINE
  5
375
100
AcDbEntity
  8
0
100
AcDbSpline
 62
7
  6
CONTINUOUS
 70
0
 71
3
 72
11
 73
7
 74
0
 42
0.0000001
 43
0.0000001
 44
0.0000000001
 40
0.0
 40
0.0
 40
0.0
 40
0.0
 40
0.2897733987
 40
0.5490669313
 40
0.782226121
 40
1.0
 40
1.0
 40
1.0
 40
1.0
 10
41.7826157253
 20
183.7603916388
 30
0.0
 10
41.7826157253
 20
183.6134171909
 30
0.0
 10
41.7603951859
 20
183.3339714947
 30
0.0
 10
41.647143408
 20
182.9500484549
 30
0.0
 10
41.4566516194
 20
182.638506908
 30
0.0
 10
41.2776392171
 20
182.4880567871
 30
0.0
 10
41.1819809611
 20
182.4328298494
 30
0.0
  0
SPLINE
  5
376
100
AcDbEntity
  8
0
100
AcDbSpline
 62
7
  6
CONTINUOUS
 70
0
 71
3
 72
18
 73
14
 74
0
 42
0.0000001
 43
0.0000001
 44
0.0000000001
 40
0.0
 40
0.0
 40
0.0
 40
0.0
 40
0.1286548206
 40
0.2702040109
 40
0.4173189172
 40
0.5616285013
 40
0.6952644302
 40
0.7562701443
 40
0.8127610144
 40
0.8647123396
 40
0.9125338666
 40
0.9571514574
 40
1.0
 40
1.0
 40
1.0
 40
1.0
 10
37.2571134844
 20
186.3731324677
 30
0.0
 10
37.2571134844
 20
186.0739683499
 30
0.0
 10
37.340819498
 20
185.4449354315
 30
0.0
 10
37.6531397443
 20
184.5213629792
 30
0.0
 10
38.1346267986
 20
183.6315318934
 30
0.0
 10
38.7458256931
 20
182.8490342828
 30
0.0
 10
39.3405610324
 20
182.3222767118
 30
0.0
 10
39.839816693
 20
182.0167075362
 30
0.0
 10
40.2014797947
 20
181.8569023966
 30
0.0
 10
40.5543332416
 20
181.7631320705
 30
0.0
 10
40.8915058588
 20
181.7383061374
 30
0.0
 10
41.2054775017
 20
181.7843569811
 30
0.0
 10
41.3956996127
 20
181.8633817119
 30
0.0
 10
41.4819827175
 20
181.9132084625
 30
0.0
  0
SPLINE
  5
377
100
AcDbEntity
  8
0
100
AcDbSpline
 62
7
  6
CONTINUOUS
 70
0
 71
3
 72
10
 73
6
 74
0
 42
0.0000001
 43
0.0000001
 44
0.0000000001
 40
0.0
 40
0.0
 40
0.0
 40
0.0
 40
0.5229464116
 40
0.7647587228
 40
1.0
 40
1.0
 40
1.0
 40
1.0
 10
41.9947501029
 20
182.1553308891
 30
0.0
 10
42.1964419397
 20
182.112125337
 30
0.0
 10
42.5049079672
 20
182.0889311805
 30
0.0
 10
42.8923686489
 20
182.17322079
 30
0.0
 10
43.0658375658
 20
182.2502825802
 30
0.0
 10
43.1461938046
 20
182.2966755743
 30
0.0
  0
SPLINE
  5
378
100
AcDbEntity
  8
0
100
AcDbSpline
 62
7
  6
CONTINUOUS
 70
0
 71
3
 72
17
 73
13
 74
0
 42
0.0000001
 43
0.0000001
 44
0.0000000001
 40
0.0
 40
0.0
 40
0.0
 40
0.0
 40
0.1286894184
 40
0.2702754234
 40
0.4174277438
 40
0.5617747655
 40
0.6954471371
 40
0.8127114826
 40
0.8646769314
 40
0.9125112108
 40
0.9571404173
 40
1.0
 40
1.0
 40
1.0
 40
1.0
 10
47.510201555
 20
180.8618839814
 30
0.0
 10
47.510201555
 20
180.6054564956
 30
0.0
 10
47.5819440376
 20
180.0662904589
 30
0.0
 10
47.849673855
 20
179.2746359617
 30
0.0
 10
48.2622683595
 20
178.5120218139
 30
0.0
 10
48.7865272122
 20
177.8409741915
 30
0.0
 10
49.3796140499
 20
177.3156797195
 30
0.0
 10
49.9164560998
 20
177.0221807296
 30
0.0
 10
50.3363794205
 20
176.9104371839
 30
0.0
 10
50.6254004073
 20
176.8891801889
 30
0.0
 10
50.8945144416
 20
176.9286469147
 30
0.0
 10
51.0575616147
 20
176.9963836226
 30
0.0
 10
51.1315180762
 20
177.039091915
 30
0.0
  0
SPLINE
  5
379
100
AcDbEntity
  8
0
100
AcDbSpline
 62
7
  6
CONTINUOUS
 70
0
 71
3
 72
11
 73
7
 74
0
 42
0.0000001
 43
0.0000001
 44
0.0000000001
 40
0.0
 40
0.0
 40
0.0
 40
0.0
 40
0.2897894332
 40
0.5490567506
 40
0.7822291216
 40
1.0
 40
1.0
 40
1.0
 40
1.0
 10
51.7528628499
 20
178.0041970001
 30
0.0
 10
51.7528628499
 20
177.8268032328
 30
0.0
 10
51.7260624412
 20
177.4895406634
 30
0.0
 10
51.5893470278
 20
177.0261963319
 30
0.0
 10
51.3594861652
 20
176.6501732336
 30
0.0
 10
51.1434062519
 20
176.4686220743
 30
0.0
 10
51.0279648899
 20
176.4019567473
 30
0.0
  0
SPLINE
  5
37A
100
AcDbEntity
  8
0
100
AcDbSpline
 62
7
  6
CONTINUOUS
 70
0
 71
3
 72
18
 73
14
 74
0
 42
0.0000001
 43
0.0000001
 44
0.0000000001
 40
0.0
 40
0.0
 40
0.0
 40
0.0
 40
0.1260240661
 40
0.2643678792
 40
0.408692361
 40
0.5516500214
 40
0.6861091271
 40
0.7483794462
 40
0.8066152127
 40
0.8605996432
 40
0.9104288479
 40
0.9565870489
 40
1.0
 40
1.0
 40
1.0
 40
1.0
 10
45.9192076174
 20
181.3721832249
 30
0.0
 10
45.9192076174
 20
180.9888368381
 30
0.0
 10
46.0205681686
 20
180.1837436979
 30
0.0
 10
46.4028499771
 20
178.9951238007
 30
0.0
 10
46.9962670699
 20
177.8379907496
 30
0.0
 10
47.7569835604
 20
176.7985657737
 30
0.0
 10
48.5034159714
 20
176.0744133192
 30
0.0
 10
49.1380993596
 20
175.6262577635
 30
0.0
 10
49.605346653
 20
175.3715683077
 30
0.0
 10
50.0672385335
 20
175.1946593856
 30
0.0
 10
50.5156617897
 20
175.0994248177
 30
0.0
 10
50.9421852125
 20
175.0886833998
 30
0.0
 10
51.2125085437
 20
175.1403633396
 30
0.0
 10
51.338295807
 20
175.1805662728
 30
0.0
  0
SPLINE
  5
37B
100
AcDbEntity
  8
0
100
AcDbSpline
 62
7
  6
CONTINUOUS
 70
0
 71
3
 72
9
 73
5
 74
0
 42
0.0000001
 43
0.0000001
 44
0.0000000001
 40
0.0
 40
0.0
 40
0.0
 40
0.0
 40
0.5164118446
 40
1.0
 40
1.0
 40
1.0
 40
1.0
 10
49.8468654684
 20
186.2009655351
 30
0.0
 10
49.6741483019
 20
186.0641862937
 30
0.0
 10
49.3420763865
 20
185.7963177784
 30
0.0
 10
49.017750773
 20
185.518880599
 30
0.0
 10
48.8651058007
 20
185.3800824961
 30
0.0
  0
SPLINE
  5
37C
100
AcDbEntity
  8
0
100
AcDbSpline
 62
7
  6
CONTINUOUS
 70
0
 71
3
 72
12
 73
8
 74
0
 42
0.0000001
 43
0.0000001
 44
0.0000000001
 40
0.0
 40
0.0
 40
0.0
 40
0.0
 40
0.2471893105
 40
0.4969673726
 40
0.7493019648
 40
0.875661122
 40
1.0
 40
1.0
 40
1.0
 40
1.0
 10
55.6521288312
 20
176.8262825753
 30
0.0
 10
55.4089771186
 20
176.7170376622
 30
0.0
 10
54.9192105937
 20
176.4994246877
 30
0.0
 10
54.1769049555
 20
176.1801623276
 30
0.0
 10
53.5494212454
 20
175.923799116
 30
0.0
 10
53.0419858358
 20
175.7319548625
 30
0.0
 10
52.7865012313
 20
175.6432987292
 30
0.0
 10
52.6587785522
 20
175.6024845437
 30
0.0
  0
SPLINE
  5
37D
100
AcDbEntity
  8
0
100
AcDbSpline
 62
7
  6
CONTINUOUS
 70
0
 71
3
 72
27
 73
23
 74
0
 42
0.0000001
 43
0.0000001
 44
0.0000000001
 40
0.0
 40
0.0
 40
0.0
 40
0.0
 40
0.0562936243
 40
0.1126372675
 40
0.1690819598
 40
0.2257262083
 40
0.2827745349
 40
0.3406985563
 40
0.3703577429
 40
0.4008249716
 40
0.4325335493
 40
0.4658957001
 40
0.5008016191
 40
0.5363957127
 40
0.5718322032
 40
0.6067623299
 40
0.675016342
 40
0.741689936
 40
0.8072617081
 40
0.8720473339
 40
0.936248705
 40
1.0
 40
1.0
 40
1.0
 40
1.0
 10
62.3851067759
 20
180.2176931607
 30
0.0
 10
62.3107580841
 20
180.1032089597
 30
0.0
 10
62.1651023952
 20
179.872094343
 30
0.0
 10
61.9583686216
 20
179.5179040267
 30
0.0
 10
61.7668343504
 20
179.1542396353
 30
0.0
 10
61.5959044857
 20
178.7783692108
 30
0.0
 10
61.4547165751
 20
178.386351505
 30
0.0
 10
61.3761952406
 20
178.0428220701
 30
0.0
 10
61.3543239319
 20
177.7567905975
 30
0.0
 10
61.367019477
 20
177.5335996305
 30
0.0
 10
61.4209087468
 20
177.306683627
 30
0.0
 10
61.5291894531
 20
177.0870736206
 30
0.0
 10
61.6945896538
 20
176.8937828393
 30
0.0
 10
61.9022733754
 20
176.7397057343
 30
0.0
 10
62.1326399547
 20
176.6238446801
 30
0.0
 10
62.4501266417
 20
176.5115550159
 30
0.0
 10
62.8550305883
 20
176.4277483081
 30
0.0
 10
63.3393316773
 20
176.3802481622
 30
0.0
 10
63.8172339657
 20
176.3670766298
 30
0.0
 10
64.289039565
 20
176.3775484824
 30
0.0
 10
64.7556721334
 20
176.4053097046
 30
0.0
 10
65.0647745134
 20
176.4327110776
 30
0.0
 10
65.2185921891
 20
176.4481646292
 30
0.0
  0
SPLINE
  5
37E
100
AcDbEntity
  8
0
100
AcDbSpline
 62
7
  6
CONTINUOUS
 70
0
 71
3
 72
12
 73
8
 74
0
 42
0.0000001
 43
0.0000001
 44
0.0000000001
 40
0.0
 40
0.0
 40
0.0
 40
0.0
 40
0.1081617394
 40
0.2183631591
 40
0.4513653165
 40
0.7104188067
 40
1.0
 40
1.0
 40
1.0
 40
1.0
 10
67.5879121781
 20
160.9466751109
 30
0.0
 10
67.6666100979
 20
160.9921110954
 30
0.0
 10
67.8178991368
 20
161.0977408317
 30
0.0
 10
68.0893713857
 20
161.3646779966
 30
0.0
 10
68.3581424063
 20
161.8029628257
 30
0.0
 10
68.545191853
 20
162.43815843
 30
0.0
 10
68.5820537006
 20
162.9007480788
 30
0.0
 10
68.5820537006
 20
163.144040534
 30
0.0
  0
SPLINE
  5
37F
100
AcDbEntity
  8
0
100
AcDbSpline
 62
7
  6
CONTINUOUS
 70
0
 71
3
 72
12
 73
8
 74
0
 42
0.0000001
 43
0.0000001
 44
0.0000000001
 40
0.0
 40
0.0
 40
0.0
 40
0.0
 40
0.1081593386
 40
0.2183587446
 40
0.4513618558
 40
0.7104187393
 40
1.0
 40
1.0
 40
1.0
 40
1.0
 10
43.1461938046
 20
182.2966755743
 30
0.0
 10
43.2117741524
 20
182.3345378329
 30
0.0
 10
43.3378480686
 20
182.4225580275
 30
0.0
 10
43.5640706019
 20
182.6450071903
 30
0.0
 10
43.7880522009
 20
183.010242705
 30
0.0
 10
43.943925326
 20
183.539577438
 30
0.0
 10
43.9746440974
 20
183.9250711808
 30
0.0
 10
43.9746440974
 20
184.1278151166
 30
0.0
  0
SPLINE
  5
380
100
AcDbEntity
  8
0
100
AcDbSpline
 62
7
  6
CONTINUOUS
 70
0
 71
3
 72
33
 73
29
 74
0
 42
0.0000001
 43
0.0000001
 44
0.0000000001
 40
0.0
 40
0.0
 40
0.0
 40
0.0
 40
0.0436717847
 40
0.0844294618
 40
0.1211836099
 40
0.1375573078
 40
0.1522205019
 40
0.1648559062
 40
0.1703632426
 40
0.1753655915
 40
0.1800240383
 40
0.1846836724
 40
0.1961258111
 40
0.2041569841
 40
0.2142254745
 40
0.2408864904
 40
0.2750660235
 40
0.3140750363
 40
0.3556366652
 40
0.3984191641
 40
0.4417384292
 40
0.4852516178
 40
0.5722551245
 40
0.6588455631
 40
0.744895556
 40
0.8304089863
 40
0.9154274248
 40
1.0
 40
1.0
 40
1.0
 40
1.0
 10
58.4110870902
 20
179.86883231
 30
0.0
 10
58.3528670517
 20
179.8158935806
 30
0.0
 10
58.2415306694
 20
179.7121764991
 30
0.0
 10
58.0872923914
 20
179.5575580701
 30
0.0
 10
57.9745658908
 20
179.4311416464
 30
0.0
 10
57.9010736812
 20
179.3334367391
 30
0.0
 10
57.8591025974
 20
179.2667868264
 30
0.0
 10
57.8342071718
 20
179.212715788
 30
0.0
 10
57.8242960385
 20
179.1720485918
 30
0.0
 10
57.8227009499
 20
179.1445601333
 30
0.0
 10
57.8277640062
 20
179.1188821322
 30
0.0
 10
57.8471767342
 20
179.085912472
 30
0.0
 10
57.888573367
 20
179.064880686
 30
0.0
 10
57.9406796117
 20
179.0551002527
 30
0.0
 10
58.0216119646
 20
179.0513560864
 30
0.0
 10
58.1490344929
 20
179.0657834627
 30
0.0
 10
58.3251611473
 20
179.1029439791
 30
0.0
 10
58.5246492896
 20
179.1576728295
 30
0.0
 10
58.7366809432
 20
179.2244170571
 30
0.0
 10
58.954270972
 20
179.2990984649
 30
0.0
 10
59.1737424752
 20
179.3789750023
 30
0.0
 10
59.4665619177
 20
179.4902032714
 30
0.0
 10
59.8299817635
 20
179.6350367536
 30
0.0
 10
60.2620622065
 20
179.8144465332
 30
0.0
 10
60.6897774706
 20
179.997294407
 30
0.0
 10
61.1134326365
 20
180.1823892535
 30
0.0
 10
61.5334857565
 20
180.3690537183
 30
0.0
 10
61.812096066
 20
180.4945693775
 30
0.0
 10
61.9509016259
 20
180.5574558785
 30
0.0
  0
SPLINE
  5
381
100
AcDbEntity
  8
0
100
AcDbSpline
 62
7
  6
CONTINUOUS
 70
0
 71
3
 72
17
 73
13
 74
0
 42
0.0000001
 43
0.0000001
 44
0.0000000001
 40
0.0
 40
0.0
 40
0.0
 40
0.0
 40
0.1315535964
 40
0.2612959226
 40
0.3887710009
 40
0.5133483891
 40
0.6341801245
 40
0.7504535095
 40
0.807364842
 40
0.8649188589
 40
0.9269665502
 40
1.0
 40
1.0
 40
1.0
 40
1.0
 10
66.1716378939
 20
171.8458715221
 30
0.0
 10
66.0333835289
 20
171.8246595747
 30
0.0
 10
65.7582376305
 20
171.7859287809
 30
0.0
 10
65.3471799191
 20
171.7414953739
 30
0.0
 10
64.9419551614
 20
171.7152342363
 30
0.0
 10
64.5450502625
 20
171.7135084176
 30
0.0
 10
64.161529914
 20
171.746972367
 30
0.0
 10
63.8547794651
 20
171.8215026323
 30
0.0
 10
63.6346258073
 20
171.9327894635
 30
0.0
 10
63.4891348169
 20
172.0553085077
 30
0.0
 10
63.3827035932
 20
172.2357813241
 30
0.0
 10
63.3620550112
 20
172.3817510108
 30
0.0
 10
63.3620550112
 20
172.4594025942
 30
0.0
  0
SPLINE
  5
382
100
AcDbEntity
  8
0
100
AcDbSpline
 62
7
  6
CONTINUOUS
 70
0
 71
3
 72
14
 73
10
 74
0
 42
0.0000001
 43
0.0000001
 44
0.0000000001
 40
0.0
 40
0.0
 40
0.0
 40
0.0
 40
0.1103473166
 40
0.2204132181
 40
0.3329880888
 40
0.4505624516
 40
0.5750610322
 40
0.7078342453
 40
1.0
 40
1.0
 40
1.0
 40
1.0
 10
60.8842770965
 20
169.6693160868
 30
0.0
 10
60.9837745051
 20
169.7011165057
 30
0.0
 10
61.1770592353
 20
169.7837933148
 30
0.0
 10
61.438152747
 20
169.9639066287
 30
0.0
 10
61.6642390095
 20
170.1959780389
 30
0.0
 10
61.8520912968
 20
170.4762026037
 30
0.0
 10
61.9998666413
 20
170.8003666063
 30
0.0
 10
62.1458950771
 20
171.3009422622
 30
0.0
 10
62.1827312958
 20
171.7060792073
 30
0.0
 10
62.1827312958
 20
171.9826458709
 30
0.0
  0
SPLINE
  5
383
100
AcDbEntity
  8
0
100
AcDbSpline
 62
7
  6
CONTINUOUS
 70
0
 71
3
 72
18
 73
14
 74
0
 42
0.0000001
 43
0.0000001
 44
0.0000000001
 40
0.0
 40
0.0
 40
0.0
 40
0.0
 40
0.0428483717
 40
0.0874661025
 40
0.1352879326
 40
0.1872396155
 40
0.2437305431
 40
0.3047358314
 40
0.4383696647
 40
0.5826768886
 40
0.7297921552
 40
0.8713433041
 40
1.0
 40
1.0
 40
1.0
 40
1.0
 10
60.5739461794
 20
170.8907065613
 30
0.0
 10
60.4876635054
 20
170.8408798563
 30
0.0
 10
60.2974406497
 20
170.7618567968
 30
0.0
 10
59.9834686285
 20
170.7158063519
 30
0.0
 10
59.6462939008
 20
170.7406305373
 30
0.0
 10
59.2934391656
 20
170.83440317
 30
0.0
 10
58.9317766342
 20
170.994209228
 30
0.0
 10
58.4325255616
 20
171.2997749549
 30
0.0
 10
57.8377990768
 20
171.8265250005
 30
0.0
 10
57.2266016551
 20
172.6090115358
 30
0.0
 10
56.7451132822
 20
173.4988418474
 30
0.0
 10
56.432784228
 20
174.4224216079
 30
0.0
 10
56.3490760633
 20
175.0514636127
 30
0.0
 10
56.3490760633
 20
175.3506320957
 30
0.0
  0
SPLINE
  5
384
100
AcDbEntity
  8
0
100
AcDbSpline
 62
7
  6
CONTINUOUS
 70
0
 71
3
 72
9
 73
5
 74
0
 42
0.0000001
 43
0.0000001
 44
0.0000000001
 40
0.0
 40
0.0
 40
0.0
 40
0.0
 40
0.2565793853
 40
1.0
 40
1.0
 40
1.0
 40
1.0
 10
65.4795800228
 20
171.3526201564
 30
0.0
 10
65.528480107
 20
171.3318075937
 30
0.0
 10
65.7202490925
 20
171.2535251698
 30
0.0
 10
65.9168590829
 20
171.1869301699
 30
0.0
 10
66.0651052847
 20
171.1452886775
 30
0.0
  0
SPLINE
  5
385
100
AcDbEntity
  8
0
100
AcDbSpline
 62
7
  6
CONTINUOUS
 70
0
 71
3
 72
11
 73
7
 74
0
 42
0.0000001
 43
0.0000001
 44
0.0000000001
 40
0.0
 40
0.0
 40
0.0
 40
0.0
 40
0.2833571739
 40
0.540436489
 40
0.7762631212
 40
1.0
 40
1.0
 40
1.0
 40
1.0
 10
58.9526244797
 20
176.6914451299
 30
0.0
 10
58.8389125643
 20
176.7430950539
 30
0.0
 10
58.6137003183
 20
176.8250699259
 30
0.0
 10
58.2727979462
 20
176.8769708187
 30
0.0
 10
57.9547312193
 20
176.8483752207
 30
0.0
 10
57.762922313
 20
176.773296665
 30
0.0
 10
57.6775246743
 20
176.7239813346
 30
0.0
  0
SPLINE
  5
386
100
AcDbEntity
  8
0
100
AcDbSpline
 62
7
  6
CONTINUOUS
 70
0
 71
3
 72
11
 73
7
 74
0
 42
0.0000001
 43
0.0000001
 44
0.0000000001
 40
0.0
 40
0.0
 40
0.0
 40
0.0
 40
0.2296517625
 40
0.4683644036
 40
0.7234838883
 40
1.0
 40
1.0
 40
1.0
 40
1.0
 10
51.1315180762
 20
177.039091915
 30
0.0
 10
51.2036459896
 20
177.0807442596
 30
0.0
 10
51.3405380445
 20
177.1847661207
 30
0.0
 10
51.5064989255
 20
177.3908610238
 30
0.0
 10
51.6321475744
 20
177.6424391302
 30
0.0
 10
51.6855381846
 20
177.8288224781
 30
0.0
 10
51.7059035539
 20
177.9270205949
 30
0.0
  0
SPLINE
  5
387
100
AcDbEntity
  8
0
100
AcDbSpline
 62
7
  6
CONTINUOUS
 70
0
 71
3
 72
9
 73
5
 74
0
 42
0.0000001
 43
0.0000001
 44
0.0000000001
 40
0.0
 40
0.0
 40
0.0
 40
0.0
 40
0.2453100136
 40
1.0
 40
1.0
 40
1.0
 40
1.0
 10
51.7201592692
 20
178.0029568885
 30
0.0
 10
51.723018878
 20
178.0199148004
 30
0.0
 10
51.7338391281
 20
178.0891828542
 30
0.0
 10
51.7413817699
 20
178.1589544144
 30
0.0
 10
51.7453928974
 20
178.2117092889
 30
0.0
  0
SPLINE
  5
388
100
AcDbEntity
  8
0
100
AcDbSpline
 62
7
  6
CONTINUOUS
 70
0
 71
3
 72
14
 73
10
 74
0
 42
0.0000001
 43
0.0000001
 44
0.0000000001
 40
0.0
 40
0.0
 40
0.0
 40
0.0
 40
0.0946116218
 40
0.1941452176
 40
0.3023707623
 40
0.4214080764
 40
0.5518281297
 40
0.692970665
 40
1.0
 40
1.0
 40
1.0
 40
1.0
 10
41.1819809611
 20
182.4328298494
 30
0.0
 10
41.1011209856
 20
182.3861464891
 30
0.0
 10
40.9200492717
 20
182.3145780154
 30
0.0
 10
40.6199285468
 20
182.2850086993
 30
0.0
 10
40.2980384455
 20
182.3302562753
 30
0.0
 10
39.9630611932
 20
182.4472055685
 30
0.0
 10
39.623040036
 20
182.6318410853
 30
0.0
 10
39.1619312373
 20
182.9706903794
 30
0.0
 10
38.8549481428
 20
183.2954991059
 30
0.0
 10
38.6682338519
 20
183.5341281475
 30
0.0
  0
SPLINE
  5
389
100
AcDbEntity
  8
0
100
AcDbSpline
 62
7
  6
CONTINUOUS
 70
0
 71
3
 72
11
 73
7
 74
0
 42
0.0000001
 43
0.0000001
 44
0.0000000001
 40
0.0
 40
0.0
 40
0.0
 40
0.0
 40
0.2618132365
 40
0.5229084363
 40
0.7721130537
 40
1.0
 40
1.0
 40
1.0
 40
1.0
 10
38.6682338519
 20
183.5341281475
 30
0.0
 10
38.5165861701
 20
183.7279405268
 30
0.0
 10
38.2431662541
 20
184.1389319928
 30
0.0
 10
37.9319727355
 20
184.7974240547
 30
0.0
 10
37.7332387135
 20
185.4650463673
 30
0.0
 10
37.6813793195
 20
185.9139869101
 30
0.0
 10
37.6813793195
 20
186.128188015
 30
0.0
  0
SPLINE
  5
38A
100
AcDbEntity
  8
0
100
AcDbSpline
 62
7
  6
CONTINUOUS
 70
0
 71
3
 72
18
 73
14
 74
0
 42
0.0000001
 43
0.0000001
 44
0.0000000001
 40
0.0
 40
0.0
 40
0.0
 40
0.0
 40
0.0428483717
 40
0.0874661025
 40
0.1352879326
 40
0.1872396155
 40
0.2437305431
 40
0.3047358314
 40
0.4383696647
 40
0.5826768886
 40
0.7297921552
 40
0.8713433041
 40
1.0
 40
1.0
 40
1.0
 40
1.0
 10
39.3962191188
 20
188.7918610283
 30
0.0
 10
39.4825017928
 20
188.8416877332
 30
0.0
 10
39.6727246485
 20
188.9207107928
 30
0.0
 10
39.9866966696
 20
188.9667612377
 30
0.0
 10
40.3238713974
 20
188.9419370523
 30
0.0
 10
40.6767261326
 20
188.8481644195
 30
0.0
 10
41.038388664
 20
188.6883583615
 30
0.0
 10
41.5376397366
 20
188.3827926346
 30
0.0
 10
42.1323662213
 20
187.856042589
 30
0.0
 10
42.7435636431
 20
187.0735560537
 30
0.0
 10
43.225052016
 20
186.1837257422
 30
0.0
 10
43.5373810702
 20
185.2601459816
 30
0.0
 10
43.6210892348
 20
184.6311039768
 30
0.0
 10
43.6210892348
 20
184.3319354938
 30
0.0
  0
SPLINE
  5
38B
100
AcDbEntity
  8
0
100
AcDbSpline
 62
7
  6
CONTINUOUS
 70
0
 71
3
 72
11
 73
7
 74
0
 42
0.0000001
 43
0.0000001
 44
0.0000000001
 40
0.0
 40
0.0
 40
0.0
 40
0.0
 40
0.2893797247
 40
0.5487755386
 40
0.7822455452
 40
1.0
 40
1.0
 40
1.0
 40
1.0
 10
37.6813793195
 20
186.128188015
 30
0.0
 10
37.6813793195
 20
186.2731074146
 30
0.0
 10
37.7030113063
 20
186.5488398787
 30
0.0
 10
37.8129930568
 20
186.9283190493
 30
0.0
 10
37.9978700417
 20
187.2378277042
 30
0.0
 10
38.1719390816
 20
187.3894451851
 30
0.0
 10
38.2652656641
 20
187.4458547661
 30
0.0
  0
SPLINE
  5
38C
100
AcDbEntity
  8
0
100
AcDbSpline
 62
7
  6
CONTINUOUS
 70
0
 71
3
 72
18
 73
14
 74
0
 42
0.0000001
 43
0.0000001
 44
0.0000000001
 40
0.0
 40
0.0
 40
0.0
 40
0.0
 40
0.1286548206
 40
0.2702040109
 40
0.4173189172
 40
0.5616285013
 40
0.6952644302
 40
0.7562701443
 40
0.8127610144
 40
0.8647123396
 40
0.9125338666
 40
0.9571514574
 40
1.0
 40
1.0
 40
1.0
 40
1.0
 10
42.2068815604
 20
183.5154471861
 30
0.0
 10
42.2068815604
 20
183.8146113039
 30
0.0
 10
42.1231755468
 20
184.4436442224
 30
0.0
 10
41.8108553005
 20
185.3672166747
 30
0.0
 10
41.3293682462
 20
186.2570477604
 30
0.0
 10
40.7181693517
 20
187.039545371
 30
0.0
 10
40.1234340124
 20
187.566302942
 30
0.0
 10
39.6241783518
 20
187.8718721176
 30
0.0
 10
39.2625152501
 20
188.0316772572
 30
0.0
 10
38.9096618032
 20
188.1254475833
 30
0.0
 10
38.572489186
 20
188.1502735165
 30
0.0
 10
38.2585175431
 20
188.1042226728
 30
0.0
 10
38.0682954321
 20
188.0251979419
 30
0.0
 10
37.9820123273
 20
187.9753711914
 30
0.0
  0
SPLINE
  5
38D
100
AcDbEntity
  8
0
100
AcDbSpline
 62
7
  6
CONTINUOUS
 70
0
 71
3
 72
18
 73
14
 74
0
 42
0.0000001
 43
0.0000001
 44
0.0000000001
 40
0.0
 40
0.0
 40
0.0
 40
0.0
 40
0.0428483717
 40
0.0874661025
 40
0.1352879326
 40
0.1872396155
 40
0.2437305431
 40
0.3047358314
 40
0.4383696647
 40
0.5826768886
 40
0.7297921552
 40
0.8713433041
 40
1.0
 40
1.0
 40
1.0
 40
1.0
 10
51.0279648899
 20
176.4019567473
 30
0.0
 10
50.9416822159
 20
176.3521300424
 30
0.0
 10
50.7514593602
 20
176.2731069828
 30
0.0
 10
50.437487339
 20
176.2270565379
 30
0.0
 10
50.1003126113
 20
176.2518807233
 30
0.0
 10
49.7474578761
 20
176.3456533561
 30
0.0
 10
49.3857953447
 20
176.505459414
 30
0.0
 10
48.8865442721
 20
176.8110251409
 30
0.0
 10
48.2918177874
 20
177.3377751865
 30
0.0
 10
47.6806203656
 20
178.1202617219
 30
0.0
 10
47.1991319927
 20
179.0100920334
 30
0.0
 10
46.8868029385
 20
179.9336717939
 30
0.0
 10
46.8030947739
 20
180.5627137988
 30
0.0
 10
46.8030947739
 20
180.8618822817
 30
0.0
  0
SPLINE
  5
38E
100
AcDbEntity
  8
0
100
AcDbSpline
 62
7
  6
CONTINUOUS
 70
0
 71
3
 72
11
 73
7
 74
0
 42
0.0000001
 43
0.0000001
 44
0.0000000001
 40
0.0
 40
0.0
 40
0.0
 40
0.0
 40
0.2897894332
 40
0.5490567506
 40
0.7822291216
 40
1.0
 40
1.0
 40
1.0
 40
1.0
 10
43.6210892348
 20
184.3319354938
 30
0.0
 10
43.6210892348
 20
184.1545417266
 30
0.0
 10
43.5942888262
 20
183.8172791572
 30
0.0
 10
43.4575734128
 20
183.3539348257
 30
0.0
 10
43.2277125502
 20
182.9779117274
 30
0.0
 10
43.0116326368
 20
182.7963605681
 30
0.0
 10
42.8961912749
 20
182.7296952411
 30
0.0
  0
SPLINE
  5
38F
100
AcDbEntity
  8
0
100
AcDbSpline
 62
7
  6
CONTINUOUS
 70
0
 71
3
 72
18
 73
14
 74
0
 42
0.0000001
 43
0.0000001
 44
0.0000000001
 40
0.0
 40
0.0
 40
0.0
 40
0.0
 40
0.128653193
 40
0.2702040856
 40
0.4173190292
 40
0.5616287656
 40
0.6952634159
 40
0.7562696782
 40
0.8127618161
 40
0.8647121797
 40
0.9125329512
 40
0.95715095
 40
1.0
 40
1.0
 40
1.0
 40
1.0
 10
43.9746440974
 20
184.1278151166
 30
0.0
 10
43.9746440974
 20
184.4697129516
 30
0.0
 10
43.8789761927
 20
185.1886067345
 30
0.0
 10
43.5220585222
 20
186.2441282187
 30
0.0
 10
42.9717576027
 20
187.2610665573
 30
0.0
 10
42.2732787795
 20
188.1553764145
 30
0.0
 10
41.5935500586
 20
188.7573492428
 30
0.0
 10
41.0229831576
 20
189.1065882573
 30
0.0
 10
40.6096598925
 20
189.2892467086
 30
0.0
 10
40.2063895466
 20
189.396385045
 30
0.0
 10
39.8210569197
 20
189.4247408154
 30
0.0
 10
39.4622213217
 20
189.3721561408
 30
0.0
 10
39.2448330138
 20
189.2818160529
 30
0.0
 10
39.146216589
 20
189.224880695
 30
0.0
  0
SPLINE
  5
390
100
AcDbEntity
  8
0
100
AcDbSpline
 62
7
  6
CONTINUOUS
 70
0
 71
3
 72
14
 73
10
 74
0
 42
0.0000001
 43
0.0000001
 44
0.0000000001
 40
0.0
 40
0.0
 40
0.0
 40
0.0
 40
0.1103473166
 40
0.2204132181
 40
0.3329880888
 40
0.4505624516
 40
0.5750610322
 40
0.7078342453
 40
1.0
 40
1.0
 40
1.0
 40
1.0
 10
51.338295807
 20
175.1805662728
 30
0.0
 10
51.4377932157
 20
175.2123666917
 30
0.0
 10
51.6310779458
 20
175.2950435008
 30
0.0
 10
51.8921714575
 20
175.4751568147
 30
0.0
 10
52.1182577201
 20
175.7072282249
 30
0.0
 10
52.3061100073
 20
175.9874527897
 30
0.0
 10
52.4538853518
 20
176.3116167923
 30
0.0
 10
52.5999137876
 20
176.8121924482
 30
0.0
 10
52.6367500063
 20
177.2173293933
 30
0.0
 10
52.6367500063
 20
177.4938960569
 30
0.0
  0
SPLINE
  5
391
100
AcDbEntity
  8
0
100
AcDbSpline
 62
7
  6
CONTINUOUS
 70
0
 71
3
 72
34
 73
30
 74
0
 42
0.0000001
 43
0.0000001
 44
0.0000000001
 40
0.0
 40
0.0
 40
0.0
 40
0.0
 40
0.0433538602
 40
0.0837388426
 40
0.1200132983
 40
0.1360801004
 40
0.1503704549
 40
0.1625632966
 40
0.1678445091
 40
0.1726569473
 40
0.1772310964
 40
0.1820115382
 40
0.187607036
 40
0.1946221565
 40
0.2035280571
 40
0.2146029771
 40
0.2432469768
 40
0.2788198939
 40
0.3185175982
 40
0.3602922184
 40
0.4030227164
 40
0.4461487151
 40
0.4893933118
 40
0.5757535506
 40
0.6616482786
 40
0.7469902362
 40
0.8317977414
 40
0.9161174354
 40
1.0
 40
1.0
 40
1.0
 40
1.0
 10
48.8651058007
 20
185.3800824961
 30
0.0
 10
48.8057920291
 20
185.3261492492
 30
0.0
 10
48.6924871187
 20
185.2205549132
 30
0.0
 10
48.5359153035
 20
185.063220658
 30
0.0
 10
48.4220522082
 20
184.9347097897
 30
0.0
 10
48.348727089
 20
184.8355262496
 30
0.0
 10
48.3077594466
 20
184.7682621801
 30
0.0
 10
48.2845147032
 20
184.7137426197
 30
0.0
 10
48.2770009477
 20
184.6730177642
 30
0.0
 10
48.2777456618
 20
184.6456295105
 30
0.0
 10
48.2861425779
 20
184.6202992546
 30
0.0
 10
48.3039865311
 20
184.5983970643
 30
0.0
 10
48.3318934159
 20
184.5814616182
 30
0.0
 10
48.3702874169
 20
184.5699778898
 30
0.0
 10
48.4200566443
 20
184.5642689891
 30
0.0
 10
48.510121605
 20
184.5651121622
 30
0.0
 10
48.6483757649
 20
184.5851216887
 30
0.0
 10
48.8356033314
 20
184.6285684322
 30
0.0
 10
49.0436510689
 20
184.688555721
 30
0.0
 10
49.2620942117
 20
184.7595498589
 30
0.0
 10
49.4848028418
 20
184.8377147
 30
0.0
 10
49.7086949944
 20
184.9205830845
 30
0.0
 10
50.0067847132
 20
185.0353316471
 30
0.0
 10
50.3764821733
 20
185.18411623
 30
0.0
 10
50.8159312508
 20
185.3679363385
 30
0.0
 10
51.2508942058
 20
185.5549733236
 30
0.0
 10
51.6817565797
 20
185.7441324823
 30
0.0
 10
52.1090062013
 20
185.9347834088
 30
0.0
 10
52.3924176362
 20
186.0629230587
 30
0.0
 10
52.5336230349
 20
186.1271162058
 30
0.0
  0
SPLINE
  5
392
100
AcDbEntity
  8
0
100
AcDbSpline
 62
7
  6
CONTINUOUS
 70
0
 71
3
 72
20
 73
16
 74
0
 42
0.0000001
 43
0.0000001
 44
0.0000000001
 40
0.0
 40
0.0
 40
0.0
 40
0.0
 40
0.0635398473
 40
0.1313010369
 40
0.275800894
 40
0.4253203819
 40
0.5704245934
 40
0.6386609216
 40
0.7027877764
 40
0.762231991
 40
0.8167811825
 40
0.8666954973
 40
0.9128172703
 40
0.9566086896
 40
1.0
 40
1.0
 40
1.0
 40
1.0
 10
62.1827312958
 20
171.9826458709
 30
0.0
 10
62.1827312958
 20
172.1904875312
 30
0.0
 10
62.1529935711
 20
172.620312486
 30
0.0
 10
61.9871123919
 20
173.5085749171
 30
0.0
 10
61.5888381107
 20
174.6316227387
 30
0.0
 10
60.8743805202
 20
175.8852520566
 30
0.0
 10
60.1096144659
 20
176.8033912542
 30
0.0
 10
59.4274075921
 20
177.4043600976
 30
0.0
 10
58.9113001014
 20
177.7638710534
 30
0.0
 10
58.3922960877
 20
178.0328254026
 30
0.0
 10
57.8817705517
 20
178.2046196309
 30
0.0
 10
57.3908051586
 20
178.2742050793
 30
0.0
 10
56.9304960855
 20
178.2376035811
 30
0.0
 10
56.5138430352
 20
178.0930236532
 30
0.0
 10
56.2764053449
 20
177.9278117559
 30
0.0
 10
56.1713843975
 20
177.8323333973
 30
0.0
  0
SPLINE
  5
393
100
AcDbEntity
  8
0
100
AcDbSpline
 62
7
  6
CONTINUOUS
 70
0
 71
3
 72
12
 73
8
 74
0
 42
0.0000001
 43
0.0000001
 44
0.0000000001
 40
0.0
 40
0.0
 40
0.0
 40
0.0
 40
0.2895810392
 40
0.5486360765
 40
0.7816397385
 40
0.8918396265
 40
1.0
 40
1.0
 40
1.0
 40
1.0
 10
47.1566113649
 20
185.964913809
 30
0.0
 10
47.1566113649
 20
185.762169978
 30
0.0
 10
47.1258935178
 20
185.3766773722
 30
0.0
 10
46.9700198519
 20
184.8473441609
 30
0.0
 10
46.7460409715
 20
184.4821072285
 30
0.0
 10
46.5198168854
 20
184.2596577117
 30
0.0
 10
46.3937430466
 20
184.1716351979
 30
0.0
 10
46.3281614027
 20
184.1337736974
 30
0.0
  0
SPLINE
  5
394
100
AcDbEntity
  8
0
100
AcDbSpline
 62
7
  6
CONTINUOUS
 70
0
 71
3
 72
12
 73
8
 74
0
 42
0.0000001
 43
0.0000001
 44
0.0000000001
 40
0.0
 40
0.0
 40
0.0
 40
0.0
 40
0.1081597158
 40
0.2183621399
 40
0.4513573357
 40
0.7104307796
 40
1.0
 40
1.0
 40
1.0
 40
1.0
 10
41.4819827175
 20
181.9132084625
 30
0.0
 10
41.5393621651
 20
181.9463439347
 30
0.0
 10
41.6496967684
 20
182.0233363859
 30
0.0
 10
41.8476076947
 20
182.2180120405
 30
0.0
 10
42.0436298243
 20
182.5375690943
 30
0.0
 10
42.1799913563
 20
183.0007492423
 30
0.0
 10
42.2068815604
 20
183.3380539928
 30
0.0
 10
42.2068815604
 20
183.5154471861
 30
0.0
  0
SPLINE
  5
395
100
AcDbEntity
  8
0
100
AcDbSpline
 62
7
  6
CONTINUOUS
 70
0
 71
3
 72
9
 73
5
 74
0
 42
0.0000001
 43
0.0000001
 44
0.0000000001
 40
0.0
 40
0.0
 40
0.0
 40
0.0
 40
0.2444735579
 40
1.0
 40
1.0
 40
1.0
 40
1.0
 10
40.9431940833
 20
192.5840916405
 30
0.0
 10
40.9325687638
 20
192.5416288607
 30
0.0
 10
40.8916982374
 20
192.3672953322
 30
0.0
 10
40.8610136701
 20
192.1906116874
 30
0.0
 10
40.8430275312
 20
192.0565389004
 30
0.0
  0
SPLINE
  5
396
100
AcDbEntity
  8
0
100
AcDbSpline
 62
7
  6
CONTINUOUS
 70
0
 71
3
 72
11
 73
7
 74
0
 42
0.0000001
 43
0.0000001
 44
0.0000000001
 40
0.0
 40
0.0
 40
0.0
 40
0.0
 40
0.2296517625
 40
0.4683644036
 40
0.7234838883
 40
1.0
 40
1.0
 40
1.0
 40
1.0
 10
60.6774993657
 20
171.527841729
 30
0.0
 10
60.7496272791
 20
171.5694940736
 30
0.0
 10
60.886519334
 20
171.6735159347
 30
0.0
 10
61.052480215
 20
171.8796108377
 30
0.0
 10
61.1781288639
 20
172.1311889442
 30
0.0
 10
61.2315194741
 20
172.3175722921
 30
0.0
 10
61.2518848434
 20
172.4157704089
 30
0.0
  0
SPLINE
  5
397
100
AcDbEntity
  8
0
100
AcDbSpline
 62
7
  6
CONTINUOUS
 70
0
 71
3
 72
9
 73
5
 74
0
 42
0.0000001
 43
0.0000001
 44
0.0000000001
 40
0.0
 40
0.0
 40
0.0
 40
0.0
 40
0.2453100136
 40
1.0
 40
1.0
 40
1.0
 40
1.0
 10
61.2661405586
 20
172.4917067025
 30
0.0
 10
61.2690001675
 20
172.5086646144
 30
0.0
 10
61.2798204176
 20
172.5779326682
 30
0.0
 10
61.2873630594
 20
172.6477042284
 30
0.0
 10
61.2913741869
 20
172.7004591029
 30
0.0
  0
SPLINE
  5
398
100
AcDbEntity
  8
0
100
AcDbSpline
 62
7
  6
CONTINUOUS
 70
0
 71
3
 72
13
 73
9
 74
0
 42
0.0000001
 43
0.0000001
 44
0.0000000001
 40
0.0
 40
0.0
 40
0.0
 40
0.0
 40
0.1080954013
 40
0.2182277661
 40
0.3322536475
 40
0.4517064024
 40
0.7105885478
 40
1.0
 40
1.0
 40
1.0
 40
1.0
 10
64.7987961068
 20
169.2884775155
 30
0.0
 10
64.6840310351
 20
169.2222179715
 30
0.0
 10
64.4403767309
 20
169.1080845605
 30
0.0
 10
64.046106356
 20
168.9990875744
 30
0.0
 10
63.6257936642
 20
168.9521911878
 30
0.0
 10
63.0207117193
 20
168.9732736869
 30
0.0
 10
62.2166819348
 20
169.1668828881
 30
0.0
 10
61.6060937841
 20
169.4577285238
 30
0.0
 10
61.2988235316
 20
169.6351270735
 30
0.0
  0
SPLINE
  5
399
100
AcDbEntity
  8
0
100
AcDbSpline
 62
7
  6
CONTINUOUS
 70
0
 71
3
 72
11
 73
7
 74
0
 42
0.0000001
 43
0.0000001
 44
0.0000000001
 40
0.0
 40
0.0
 40
0.0
 40
0.0
 40
0.2833571739
 40
0.540436489
 40
0.7762631212
 40
1.0
 40
1.0
 40
1.0
 40
1.0
 10
49.4066431902
 20
182.202695316
 30
0.0
 10
49.2929312748
 20
182.2543452399
 30
0.0
 10
49.0677190288
 20
182.3363201119
 30
0.0
 10
48.7268166567
 20
182.3882210047
 30
0.0
 10
48.4087499298
 20
182.3596254067
 30
0.0
 10
48.2169410235
 20
182.284546851
 30
0.0
 10
48.1315433848
 20
182.2352315207
 30
0.0
  0
SPLINE
  5
39A
100
AcDbEntity
  8
0
100
AcDbSpline
 62
7
  6
CONTINUOUS
 70
0
 71
3
 72
11
 73
7
 74
0
 42
0.0000001
 43
0.0000001
 44
0.0000000001
 40
0.0
 40
0.0
 40
0.0
 40
0.0
 40
0.2897894332
 40
0.5490567506
 40
0.7822291216
 40
1.0
 40
1.0
 40
1.0
 40
1.0
 10
46.8030947739
 20
180.8618822817
 30
0.0
 10
46.8030947739
 20
181.0392760489
 30
0.0
 10
46.8298951825
 20
181.3765386184
 30
0.0
 10
46.9666105959
 20
181.8398829499
 30
0.0
 10
47.1964714585
 20
182.2159060482
 30
0.0
 10
47.4125513719
 20
182.3974572075
 30
0.0
 10
47.5279927338
 20
182.4641225345
 30
0.0
  0
SPLINE
  5
39B
100
AcDbEntity
  8
0
100
AcDbSpline
 62
7
  6
CONTINUOUS
 70
0
 71
3
 72
20
 73
16
 74
0
 42
0.0000001
 43
0.0000001
 44
0.0000000001
 40
0.0
 40
0.0
 40
0.0
 40
0.0
 40
0.0635398473
 40
0.1313010369
 40
0.275800894
 40
0.4253203819
 40
0.5704245934
 40
0.6386609216
 40
0.7027877764
 40
0.762231991
 40
0.8167811825
 40
0.8666954973
 40
0.9128172703
 40
0.9566086896
 40
1.0
 40
1.0
 40
1.0
 40
1.0
 10
52.6367500063
 20
177.4938960569
 30
0.0
 10
52.6367500063
 20
177.7017377172
 30
0.0
 10
52.6070122817
 20
178.1315626721
 30
0.0
 10
52.4411311024
 20
179.0198251031
 30
0.0
 10
52.0428568212
 20
180.1428729247
 30
0.0
 10
51.3283992307
 20
181.3965022426
 30
0.0
 10
50.5636331764
 20
182.3146414402
 30
0.0
 10
49.8814263027
 20
182.9156102836
 30
0.0
 10
49.3653188119
 20
183.2751212394
 30
0.0
 10
48.8463147982
 20
183.5440755887
 30
0.0
 10
48.3357892622
 20
183.715869817
 30
0.0
 10
47.8448238692
 20
183.7854552653
 30
0.0
 10
47.384514796
 20
183.7488537671
 30
0.0
 10
46.9678617457
 20
183.6042738392
 30
0.0
 10
46.7304240555
 20
183.4390619419
 30
0.0
 10
46.625403108
 20
183.3435835834
 30
0.0
  0
SPLINE
  5
39C
100
AcDbEntity
  8
0
100
AcDbSpline
 62
7
  6
CONTINUOUS
 70
0
 71
3
 72
11
 73
7
 74
0
 42
0.0000001
 43
0.0000001
 44
0.0000000001
 40
0.0
 40
0.0
 40
0.0
 40
0.0
 40
0.2897894332
 40
0.5490567506
 40
0.7822291216
 40
1.0
 40
1.0
 40
1.0
 40
1.0
 10
56.3490760633
 20
175.3506320957
 30
0.0
 10
56.3490760633
 20
175.5280258629
 30
0.0
 10
56.375876472
 20
175.8652884323
 30
0.0
 10
56.5125918854
 20
176.3286327639
 30
0.0
 10
56.742452748
 20
176.7046558622
 30
0.0
 10
56.9585326614
 20
176.8862070215
 30
0.0
 10
57.0739740233
 20
176.9528723485
 30
0.0
  0
SPLINE
  5
39D
100
AcDbEntity
  8
0
100
AcDbSpline
 62
7
  6
CONTINUOUS
 70
0
 71
3
 72
26
 73
22
 74
0
 42
0.0000001
 43
0.0000001
 44
0.0000000001
 40
0.0
 40
0.0
 40
0.0
 40
0.0
 40
0.0563453067
 40
0.1127398616
 40
0.1692508358
 40
0.2260257317
 40
0.2834276262
 40
0.3126750778
 40
0.3426163419
 40
0.3737469798
 40
0.4067034736
 40
0.4415486564
 40
0.4771632905
 40
0.5124591281
 40
0.5471123249
 40
0.6146849059
 40
0.6806923036
 40
0.7456671326
 40
0.8099248018
 40
0.8736576633
 40
1.0
 40
1.0
 40
1.0
 40
1.0
 10
52.9449229674
 20
185.8896448127
 30
0.0
 10
52.8540225926
 20
185.753379409
 30
0.0
 10
52.6761762043
 20
185.4779952535
 30
0.0
 10
52.4251804594
 20
185.0546349173
 30
0.0
 10
52.1954829578
 20
184.6177280709
 30
0.0
 10
51.9966603595
 20
184.1625895596
 30
0.0
 10
51.8717913493
 20
183.7630049719
 30
0.0
 10
51.8164718328
 20
183.427949227
 30
0.0
 10
51.8075275491
 20
183.1645380664
 30
0.0
 10
51.8480911607
 20
182.8921052512
 30
0.0
 10
51.9616697807
 20
182.623594264
 30
0.0
 10
52.1584472579
 20
182.3904247932
 30
0.0
 10
52.4138385443
 20
182.2144774582
 30
0.0
 10
52.6959687681
 20
182.0906861445
 30
0.0
 10
53.0805459388
 20
181.9787576545
 30
0.0
 10
53.5659361156
 20
181.905801501
 30
0.0
 10
54.1428668089
 20
181.877339466
 30
0.0
 10
54.7106877135
 20
181.8861733862
 30
0.0
 10
55.2707489239
 20
181.9203067352
 30
0.0
 10
56.006913194
 20
181.9901579862
 30
0.0
 10
56.5548006584
 20
182.0636375279
 30
0.0
 10
56.9179627199
 20
182.1185579899
 30
0.0
  0
SPLINE
  5
39E
100
AcDbEntity
  8
0
100
AcDbSpline
 62
7
  6
CONTINUOUS
 70
0
 71
3
 72
18
 73
14
 74
0
 42
0.0000001
 43
0.0000001
 44
0.0000000001
 40
0.0
 40
0.0
 40
0.0
 40
0.0
 40
0.1295176707
 40
0.2569642371
 40
0.3819103821
 40
0.5038527579
 40
0.622371763
 40
0.680503277
 40
0.7382528051
 40
0.7965300197
 40
0.8572842788
 40
0.9238776936
 40
1.0
 40
1.0
 40
1.0
 40
1.0
 10
55.7610514858
 20
177.2523106404
 30
0.0
 10
55.661196996
 20
177.2441139428
 30
0.0
 10
55.4627930517
 20
177.2310727752
 30
0.0
 10
55.1673367795
 20
177.2241913107
 30
0.0
 10
54.8776916713
 20
177.2338134105
 30
0.0
 10
54.5964901097
 20
177.2655729026
 30
0.0
 10
54.3705768997
 20
177.318575268
 30
0.0
 10
54.2016719377
 20
177.385533621
 30
0.0
 10
54.0835222775
 20
177.451305389
 30
0.0
 10
53.9766405241
 20
177.538040225
 30
0.0
 10
53.8876045488
 20
177.6527002181
 30
0.0
 10
53.8278924996
 20
177.8005605516
 30
0.0
 10
53.8160737218
 20
177.9117672243
 30
0.0
 10
53.8160737218
 20
177.9706527803
 30
0.0
  0
SPLINE
  5
39F
100
AcDbEntity
  8
0
100
AcDbSpline
 62
7
  6
CONTINUOUS
 70
0
 71
3
 72
16
 73
12
 74
0
 42
0.0000001
 43
0.0000001
 44
0.0000000001
 40
0.0
 40
0.0
 40
0.0
 40
0.0
 40
0.2450111448
 40
0.3689264915
 40
0.4940953359
 40
0.6208473344
 40
0.7494895757
 40
0.814455243
 40
0.8793300264
 40
0.9425037136
 40
1.0
 40
1.0
 40
1.0
 40
1.0
 10
56.9179627199
 20
182.1185579899
 30
0.0
 10
56.6122084789
 20
181.8175242433
 30
0.0
 10
56.1571293484
 20
181.3587108304
 30
0.0
 10
55.5655794997
 20
180.727136245
 30
0.0
 10
55.1281184725
 20
180.235211606
 30
0.0
 10
54.7036260517
 20
179.7212403452
 30
0.0
 10
54.3704658892
 20
179.2690394158
 30
0.0
 10
54.1298358205
 20
178.8853528846
 30
0.0
 10
53.9717992639
 20
178.585932014
 30
0.0
 10
53.8536987663
 20
178.2824365897
 30
0.0
 10
53.8160737218
 20
178.071343414
 30
0.0
 10
53.8160737218
 20
177.9706527803
 30
0.0
  0
SPLINE
  5
3A0
100
AcDbEntity
  8
0
100
AcDbSpline
 62
7
  6
CONTINUOUS
 70
0
 71
3
 72
15
 73
11
 74
0
 42
0.0000001
 43
0.0000001
 44
0.0000000001
 40
0.0
 40
0.0
 40
0.0
 40
0.0
 40
0.2466740477
 40
0.4975549114
 40
0.6250758178
 40
0.7539347521
 40
0.8184923497
 40
0.8823100621
 40
0.9437468532
 40
1.0
 40
1.0
 40
1.0
 40
1.0
 10
65.5891031256
 20
175.7220438392
 30
0.0
 10
65.3611067481
 20
175.4838982534
 30
0.0
 10
64.9081667552
 20
174.9968826694
 30
0.0
 10
64.366190171
 20
174.3602406645
 30
0.0
 10
63.9593632895
 20
173.8176335463
 30
0.0
 10
63.7240000837
 20
173.4582974902
 30
0.0
 10
63.5598072269
 20
173.1559828493
 30
0.0
 10
63.4563996653
 20
172.9238854529
 30
0.0
 10
63.3832039492
 20
172.6919519478
 30
0.0
 10
63.3620550112
 20
172.5345872958
 30
0.0
 10
63.3620550112
 20
172.4594025942
 30
0.0
  0
SPLINE
  5
3A1
100
AcDbEntity
  8
0
100
AcDbSpline
 62
7
  6
CONTINUOUS
 70
0
 71
3
 72
9
 73
5
 74
0
 42
0.0000001
 43
0.0000001
 44
0.0000000001
 40
0.0
 40
0.0
 40
0.0
 40
0.0
 40
0.4842934529
 40
1.0
 40
1.0
 40
1.0
 40
1.0
 10
42.2068609526
 20
180.6576274456
 30
0.0
 10
41.9487339015
 20
180.8066537966
 30
0.0
 10
41.4361493492
 20
181.1504639809
 30
0.0
 10
40.9659480577
 20
181.5494979048
 30
0.0
 10
40.734356648
 20
181.7665287924
 30
0.0
  0
SPLINE
  5
3A2
100
AcDbEntity
  8
0
100
AcDbSpline
 62
7
  6
CONTINUOUS
 70
0
 71
3
 72
14
 73
10
 74
0
 42
0.0000001
 43
0.0000001
 44
0.0000000001
 40
0.0
 40
0.0
 40
0.0
 40
0.0
 40
0.3024185634
 40
0.440270599
 40
0.5682941054
 40
0.6867221483
 40
0.7966369766
 40
0.9000799381
 40
1.0
 40
1.0
 40
1.0
 40
1.0
 10
37.4773219242
 20
187.4178423576
 30
0.0
 10
37.3521167859
 20
187.9585400006
 30
0.0
 10
37.236001979
 20
188.765799978
 30
0.0
 10
37.2679724605
 20
189.8103938395
 30
0.0
 10
37.3815423682
 20
190.5089004663
 30
0.0
 10
37.5841070123
 20
191.1338219803
 30
0.0
 10
37.87360768
 20
191.6738347617
 30
0.0
 10
38.2460868294
 20
192.1175144862
 30
0.0
 10
38.5480806094
 20
192.3436232754
 30
0.0
 10
38.7068883775
 20
192.4353108434
 30
0.0
  0
SPLINE
  5
3A3
100
AcDbEntity
  8
0
100
AcDbSpline
 62
7
  6
CONTINUOUS
 70
0
 71
3
 72
11
 73
7
 74
0
 42
0.0000001
 43
0.0000001
 44
0.0000000001
 40
0.0
 40
0.0
 40
0.0
 40
0.0
 40
0.2848443418
 40
0.5445152259
 40
0.7809897299
 40
1.0
 40
1.0
 40
1.0
 40
1.0
 10
113.3418116769
 20
185.1894122357
 30
0.0
 10
113.3418116769
 20
185.3936420589
 30
0.0
 10
113.3152922326
 20
185.7849336174
 30
0.0
 10
113.183272589
 20
186.3323897106
 30
0.0
 10
112.9624025724
 20
186.7996683229
 30
0.0
 10
112.7517991903
 20
187.0551894827
 30
0.0
 10
112.6356104107
 20
187.1608201627
 30
0.0
  0
SPLINE
  5
3A4
100
AcDbEntity
  8
0
100
AcDbSpline
 62
7
  6
CONTINUOUS
 70
0
 71
3
 72
18
 73
14
 74
0
 42
0.0000001
 43
0.0000001
 44
0.0000000001
 40
0.0
 40
0.0
 40
0.0
 40
0.0
 40
0.1286550902
 40
0.2702045902
 40
0.4173197676
 40
0.561629525
 40
0.6952654826
 40
0.7562711427
 40
0.8127619086
 40
0.8647130767
 40
0.9125343952
 40
0.9571517344
 40
1.0
 40
1.0
 40
1.0
 40
1.0
 10
107.5082050199
 20
181.8213979662
 30
0.0
 10
107.5082050199
 20
182.1205616612
 30
0.0
 10
107.5919100586
 20
182.7495937
 30
0.0
 10
107.9042265409
 20
183.6731657992
 30
0.0
 10
108.3857079189
 20
184.5629978099
 30
0.0
 10
108.9968998107
 20
185.3454977579
 30
0.0
 10
109.5916287483
 20
185.8722587458
 30
0.0
 10
110.0908794705
 20
186.1778314519
 30
0.0
 10
110.452539008
 20
186.3376393817
 30
0.0
 10
110.8053891757
 20
186.4314127731
 30
0.0
 10
111.1425589214
 20
186.4562419905
 30
0.0
 10
111.4565282181
 20
186.4101945648
 30
0.0
 10
111.6467491847
 20
186.3311721211
 30
0.0
 10
111.733031788
 20
186.2813464893
 30
0.0
  0
SPLINE
  5
3A5
100
AcDbEntity
  8
0
100
AcDbSpline
 62
7
  6
CONTINUOUS
 70
0
 71
3
 72
17
 73
13
 74
0
 42
0.0000001
 43
0.0000001
 44
0.0000000001
 40
0.0
 40
0.0
 40
0.0
 40
0.0
 40
0.0428588778
 40
0.0874877443
 40
0.1353219067
 40
0.1872874161
 40
0.3045509819
 40
0.4382211777
 40
0.582566321
 40
0.7297199338
 40
0.8713085832
 40
1.0
 40
1.0
 40
1.0
 40
1.0
 10
108.1295440887
 20
180.8562907201
 30
0.0
 10
108.2034993147
 20
180.8135836886
 30
0.0
 10
108.3665451665
 20
180.7458505306
 30
0.0
 10
108.6356560863
 20
180.7063873198
 30
0.0
 10
108.9246753659
 20
180.7276440289
 30
0.0
 10
109.3445941617
 20
180.8393929317
 30
0.0
 10
109.8814269221
 20
181.1328913896
 30
0.0
 10
110.4745005225
 20
181.6581819352
 30
0.0
 10
110.998754294
 20
182.3292225406
 30
0.0
 10
111.4113466675
 20
183.0918391131
 30
0.0
 10
111.6790816048
 20
183.8835012161
 30
0.0
 10
111.7508250992
 20
184.4226747645
 30
0.0
 10
111.7508250992
 20
184.6791053437
 30
0.0
  0
SPLINE
  5
3A6
100
AcDbEntity
  8
0
100
AcDbSpline
 62
7
  6
CONTINUOUS
 70
0
 71
3
 72
11
 73
7
 74
0
 42
0.0000001
 43
0.0000001
 44
0.0000000001
 40
0.0
 40
0.0
 40
0.0
 40
0.0
 40
0.2177727241
 40
0.4509313669
 40
0.7102281898
 40
1.0
 40
1.0
 40
1.0
 40
1.0
 10
89.4413001475
 20
169.7161910144
 30
0.0
 10
89.3456411625
 20
169.7714156117
 30
0.0
 10
89.1666309099
 20
169.9218676842
 30
0.0
 10
88.9761352815
 20
170.2334073387
 30
0.0
 10
88.8628851787
 20
170.6173322542
 30
0.0
 10
88.8406637174
 20
170.8967785993
 30
0.0
 10
88.8406637174
 20
171.043752304
 30
0.0
  0
SPLINE
  5
3A7
100
AcDbEntity
  8
0
100
AcDbSpline
 62
7
  6
CONTINUOUS
 70
0
 71
3
 72
18
 73
14
 74
0
 42
0.0000001
 43
0.0000001
 44
0.0000000001
 40
0.0
 40
0.0
 40
0.0
 40
0.0
 40
0.0428480947
 40
0.0874655739
 40
0.1352871954
 40
0.1872387214
 40
0.2437295447
 40
0.304734779
 40
0.438368641
 40
0.5826760382
 40
0.7297915758
 40
0.8713430344
 40
1.0
 40
1.0
 40
1.0
 40
1.0
 10
89.1413006246
 20
169.1965648366
 30
0.0
 10
89.2275827971
 20
169.1467392505
 30
0.0
 10
89.4178045084
 20
169.0677184777
 30
0.0
 10
89.7317741835
 20
169.0216714512
 30
0.0
 10
90.0689460397
 20
169.0464989208
 30
0.0
 10
90.4217974956
 20
169.1402746188
 30
0.0
 10
90.7834564628
 20
169.300083467
 30
0.0
 10
91.2827025969
 20
169.6056527244
 30
0.0
 10
91.8774226801
 20
170.1324061867
 30
0.0
 10
92.4886130992
 20
170.9148950596
 30
0.0
 10
92.9700957958
 20
171.8047262961
 30
0.0
 10
93.2824210858
 20
172.7283057036
 30
0.0
 10
93.3661282756
 20
173.3573468287
 30
0.0
 10
93.3661282756
 20
173.6565148888
 30
0.0
  0
SPLINE
  5
3A8
100
AcDbEntity
  8
0
100
AcDbSpline
 62
7
  6
CONTINUOUS
 70
0
 71
3
 72
15
 73
11
 74
0
 42
0.0000001
 43
0.0000001
 44
0.0000000001
 40
0.0
 40
0.0
 40
0.0
 40
0.0
 40
0.1141543519
 40
0.237325601
 40
0.366974755
 40
0.4999984147
 40
0.6330222943
 40
0.7626720931
 40
0.8858443543
 40
1.0
 40
1.0
 40
1.0
 40
1.0
 10
111.3972555168
 20
175.0035027018
 30
0.0
 10
111.6296089027
 20
175.1376511909
 30
0.0
 10
112.0885484408
 20
175.4593645625
 30
0.0
 10
112.720024186
 20
176.0501613653
 30
0.0
 10
113.3019632107
 20
176.7485272696
 30
0.0
 10
113.812446472
 20
177.5282643348
 30
0.0
 10
114.2324735262
 20
178.360227756
 30
0.0
 10
114.5463045727
 20
179.2133901064
 30
0.0
 10
114.7422111612
 20
180.0556697481
 30
0.0
 10
114.7913539354
 20
180.6139850224
 30
0.0
 10
114.7913539354
 20
180.8822862426
 30
0.0
  0
SPLINE
  5
3A9
100
AcDbEntity
  8
0
100
AcDbSpline
 62
7
  6
CONTINUOUS
 70
0
 71
3
 72
13
 73
9
 74
0
 42
0.0000001
 43
0.0000001
 44
0.0000000001
 40
0.0
 40
0.0
 40
0.0
 40
0.0
 40
0.2894091221
 40
0.5482905172
 40
0.6677437784
 40
0.7817700881
 40
0.8919033495
 40
1.0
 40
1.0
 40
1.0
 40
1.0
 10
107.5081844121
 20
190.3946120655
 30
0.0
 10
107.8154473527
 20
190.572009348
 30
0.0
 10
108.4260223567
 20
190.8628558321
 30
0.0
 10
109.2300374716
 20
191.0564687171
 30
0.0
 10
109.8351124115
 20
191.0775620477
 30
0.0
 10
110.2554227113
 20
191.0306682183
 30
0.0
 10
110.6496933415
 20
190.9216779374
 30
0.0
 10
110.8933475945
 20
190.8075453089
 30
0.0
 10
111.0081132881
 20
190.7412868489
 30
0.0
  0
SPLINE
  5
3AA
100
AcDbEntity
  8
0
100
AcDbSpline
 62
7
  6
CONTINUOUS
 70
0
 71
3
 72
10
 73
6
 74
0
 42
0.0000001
 43
0.0000001
 44
0.0000000001
 40
0.0
 40
0.0
 40
0.0
 40
0.0
 40
0.235261379
 40
0.4770848103
 40
1.0
 40
1.0
 40
1.0
 40
1.0
 10
87.477081437
 20
169.5800243076
 30
0.0
 10
87.5573676319
 20
169.5336743711
 30
0.0
 10
87.7306688776
 20
169.4566658825
 30
0.0
 10
88.117729488
 20
169.3723635726
 30
0.0
 10
88.4258892063
 20
169.3953914982
 30
0.0
 10
88.6273945294
 20
169.4384525483
 30
0.0
  0
SPLINE
  5
3AB
100
AcDbEntity
  8
0
100
AcDbSpline
 62
7
  6
CONTINUOUS
 70
0
 71
3
 72
17
 73
13
 74
0
 42
0.0000001
 43
0.0000001
 44
0.0000000001
 40
0.0
 40
0.0
 40
0.0
 40
0.0
 40
0.0428588778
 40
0.0874877443
 40
0.1353219067
 40
0.1872874161
 40
0.3045509819
 40
0.4382211777
 40
0.582566321
 40
0.7297199338
 40
0.8713085832
 40
1.0
 40
1.0
 40
1.0
 40
1.0
 10
98.5836422864
 20
175.3449946429
 30
0.0
 10
98.6575975123
 20
175.3022876114
 30
0.0
 10
98.8206433641
 20
175.2345544534
 30
0.0
 10
99.089754284
 20
175.1950912426
 30
0.0
 10
99.3787735635
 20
175.2163479516
 30
0.0
 10
99.7986923593
 20
175.3280968545
 30
0.0
 10
100.3355251197
 20
175.6215953123
 30
0.0
 10
100.9285987201
 20
176.146885858
 30
0.0
 10
101.4528524916
 20
176.8179264634
 30
0.0
 10
101.8654448651
 20
177.5805430358
 30
0.0
 10
102.1331798025
 20
178.3722051388
 30
0.0
 10
102.2049232968
 20
178.9113786872
 30
0.0
 10
102.2049232968
 20
179.1678092664
 30
0.0
  0
SPLINE
  5
3AC
100
AcDbEntity
  8
0
100
AcDbSpline
 62
7
  6
CONTINUOUS
 70
0
 71
3
 72
12
 73
8
 74
0
 42
0.0000001
 43
0.0000001
 44
0.0000000001
 40
0.0
 40
0.0
 40
0.0
 40
0.0
 40
0.1081592661
 40
0.2183613031
 40
0.4513561008
 40
0.7104298246
 40
1.0
 40
1.0
 40
1.0
 40
1.0
 10
98.6872033099
 20
174.707862443
 30
0.0
 10
98.6298237925
 20
174.7409974041
 30
0.0
 10
98.5194889996
 20
174.817989003
 30
0.0
 10
98.3215776094
 20
175.0126636269
 30
0.0
 10
98.1255550504
 20
175.3322207045
 30
0.0
 10
97.9891933978
 20
175.7954019766
 30
0.0
 10
97.9623032175
 20
176.1327078956
 30
0.0
 10
97.9623032175
 20
176.310101889
 30
0.0
  0
SPLINE
  5
3AD
100
AcDbEntity
  8
0
100
AcDbSpline
 62
7
  6
CONTINUOUS
 70
0
 71
3
 72
12
 73
8
 74
0
 42
0.0000001
 43
0.0000001
 44
0.0000000001
 40
0.0
 40
0.0
 40
0.0
 40
0.0
 40
0.1257677768
 40
0.2531262668
 40
0.5055784715
 40
0.7542790428
 40
1.0
 40
1.0
 40
1.0
 40
1.0
 10
97.056390384
 20
173.9083804334
 30
0.0
 10
96.8716280682
 20
173.9674206128
 30
0.0
 10
96.5038978702
 20
174.0990624435
 30
0.0
 10
95.7782742314
 20
174.3845134149
 30
0.0
 10
94.8861900907
 20
174.764084852
 30
0.0
 10
93.8341224198
 20
175.2330986569
 30
0.0
 10
93.1410493424
 20
175.5510898634
 30
0.0
 10
92.7971780025
 20
175.7103591448
 30
0.0
  0
SPLINE
  5
3AE
100
AcDbEntity
  8
0
100
AcDbSpline
 62
7
  6
CONTINUOUS
 70
0
 71
3
 72
18
 73
14
 74
0
 42
0.0000001
 43
0.0000001
 44
0.0000000001
 40
0.0
 40
0.0
 40
0.0
 40
0.0
 40
0.0434131409
 40
0.0895716779
 40
0.139401263
 40
0.1933859083
 40
0.2516216051
 40
0.3138915027
 40
0.4483486123
 40
0.5913041241
 40
0.7356284894
 40
0.8739737944
 40
1.0
 40
1.0
 40
1.0
 40
1.0
 10
98.3768733764
 20
173.4864702557
 30
0.0
 10
98.5026608739
 20
173.4462674036
 30
0.0
 10
98.7729861578
 20
173.3945922275
 30
0.0
 10
99.1995108213
 20
173.4053370565
 30
0.0
 10
99.6479343786
 20
173.5005786051
 30
0.0
 10
100.1098238859
 20
173.6774939939
 30
0.0
 10
100.5770657909
 20
173.9321883701
 30
0.0
 10
101.2117359113
 20
174.3803456562
 30
0.0
 10
101.9581494826
 20
175.1044926252
 30
0.0
 10
102.7188522243
 20
176.1439067784
 30
0.0
 10
103.312262154
 20
177.301036444
 30
0.0
 10
103.6945479972
 20
178.4896623598
 30
0.0
 10
103.7959098745
 20
179.294764363
 30
0.0
 10
103.7959098745
 20
179.6781161584
 30
0.0
  0
SPLINE
  5
3AF
100
AcDbEntity
  8
0
100
AcDbSpline
 62
7
  6
CONTINUOUS
 70
0
 71
3
 72
9
 73
5
 74
0
 42
0.0000001
 43
0.0000001
 44
0.0000000001
 40
0.0
 40
0.0
 40
0.0
 40
0.0
 40
0.4835873803
 40
1.0
 40
1.0
 40
1.0
 40
1.0
 10
100.8500231996
 20
183.6859738496
 30
0.0
 10
100.6973716663
 20
183.8247764066
 30
0.0
 10
100.3730298339
 20
184.1022207287
 30
0.0
 10
100.0409420954
 20
184.3700965418
 30
0.0
 10
99.8682163746
 20
184.5068795867
 30
0.0
  0
SPLINE
  5
3B0
100
AcDbEntity
  8
0
100
AcDbSpline
 62
7
  6
CONTINUOUS
 70
0
 71
3
 72
21
 73
17
 74
0
 42
0.0000001
 43
0.0000001
 44
0.0000000001
 40
0.0
 40
0.0
 40
0.0
 40
0.0
 40
0.0428266218
 40
0.0874211752
 40
0.1352175795
 40
0.1871416192
 40
0.2436041526
 40
0.3045784502
 40
0.3696940666
 40
0.4383206792
 40
0.5825522947
 40
0.7295900821
 40
0.8015983809
 40
0.8712181601
 40
0.9375934885
 40
1.0
 40
1.0
 40
1.0
 40
1.0
 10
84.9164519313
 20
167.5943112877
 30
0.0
 10
84.7438705981
 20
167.6939488448
 30
0.0
 10
84.4167200861
 20
167.944341273
 30
0.0
 10
84.0230228019
 20
168.4421626906
 30
0.0
 10
83.7288345005
 20
169.0509802586
 30
0.0
 10
83.5383579864
 20
169.7559301771
 30
0.0
 10
83.4535558754
 20
170.5421455558
 30
0.0
 10
83.4752323304
 20
171.3934485723
 30
0.0
 10
83.6024463623
 20
172.2923409288
 30
0.0
 10
83.9142449325
 20
173.5495566983
 30
0.0
 10
84.5454863091
 20
175.1107538542
 30
0.0
 10
85.4350042169
 20
176.5580966353
 30
0.0
 10
86.2813830817
 20
177.6030529306
 30
0.0
 10
86.9577394062
 20
178.2975179359
 30
0.0
 10
87.6652745155
 20
178.8929177802
 30
0.0
 10
88.1648981588
 20
179.2268272028
 30
0.0
 10
88.4163808073
 20
179.372019911
 30
0.0
  0
SPLINE
  5
3B1
100
AcDbEntity
  8
0
100
AcDbSpline
 62
7
  6
CONTINUOUS
 70
0
 71
3
 72
12
 73
8
 74
0
 42
0.0000001
 43
0.0000001
 44
0.0000000001
 40
0.0
 40
0.0
 40
0.0
 40
0.0
 40
0.1081620389
 40
0.2183637051
 40
0.4513660653
 40
0.7104193096
 40
1.0
 40
1.0
 40
1.0
 40
1.0
 10
82.1273545208
 20
159.2524981056
 30
0.0
 10
82.2060499576
 20
159.2070643041
 30
0.0
 10
82.3731673015
 20
159.1288636298
 30
0.0
 10
82.7400650167
 20
159.0272369035
 30
0.0
 10
83.2539965372
 20
159.0136190476
 30
0.0
 10
83.8975914714
 20
159.1692212509
 30
0.0
 10
84.3166204073
 20
159.3685840594
 30
0.0
 10
84.5273097027
 20
159.4902248547
 30
0.0
  0
SPLINE
  5
3B2
100
AcDbEntity
  8
0
100
AcDbSpline
 62
7
  6
CONTINUOUS
 70
0
 71
3
 72
12
 73
8
 74
0
 42
0.0000001
 43
0.0000001
 44
0.0000000001
 40
0.0
 40
0.0
 40
0.0
 40
0.0
 40
0.1081612896
 40
0.2183623225
 40
0.4513640816
 40
0.710417852
 40
1.0
 40
1.0
 40
1.0
 40
1.0
 10
80.7131350705
 20
160.0689796146
 30
0.0
 10
80.6344370538
 20
160.114414896
 30
0.0
 10
80.4831477539
 20
160.2200434635
 30
0.0
 10
80.2116748728
 20
160.4869792179
 30
0.0
 10
79.9429032601
 20
160.9252640777
 30
0.0
 10
79.7558536494
 20
161.5604612241
 30
0.0
 10
79.7189918337
 20
162.0230524751
 30
0.0
 10
79.7189918337
 20
162.2663460274
 30
0.0
  0
SPLINE
  5
3B3
100
AcDbEntity
  8
0
100
AcDbSpline
 62
7
  6
CONTINUOUS
 70
0
 71
3
 72
9
 73
5
 74
0
 42
0.0000001
 43
0.0000001
 44
0.0000000001
 40
0.0
 40
0.0
 40
0.0
 40
0.0
 40
0.4835873803
 40
1.0
 40
1.0
 40
1.0
 40
1.0
 10
110.395925002
 20
189.1972699269
 30
0.0
 10
110.2432734687
 20
189.3360724839
 30
0.0
 10
109.9189316363
 20
189.613516806
 30
0.0
 10
109.5868438978
 20
189.8813926191
 30
0.0
 10
109.414118177
 20
190.018175664
 30
0.0
  0
SPLINE
  5
3B4
100
AcDbEntity
  8
0
100
AcDbSpline
 62
7
  6
CONTINUOUS
 70
0
 71
3
 72
12
 73
8
 74
0
 42
0.0000001
 43
0.0000001
 44
0.0000000001
 40
0.0
 40
0.0
 40
0.0
 40
0.0
 40
0.1243363243
 40
0.2506944523
 40
0.5030288512
 40
0.7528084875
 40
1.0
 40
1.0
 40
1.0
 40
1.0
 10
106.6022921863
 20
179.4196765106
 30
0.0
 10
106.4746242076
 20
179.4604723858
 30
0.0
 10
106.2192464319
 20
179.5490865313
 30
0.0
 10
105.7120189736
 20
179.7408409598
 30
0.0
 10
105.0847860975
 20
179.9970849231
 30
0.0
 10
104.3427742977
 20
180.3162025282
 30
0.0
 10
103.8532002765
 20
180.5337181124
 30
0.0
 10
103.6101438795
 20
180.6429145267
 30
0.0
  0
SPLINE
  5
3B5
100
AcDbEntity
  8
0
100
AcDbSpline
 62
7
  6
CONTINUOUS
 70
0
 71
3
 72
18
 73
14
 74
0
 42
0.0000001
 43
0.0000001
 44
0.0000000001
 40
0.0
 40
0.0
 40
0.0
 40
0.0
 40
0.0434131409
 40
0.0895716779
 40
0.139401263
 40
0.1933859083
 40
0.2516216051
 40
0.3138915027
 40
0.4483486123
 40
0.5913041241
 40
0.7356284894
 40
0.8739737944
 40
1.0
 40
1.0
 40
1.0
 40
1.0
 10
107.9227751788
 20
178.997766333
 30
0.0
 10
108.0485626763
 20
178.9575634808
 30
0.0
 10
108.3188879602
 20
178.9058883048
 30
0.0
 10
108.7454126237
 20
178.9166331338
 30
0.0
 10
109.193836181
 20
179.0118746824
 30
0.0
 10
109.6557256883
 20
179.1887900712
 30
0.0
 10
110.1229675933
 20
179.4434844473
 30
0.0
 10
110.7576377137
 20
179.8916417334
 30
0.0
 10
111.504051285
 20
180.6157887025
 30
0.0
 10
112.2647540267
 20
181.6552028557
 30
0.0
 10
112.8581639563
 20
182.8123325212
 30
0.0
 10
113.2404497995
 20
184.0009584371
 30
0.0
 10
113.3418116769
 20
184.8060604402
 30
0.0
 10
113.3418116769
 20
185.1894122357
 30
0.0
  0
SPLINE
  5
3B6
100
AcDbEntity
  8
0
100
AcDbSpline
 62
7
  6
CONTINUOUS
 70
0
 71
3
 72
12
 73
8
 74
0
 42
0.0000001
 43
0.0000001
 44
0.0000000001
 40
0.0
 40
0.0
 40
0.0
 40
0.0
 40
0.1081592661
 40
0.2183613031
 40
0.4513561008
 40
0.7104298246
 40
1.0
 40
1.0
 40
1.0
 40
1.0
 10
108.2331051122
 20
180.2191585203
 30
0.0
 10
108.1757255949
 20
180.2522934814
 30
0.0
 10
108.0653908019
 20
180.3292850803
 30
0.0
 10
107.8674794118
 20
180.5239597041
 30
0.0
 10
107.6714568527
 20
180.8435167817
 30
0.0
 10
107.5350952002
 20
181.3066980539
 30
0.0
 10
107.5082050199
 20
181.6440039728
 30
0.0
 10
107.5082050199
 20
181.8213979662
 30
0.0
  0
SPLINE
  5
3B7
100
AcDbEntity
  8
0
100
AcDbSpline
 62
7
  6
CONTINUOUS
 70
0
 71
3
 72
11
 73
7
 74
0
 42
0.0000001
 43
0.0000001
 44
0.0000000001
 40
0.0
 40
0.0
 40
0.0
 40
0.0
 40
0.2897925309
 40
0.5490601265
 40
0.782231448
 40
1.0
 40
1.0
 40
1.0
 40
1.0
 10
111.7508250992
 20
184.6791053437
 30
0.0
 10
111.7508250992
 20
184.8311589549
 30
0.0
 10
111.727852665
 20
185.1202432304
 30
0.0
 10
111.6106675325
 20
185.5173972647
 30
0.0
 10
111.4136430717
 20
185.8397008831
 30
0.0
 10
111.2284323477
 20
185.9953146706
 30
0.0
 10
111.1294830864
 20
186.0524550439
 30
0.0
  0
SPLINE
  5
3B8
100
AcDbEntity
  8
0
100
AcDbSpline
 62
7
  6
CONTINUOUS
 70
0
 71
3
 72
17
 73
13
 74
0
 42
0.0000001
 43
0.0000001
 44
0.0000000001
 40
0.0
 40
0.0
 40
0.0
 40
0.0
 40
0.1286908751
 40
0.27027556
 40
0.4174299496
 40
0.5617767589
 40
0.6954477755
 40
0.8127135225
 40
0.8646767793
 40
0.9125110269
 40
0.9571410396
 40
1.0
 40
1.0
 40
1.0
 40
1.0
 10
88.8406637174
 20
171.043752304
 30
0.0
 10
88.8406637174
 20
171.2916338858
 30
0.0
 10
88.9100079898
 20
171.8128274736
 30
0.0
 10
89.1688345958
 20
172.5780864446
 30
0.0
 10
89.5676461102
 20
173.3152902013
 30
0.0
 10
90.0744286943
 20
173.9639745866
 30
0.0
 10
90.6477596202
 20
174.471724682
 30
0.0
 10
91.1666727662
 20
174.7555013094
 30
0.0
 10
91.5726091236
 20
174.8634740347
 30
0.0
 10
91.8519852837
 20
174.8840362567
 30
0.0
 10
92.1121405055
 20
174.8459229532
 30
0.0
 10
92.2697343385
 20
174.7804043649
 30
0.0
 10
92.3412295432
 20
174.7391296861
 30
0.0
  0
SPLINE
  5
3B9
100
AcDbEntity
  8
0
100
AcDbSpline
 62
7
  6
CONTINUOUS
 70
0
 71
3
 72
11
 73
7
 74
0
 42
0.0000001
 43
0.0000001
 44
0.0000000001
 40
0.0
 40
0.0
 40
0.0
 40
0.0
 40
0.2897903937
 40
0.5490579954
 40
0.7822299719
 40
1.0
 40
1.0
 40
1.0
 40
1.0
 10
93.3661282756
 20
173.6565148888
 30
0.0
 10
93.3661282756
 20
173.8339094561
 30
0.0
 10
93.339327894
 20
174.1711731932
 30
0.0
 10
93.2026123477
 20
174.6345186515
 30
0.0
 10
92.9727511363
 20
175.010541572
 30
0.0
 10
92.7566705959
 20
175.1920915496
 30
0.0
 10
92.6412290661
 20
175.2587558639
 30
0.0
  0
SPLINE
  5
3BA
100
AcDbEntity
  8
0
100
AcDbSpline
 62
7
  6
CONTINUOUS
 70
0
 71
3
 72
10
 73
6
 74
0
 42
0.0000001
 43
0.0000001
 44
0.0000000001
 40
0.0
 40
0.0
 40
0.0
 40
0.0
 40
0.5228926002
 40
0.7647292793
 40
1.0
 40
1.0
 40
1.0
 40
1.0
 10
92.1747055054
 20
175.5831733813
 30
0.0
 10
92.111228271
 20
175.779139506
 30
0.0
 10
91.9770693478
 20
176.0574134343
 30
0.0
 10
91.7105937936
 20
176.350377186
 30
0.0
 10
91.5572770795
 20
176.4619201365
 30
0.0
 10
91.4770093531
 20
176.508259411
 30
0.0
  0
SPLINE
  5
3BB
100
AcDbEntity
  8
0
100
AcDbSpline
 62
7
  6
CONTINUOUS
 70
0
 71
3
 72
11
 73
7
 74
0
 42
0.0000001
 43
0.0000001
 44
0.0000000001
 40
0.0
 40
0.0
 40
0.0
 40
0.0
 40
0.2897925309
 40
0.5490601265
 40
0.782231448
 40
1.0
 40
1.0
 40
1.0
 40
1.0
 10
102.2049232968
 20
179.1678092664
 30
0.0
 10
102.2049232968
 20
179.3198628776
 30
0.0
 10
102.1819508626
 20
179.6089471531
 30
0.0
 10
102.0647657301
 20
180.0061011874
 30
0.0
 10
101.8677412693
 20
180.3284048058
 30
0.0
 10
101.6825305453
 20
180.4840185933
 30
0.0
 10
101.583581284
 20
180.5411589667
 30
0.0
  0
SPLINE
  5
3BC
100
AcDbEntity
  8
0
100
AcDbSpline
 62
7
  6
CONTINUOUS
 70
0
 71
3
 72
18
 73
14
 74
0
 42
0.0000001
 43
0.0000001
 44
0.0000000001
 40
0.0
 40
0.0
 40
0.0
 40
0.0
 40
0.1286550902
 40
0.2702045902
 40
0.4173197676
 40
0.561629525
 40
0.6952654826
 40
0.7562711427
 40
0.8127619086
 40
0.8647130767
 40
0.9125343952
 40
0.9571517344
 40
1.0
 40
1.0
 40
1.0
 40
1.0
 10
97.9623032175
 20
176.310101889
 30
0.0
 10
97.9623032175
 20
176.6092655839
 30
0.0
 10
98.0460082563
 20
177.2382976227
 30
0.0
 10
98.3583247385
 20
178.1618697219
 30
0.0
 10
98.8398061165
 20
179.0517017326
 30
0.0
 10
99.4509980084
 20
179.8342016806
 30
0.0
 10
100.0457269459
 20
180.3609626685
 30
0.0
 10
100.5449776681
 20
180.6665353747
 30
0.0
 10
100.9066372056
 20
180.8263433044
 30
0.0
 10
101.2594873733
 20
180.9201166958
 30
0.0
 10
101.596657119
 20
180.9449459133
 30
0.0
 10
101.9106264157
 20
180.8988984876
 30
0.0
 10
102.1008473823
 20
180.8198760438
 30
0.0
 10
102.1871299856
 20
180.770050412
 30
0.0
  0
SPLINE
  5
3BD
100
AcDbEntity
  8
0
100
AcDbSpline
 62
7
  6
CONTINUOUS
 70
0
 71
3
 72
11
 73
7
 74
0
 42
0.0000001
 43
0.0000001
 44
0.0000000001
 40
0.0
 40
0.0
 40
0.0
 40
0.0
 40
0.2848443418
 40
0.5445152259
 40
0.7809897299
 40
1.0
 40
1.0
 40
1.0
 40
1.0
 10
103.7959098745
 20
179.6781161584
 30
0.0
 10
103.7959098745
 20
179.8823459816
 30
0.0
 10
103.7693904302
 20
180.2736375401
 30
0.0
 10
103.6373707866
 20
180.8210936333
 30
0.0
 10
103.41650077
 20
181.2883722456
 30
0.0
 10
103.2058973879
 20
181.5438934055
 30
0.0
 10
103.0897086083
 20
181.6495240855
 30
0.0
  0
SPLINE
  5
3BE
100
AcDbEntity
  8
0
100
AcDbSpline
 62
7
  6
CONTINUOUS
 70
0
 71
3
 72
13
 73
9
 74
0
 42
0.0000001
 43
0.0000001
 44
0.0000000001
 40
0.0
 40
0.0
 40
0.0
 40
0.0
 40
0.2894091221
 40
0.5482905172
 40
0.6677437784
 40
0.7817700881
 40
0.8919033495
 40
1.0
 40
1.0
 40
1.0
 40
1.0
 10
88.4163808073
 20
167.9409860712
 30
0.0
 10
88.1091178668
 20
167.7635887886
 30
0.0
 10
87.4985428627
 20
167.4727423045
 30
0.0
 10
86.6945277479
 20
167.2791294196
 30
0.0
 10
86.0894528079
 20
167.258036089
 30
0.0
 10
85.6691425082
 20
167.3049299183
 30
0.0
 10
85.2748718779
 20
167.4139201993
 30
0.0
 10
85.031217625
 20
167.5280528278
 30
0.0
 10
84.9164519313
 20
167.5943112877
 30
0.0
  0
SPLINE
  5
3BF
100
AcDbEntity
  8
0
100
AcDbSpline
 62
7
  6
CONTINUOUS
 70
0
 71
3
 72
18
 73
14
 74
0
 42
0.0000001
 43
0.0000001
 44
0.0000000001
 40
0.0
 40
0.0
 40
0.0
 40
0.0
 40
0.1286550902
 40
0.2702045902
 40
0.4173197676
 40
0.561629525
 40
0.6952654826
 40
0.7562711427
 40
0.8127619086
 40
0.8647130767
 40
0.9125343952
 40
0.9571517344
 40
1.0
 40
1.0
 40
1.0
 40
1.0
 10
112.4579318804
 20
184.6791070433
 30
0.0
 10
112.4579318804
 20
184.3799433484
 30
0.0
 10
112.3742268416
 20
183.7509113096
 30
0.0
 10
112.0619103594
 20
182.8273392104
 30
0.0
 10
111.5804289814
 20
181.9375071997
 30
0.0
 10
110.9692370895
 20
181.1550072517
 30
0.0
 10
110.374508152
 20
180.6282462638
 30
0.0
 10
109.8752574298
 20
180.3226735576
 30
0.0
 10
109.5135978923
 20
180.1628656279
 30
0.0
 10
109.1607477245
 20
180.0690922365
 30
0.0
 10
108.8235779789
 20
180.044263019
 30
0.0
 10
108.5096086822
 20
180.0903104447
 30
0.0
 10
108.3193877155
 20
180.1693328885
 30
0.0
 10
108.2331051122
 20
180.2191585203
 30
0.0
  0
SPLINE
  5
3C0
100
AcDbEntity
  8
0
100
AcDbSpline
 62
7
  6
CONTINUOUS
 70
0
 71
3
 72
10
 73
6
 74
0
 42
0.0000001
 43
0.0000001
 44
0.0000000001
 40
0.0
 40
0.0
 40
0.0
 40
0.0
 40
0.2372719105
 40
0.4801594835
 40
1.0
 40
1.0
 40
1.0
 40
1.0
 10
84.2950880044
 20
171.4171082722
 30
0.0
 10
84.2213919814
 20
171.4596553365
 30
0.0
 10
84.08022187
 20
171.5604908021
 30
0.0
 10
83.8312706022
 20
171.8208660216
 30
0.0
 10
83.6986638112
 20
172.0671913532
 30
0.0
 10
83.6326772948
 20
172.2415610746
 30
0.0
  0
SPLINE
  5
3C1
100
AcDbEntity
  8
0
100
AcDbSpline
 62
7
  6
CONTINUOUS
 70
0
 71
3
 72
11
 73
7
 74
0
 42
0.0000001
 43
0.0000001
 44
0.0000000001
 40
0.0
 40
0.0
 40
0.0
 40
0.0
 40
0.2177534441
 40
0.4512207062
 40
0.7106191132
 40
1.0
 40
1.0
 40
1.0
 40
1.0
 10
92.3578582244
 20
174.7293074922
 30
0.0
 10
92.451202372
 20
174.6729083996
 30
0.0
 10
92.6253046907
 20
174.5212967779
 30
0.0
 10
92.8102253801
 20
174.2117747597
 30
0.0
 10
92.9202288481
 20
173.8322616696
 30
0.0
 10
92.9418659733
 20
173.5565018198
 30
0.0
 10
92.9418659733
 20
173.4115683965
 30
0.0
  0
SPLINE
  5
3C2
100
AcDbEntity
  8
0
100
AcDbSpline
 62
7
  6
CONTINUOUS
 70
0
 71
3
 72
20
 73
16
 74
0
 42
0.0000001
 43
0.0000001
 44
0.0000000001
 40
0.0
 40
0.0
 40
0.0
 40
0.0
 40
0.0433909591
 40
0.0871824079
 40
0.1333045402
 40
0.1832193407
 40
0.2377688787
 40
0.2972131421
 40
0.3613396382
 40
0.4295751036
 40
0.5746769433
 40
0.7241955944
 40
0.8686967286
 40
0.9364594381
 40
1.0
 40
1.0
 40
1.0
 40
1.0
 10
112.6356104107
 20
187.1608201627
 30
0.0
 10
112.5305904041
 20
187.2562969785
 30
0.0
 10
112.2931519824
 20
187.4215039495
 30
0.0
 10
111.8764997767
 20
187.5660809131
 30
0.0
 10
111.4161887092
 20
187.6026746538
 30
0.0
 10
110.9252227834
 20
187.533080448
 30
0.0
 10
110.4146993514
 20
187.361277867
 30
0.0
 10
109.8957014909
 20
187.0923166889
 30
0.0
 10
109.3796041511
 20
186.732802559
 30
0.0
 10
108.6974150848
 20
186.1318370586
 30
0.0
 10
107.9326684569
 20
185.213706055
 30
0.0
 10
107.2182200797
 20
183.9600861259
 30
0.0
 10
106.8199456509
 20
182.8370366002
 30
0.0
 10
106.654064534
 20
181.9487663114
 30
0.0
 10
106.6243252234
 20
181.5189359151
 30
0.0
 10
106.6243252234
 20
181.3110927739
 30
0.0
  0
SPLINE
  5
3C3
100
AcDbEntity
  8
0
100
AcDbSpline
 62
7
  6
CONTINUOUS
 70
0
 71
3
 72
11
 73
7
 74
0
 42
0.0000001
 43
0.0000001
 44
0.0000000001
 40
0.0
 40
0.0
 40
0.0
 40
0.0
 40
0.2238748563
 40
0.4597670349
 40
0.7167994583
 40
1.0
 40
1.0
 40
1.0
 40
1.0
 10
101.583581284
 20
180.5411589667
 30
0.0
 10
101.4984996414
 20
180.5902911862
 30
0.0
 10
101.3074988266
 20
180.6651770259
 30
0.0
 10
100.9907991074
 20
180.6941319194
 30
0.0
 10
100.6513326209
 20
180.6431652606
 30
0.0
 10
100.4269900366
 20
180.5620998533
 30
0.0
 10
100.3137093365
 20
180.5109715175
 30
0.0
  0
SPLINE
  5
3C4
100
AcDbEntity
  8
0
100
AcDbSpline
 62
7
  6
CONTINUOUS
 70
0
 71
3
 72
34
 73
30
 74
0
 42
0.0000001
 43
0.0000001
 44
0.0000000001
 40
0.0
 40
0.0
 40
0.0
 40
0.0
 40
0.0838824857
 40
0.1682020794
 40
0.2530094578
 40
0.338351252
 40
0.424245734
 40
0.5106056672
 40
0.5538500429
 40
0.5969759144
 40
0.6397062925
 40
0.6814812003
 40
0.7211795121
 40
0.7567530885
 40
0.7853979971
 40
0.796473185
 40
0.8053795226
 40
0.8123950779
 40
0.8179907196
 40
0.8227711863
 40
0.8273452804
 40
0.83215739
 40
0.8374385347
 40
0.8496309951
 40
0.863920982
 40
0.8799873531
 40
0.9162616
 40
0.9566462567
 40
1.0
 40
1.0
 40
1.0
 40
1.0
 10
106.7274149814
 20
189.9443037601
 30
0.0
 10
106.8686190931
 20
189.880112212
 30
0.0
 10
107.1520278377
 20
189.7519756297
 30
0.0
 10
107.5792733617
 20
189.5613293984
 30
0.0
 10
108.0101314169
 20
189.3721749335
 30
0.0
 10
108.4450896917
 20
189.1851426125
 30
0.0
 10
108.884533738
 20
189.0013273314
 30
0.0
 10
109.2542265645
 20
188.8525466767
 30
0.0
 10
109.5523124074
 20
188.7378010877
 30
0.0
 10
109.7762015368
 20
188.654934513
 30
0.0
 10
109.9989080019
 20
188.5767710379
 30
0.0
 10
110.2173502028
 20
188.5057774443
 30
0.0
 10
110.4253983992
 20
188.4457899371
 30
0.0
 10
110.6126276082
 20
188.4023417037
 30
0.0
 10
110.750883322
 20
188.3823303935
 30
0.0
 10
110.8409503182
 20
188.3814854681
 30
0.0
 10
110.8907211072
 20
188.3871927072
 30
0.0
 10
110.9291176489
 20
188.3986737524
 30
0.0
 10
110.9570254831
 20
188.4156083914
 30
0.0
 10
110.9748733412
 20
188.4375075129
 30
0.0
 10
110.9832699476
 20
188.4628369339
 30
0.0
 10
110.984019109
 20
188.4902237954
 30
0.0
 10
110.9765046048
 20
188.5309469649
 30
0.0
 10
110.9532629515
 20
188.5854650307
 30
0.0
 10
110.9122966735
 20
188.6527266681
 30
0.0
 10
110.8389746391
 20
188.7519083731
 30
0.0
 10
110.7251119978
 20
188.8804149749
 30
0.0
 10
110.5685425799
 20
189.0377463904
 30
0.0
 10
110.4552382607
 20
189.1433377338
 30
0.0
 10
110.395925002
 20
189.1972699269
 30
0.0
  0
SPLINE
  5
3C5
100
AcDbEntity
  8
0
100
AcDbSpline
 62
7
  6
CONTINUOUS
 70
0
 71
3
 72
26
 73
22
 74
0
 42
0.0000001
 43
0.0000001
 44
0.0000000001
 40
0.0
 40
0.0
 40
0.0
 40
0.0
 40
0.1263424991
 40
0.1900754286
 40
0.2543331486
 40
0.3193079975
 40
0.3853153705
 40
0.4528878535
 40
0.4875412094
 40
0.5228371935
 40
0.5584520379
 40
0.5932971172
 40
0.6262531979
 40
0.6573835621
 40
0.6873245809
 40
0.716572025
 40
0.7739739936
 40
0.8307489773
 40
0.8872599967
 40
0.943654623
 40
1.0
 40
1.0
 40
1.0
 40
1.0
 10
102.3430798048
 20
185.9357341253
 30
0.0
 10
102.7062435215
 20
185.8808154021
 30
0.0
 10
103.2541334093
 20
185.8073386378
 30
0.0
 10
103.9903006283
 20
185.7374907175
 30
0.0
 10
104.5503637973
 20
185.703359617
 30
0.0
 10
105.1181862454
 20
185.6945299355
 30
0.0
 10
105.6951180931
 20
185.722993328
 30
0.0
 10
106.1805087697
 20
185.7959538285
 30
0.0
 10
106.5650877284
 20
185.9078820208
 30
0.0
 10
106.8472190184
 20
186.0316765766
 30
0.0
 10
107.1026108882
 20
186.2076259551
 30
0.0
 10
107.2993850792
 20
186.4407979833
 30
0.0
 10
107.4129611464
 20
186.7093084226
 30
0.0
 10
107.4535191203
 20
186.9817398968
 30
0.0
 10
107.444575857
 20
187.2451500823
 30
0.0
 10
107.3892520122
 20
187.5802056018
 30
0.0
 10
107.2643794673
 20
187.9797905547
 30
0.0
 10
107.0655494211
 20
188.4349278457
 30
0.0
 10
106.8358486118
 20
188.8718349346
 30
0.0
 10
106.5848470796
 20
189.2951939244
 30
0.0
 10
106.4069977567
 20
189.5705776204
 30
0.0
 10
106.3160956053
 20
189.7068425696
 30
0.0
  0
SPLINE
  5
3C6
100
AcDbEntity
  8
0
100
AcDbSpline
 62
7
  6
CONTINUOUS
 70
0
 71
3
 72
12
 73
8
 74
0
 42
0.0000001
 43
0.0000001
 44
0.0000000001
 40
0.0
 40
0.0
 40
0.0
 40
0.0
 40
0.1081592661
 40
0.2183613031
 40
0.4513561008
 40
0.7104298246
 40
1.0
 40
1.0
 40
1.0
 40
1.0
 10
102.1871299856
 20
180.770050412
 30
0.0
 10
102.244509503
 20
180.7369154509
 30
0.0
 10
102.3548442959
 20
180.659923852
 30
0.0
 10
102.552755686
 20
180.4652492282
 30
0.0
 10
102.7487782451
 20
180.1456921506
 30
0.0
 10
102.8851398976
 20
179.6825108784
 30
0.0
 10
102.912030078
 20
179.3452049595
 30
0.0
 10
102.912030078
 20
179.1678109661
 30
0.0
  0
SPLINE
  5
3C7
100
AcDbEntity
  8
0
100
AcDbSpline
 62
7
  6
CONTINUOUS
 70
0
 71
3
 72
12
 73
8
 74
0
 42
0.0000001
 43
0.0000001
 44
0.0000000001
 40
0.0
 40
0.0
 40
0.0
 40
0.0
 40
0.1081592661
 40
0.2183613031
 40
0.4513561008
 40
0.7104298246
 40
1.0
 40
1.0
 40
1.0
 40
1.0
 10
111.733031788
 20
186.2813464893
 30
0.0
 10
111.7904113054
 20
186.2482115282
 30
0.0
 10
111.9007460983
 20
186.1712199293
 30
0.0
 10
112.0986574884
 20
185.9765453054
 30
0.0
 10
112.2946800475
 20
185.6569882278
 30
0.0
 10
112.4310417
 20
185.1938069557
 30
0.0
 10
112.4579318804
 20
184.8565010367
 30
0.0
 10
112.4579318804
 20
184.6791070433
 30
0.0
  0
SPLINE
  5
3C8
100
AcDbEntity
  8
0
100
AcDbSpline
 62
7
  6
CONTINUOUS
 70
0
 71
3
 72
11
 73
7
 74
0
 42
0.0000001
 43
0.0000001
 44
0.0000000001
 40
0.0
 40
0.0
 40
0.0
 40
0.0
 40
0.2238748563
 40
0.4597670349
 40
0.7167994583
 40
1.0
 40
1.0
 40
1.0
 40
1.0
 10
111.1294830864
 20
186.0524550439
 30
0.0
 10
111.0444014437
 20
186.1015872634
 30
0.0
 10
110.853400629
 20
186.1764731031
 30
0.0
 10
110.5367009098
 20
186.2054279966
 30
0.0
 10
110.1972344233
 20
186.1544613379
 30
0.0
 10
109.972891839
 20
186.0733959306
 30
0.0
 10
109.8596111389
 20
186.0222675948
 30
0.0
  0
SPLINE
  5
3C9
100
AcDbEntity
  8
0
100
AcDbSpline
 62
7
  6
CONTINUOUS
 70
0
 71
3
 72
9
 73
5
 74
0
 42
0.0000001
 43
0.0000001
 44
0.0000000001
 40
0.0
 40
0.0
 40
0.0
 40
0.0
 40
0.2547243066
 40
1.0
 40
1.0
 40
1.0
 40
1.0
 10
107.5156687321
 20
182.0289101691
 30
0.0
 10
107.5170218894
 20
182.0111125881
 30
0.0
 10
107.5230855155
 20
181.9413028735
 30
0.0
 10
107.5322043653
 20
181.8717498975
 30
0.0
 10
107.5408857133
 20
181.8202538509
 30
0.0
  0
SPLINE
  5
3CA
100
AcDbEntity
  8
0
100
AcDbSpline
 62
7
  6
CONTINUOUS
 70
0
 71
3
 72
11
 73
7
 74
0
 42
0.0000001
 43
0.0000001
 44
0.0000000001
 40
0.0
 40
0.0
 40
0.0
 40
0.0
 40
0.2765802428
 40
0.5317166743
 40
0.7704016399
 40
1.0
 40
1.0
 40
1.0
 40
1.0
 10
107.5547321029
 20
181.7462793287
 30
0.0
 10
107.5750383381
 20
181.6478479925
 30
0.0
 10
107.6283504253
 20
181.4610217225
 30
0.0
 10
107.7540338119
 20
181.2088297055
 30
0.0
 10
107.9201796689
 20
181.0022519925
 30
0.0
 10
108.0572938669
 20
180.8980131605
 30
0.0
 10
108.1295440887
 20
180.8562907201
 30
0.0
  0
SPLINE
  5
3CB
100
AcDbEntity
  8
0
100
AcDbSpline
 62
7
  6
CONTINUOUS
 70
0
 71
3
 72
9
 73
5
 74
0
 42
0.0000001
 43
0.0000001
 44
0.0000000001
 40
0.0
 40
0.0
 40
0.0
 40
0.0
 40
0.2556422403
 40
1.0
 40
1.0
 40
1.0
 40
1.0
 10
108.8717160802
 20
190.3642172242
 30
0.0
 10
108.865629184
 20
190.4094773412
 30
0.0
 10
108.8395125626
 20
190.5861995972
 30
0.0
 10
108.8039493259
 20
190.7615622436
 30
0.0
 10
108.7716563129
 20
190.8905524264
 30
0.0
  0
SPLINE
  5
3CC
100
AcDbEntity
  8
0
100
AcDbSpline
 62
7
  6
CONTINUOUS
 70
0
 71
3
 72
17
 73
13
 74
0
 42
0.0000001
 43
0.0000001
 44
0.0000000001
 40
0.0
 40
0.0
 40
0.0
 40
0.0
 40
0.1286908751
 40
0.27027556
 40
0.4174299496
 40
0.5617767589
 40
0.6954477755
 40
0.8127135225
 40
0.8646767793
 40
0.9125110269
 40
0.9571410396
 40
1.0
 40
1.0
 40
1.0
 40
1.0
 10
92.9418659733
 20
173.4115683965
 30
0.0
 10
92.9418659733
 20
173.1636868147
 30
0.0
 10
92.8725217009
 20
172.6424932269
 30
0.0
 10
92.6136950949
 20
171.8772342559
 30
0.0
 10
92.2148835805
 20
171.1400304992
 30
0.0
 10
91.7081009964
 20
170.4913461139
 30
0.0
 10
91.1347700705
 20
169.9835960185
 30
0.0
 10
90.6158569245
 20
169.6998193911
 30
0.0
 10
90.2099205671
 20
169.5918466658
 30
0.0
 10
89.930544407
 20
169.5712844438
 30
0.0
 10
89.6703891852
 20
169.6093977473
 30
0.0
 10
89.5127953522
 20
169.6749163356
 30
0.0
 10
89.4413001475
 20
169.7161910144
 30
0.0
  0
SPLINE
  5
3CD
100
AcDbEntity
  8
0
100
AcDbSpline
 62
7
  6
CONTINUOUS
 70
0
 71
3
 72
18
 73
14
 74
0
 42
0.0000001
 43
0.0000001
 44
0.0000000001
 40
0.0
 40
0.0
 40
0.0
 40
0.0
 40
0.0428480947
 40
0.0874655739
 40
0.1352871954
 40
0.1872387214
 40
0.2437295447
 40
0.304734779
 40
0.438368641
 40
0.5826760382
 40
0.7297915758
 40
0.8713430344
 40
1.0
 40
1.0
 40
1.0
 40
1.0
 10
92.6412290661
 20
175.2587558639
 30
0.0
 10
92.5549468936
 20
175.30858145
 30
0.0
 10
92.3647251823
 20
175.3876022228
 30
0.0
 10
92.0507555072
 20
175.4336492493
 30
0.0
 10
91.713583651
 20
175.4088217797
 30
0.0
 10
91.3607321951
 20
175.3150460817
 30
0.0
 10
90.9990732279
 20
175.1552372335
 30
0.0
 10
90.4998270938
 20
174.8496679761
 30
0.0
 10
89.9051070106
 20
174.3229145138
 30
0.0
 10
89.2939165915
 20
173.5404256409
 30
0.0
 10
88.8124338949
 20
172.6505944044
 30
0.0
 10
88.5001086049
 20
171.7270149969
 30
0.0
 10
88.4164014151
 20
171.0979738718
 30
0.0
 10
88.4164014151
 20
170.7988058117
 30
0.0
  0
SPLINE
  5
3CE
100
AcDbEntity
  8
0
100
AcDbSpline
 62
7
  6
CONTINUOUS
 70
0
 71
3
 72
11
 73
7
 74
0
 42
0.0000001
 43
0.0000001
 44
0.0000000001
 40
0.0
 40
0.0
 40
0.0
 40
0.0
 40
0.2897903937
 40
0.5490579954
 40
0.7822299719
 40
1.0
 40
1.0
 40
1.0
 40
1.0
 10
88.4164014151
 20
170.7988058117
 30
0.0
 10
88.4164014151
 20
170.6214112444
 30
0.0
 10
88.4432017967
 20
170.2841475073
 30
0.0
 10
88.579917343
 20
169.820802049
 30
0.0
 10
88.8097785544
 20
169.4447791285
 30
0.0
 10
89.0258590948
 20
169.2632291509
 30
0.0
 10
89.1413006246
 20
169.1965648366
 30
0.0
  0
SPLINE
  5
3CF
100
AcDbEntity
  8
0
100
AcDbSpline
 62
7
  6
CONTINUOUS
 70
0
 71
3
 72
18
 73
14
 74
0
 42
0.0000001
 43
0.0000001
 44
0.0000000001
 40
0.0
 40
0.0
 40
0.0
 40
0.0
 40
0.1286550902
 40
0.2702045902
 40
0.4173197676
 40
0.561629525
 40
0.6952654826
 40
0.7562711427
 40
0.8127619086
 40
0.8647130767
 40
0.9125343952
 40
0.9571517344
 40
1.0
 40
1.0
 40
1.0
 40
1.0
 10
87.0021819648
 20
171.6152873207
 30
0.0
 10
87.0021819648
 20
171.9144510157
 30
0.0
 10
87.0858870036
 20
172.5434830545
 30
0.0
 10
87.3982034858
 20
173.4670551537
 30
0.0
 10
87.8796848638
 20
174.3568871644
 30
0.0
 10
88.4908767557
 20
175.1393871124
 30
0.0
 10
89.0856056932
 20
175.6661481003
 30
0.0
 10
89.5848564154
 20
175.9717208065
 30
0.0
 10
89.9465159529
 20
176.1315287362
 30
0.0
 10
90.2993661206
 20
176.2253021276
 30
0.0
 10
90.6365358663
 20
176.250131345
 30
0.0
 10
90.950505163
 20
176.2040839193
 30
0.0
 10
91.1407261296
 20
176.1250614756
 30
0.0
 10
91.2270087329
 20
176.0752358438
 30
0.0
  0
SPLINE
  5
3D0
100
AcDbEntity
  8
0
100
AcDbSpline
 62
7
  6
CONTINUOUS
 70
0
 71
3
 72
20
 73
16
 74
0
 42
0.0000001
 43
0.0000001
 44
0.0000000001
 40
0.0
 40
0.0
 40
0.0
 40
0.0
 40
0.0433909591
 40
0.0871824079
 40
0.1333045402
 40
0.1832193407
 40
0.2377688787
 40
0.2972131421
 40
0.3613396382
 40
0.4295751036
 40
0.5746769433
 40
0.7241955944
 40
0.8686967286
 40
0.9364594381
 40
1.0
 40
1.0
 40
1.0
 40
1.0
 10
103.0897086083
 20
181.6495240855
 30
0.0
 10
102.9846886017
 20
181.7450009013
 30
0.0
 10
102.74725018
 20
181.9102078722
 30
0.0
 10
102.3305979743
 20
182.0547848358
 30
0.0
 10
101.8702869068
 20
182.0913785765
 30
0.0
 10
101.379320981
 20
182.0217843708
 30
0.0
 10
100.868797549
 20
181.8499817897
 30
0.0
 10
100.3497996885
 20
181.5810206116
 30
0.0
 10
99.8337023487
 20
181.2215064817
 30
0.0
 10
99.1515132824
 20
180.6205409813
 30
0.0
 10
98.3867666545
 20
179.7024099777
 30
0.0
 10
97.6723182773
 20
178.4487900486
 30
0.0
 10
97.2740438485
 20
177.325740523
 30
0.0
 10
97.1081627316
 20
176.4374702342
 30
0.0
 10
97.078423421
 20
176.0076398378
 30
0.0
 10
97.078423421
 20
175.7997966966
 30
0.0
  0
SPLINE
  5
3D1
100
AcDbEntity
  8
0
100
AcDbSpline
 62
7
  6
CONTINUOUS
 70
0
 71
3
 72
12
 73
8
 74
0
 42
0.0000001
 43
0.0000001
 44
0.0000000001
 40
0.0
 40
0.0
 40
0.0
 40
0.0
 40
0.2895819939
 40
0.5486373114
 40
0.7816405751
 40
0.8918400761
 40
1.0
 40
1.0
 40
1.0
 40
1.0
 10
86.6486300462
 20
171.4111652438
 30
0.0
 10
86.6486300462
 20
171.2084204985
 30
0.0
 10
86.6793478666
 20
170.8229265575
 30
0.0
 10
86.8352216693
 20
170.2935920612
 30
0.0
 10
87.0592010428
 20
169.9283551032
 30
0.0
 10
87.2854256559
 20
169.7059067619
 30
0.0
 10
87.4114997124
 20
169.6178852222
 30
0.0
 10
87.477081437
 20
169.5800243076
 30
0.0
  0
SPLINE
  5
3D2
100
AcDbEntity
  8
0
100
AcDbSpline
 62
7
  6
CONTINUOUS
 70
0
 71
3
 72
9
 73
5
 74
0
 42
0.0000001
 43
0.0000001
 44
0.0000000001
 40
0.0
 40
0.0
 40
0.0
 40
0.0
 40
0.2372766727
 40
1.0
 40
1.0
 40
1.0
 40
1.0
 10
83.6509608151
 20
169.4513723372
 30
0.0
 10
83.7531069119
 20
169.4800882756
 30
0.0
 10
84.1791637005
 20
169.6168080511
 30
0.0
 10
84.585451434
 20
169.8116527076
 30
0.0
 10
84.8808321816
 20
169.9821898438
 30
0.0
  0
SPLINE
  5
3D3
100
AcDbEntity
  8
0
100
AcDbSpline
 62
7
  6
CONTINUOUS
 70
0
 71
3
 72
12
 73
8
 74
0
 42
0.0000001
 43
0.0000001
 44
0.0000000001
 40
0.0
 40
0.0
 40
0.0
 40
0.0
 40
0.1081592661
 40
0.2183613031
 40
0.4513561008
 40
0.7104298246
 40
1.0
 40
1.0
 40
1.0
 40
1.0
 10
87.7270820572
 20
170.0130478748
 30
0.0
 10
87.6697025398
 20
170.0461828359
 30
0.0
 10
87.5593677469
 20
170.1231744348
 30
0.0
 10
87.3614563568
 20
170.3178490586
 30
0.0
 10
87.1654337977
 20
170.6374061362
 30
0.0
 10
87.0290721451
 20
171.1005874084
 30
0.0
 10
87.0021819648
 20
171.4378933273
 30
0.0
 10
87.0021819648
 20
171.6152873207
 30
0.0
  0
SPLINE
  5
3D4
100
AcDbEntity
  8
0
100
AcDbSpline
 62
7
  6
CONTINUOUS
 70
0
 71
3
 72
10
 73
6
 74
0
 42
0.0000001
 43
0.0000001
 44
0.0000000001
 40
0.0
 40
0.0
 40
0.0
 40
0.0
 40
0.5183517103
 40
0.7617532443
 40
1.0
 40
1.0
 40
1.0
 40
1.0
 10
87.3017610263
 20
178.5145674086
 30
0.0
 10
87.4769945776
 20
178.5386838308
 30
0.0
 10
87.7424652003
 20
178.5405555111
 30
0.0
 10
88.0742774617
 20
178.4551563197
 30
0.0
 10
88.2246062522
 20
178.3859916024
 30
0.0
 10
88.2950152594
 20
178.3453422371
 30
0.0
  0
SPLINE
  5
3D5
100
AcDbEntity
  8
0
100
AcDbSpline
 62
7
  6
CONTINUOUS
 70
0
 71
3
 72
14
 73
10
 74
0
 42
0.0000001
 43
0.0000001
 44
0.0000000001
 40
0.0
 40
0.0
 40
0.0
 40
0.0
 40
0.1075120476
 40
0.2171452506
 40
0.3308173445
 40
0.4501043346
 40
0.5761604565
 40
0.7097137379
 40
1.0
 40
1.0
 40
1.0
 40
1.0
 10
111.0081132881
 20
190.7412868489
 30
0.0
 10
111.1255681862
 20
190.6734758123
 30
0.0
 10
111.3512478836
 20
190.5153564009
 30
0.0
 10
111.6482579124
 20
190.2195614085
 30
0.0
 10
111.9023948247
 20
189.8678281621
 30
0.0
 10
112.111160705
 20
189.4642608596
 30
0.0
 10
112.2729022739
 20
189.0131069353
 30
0.0
 10
112.4283851091
 20
188.3358372539
 30
0.0
 10
112.4628349616
 20
187.7978925379
 30
0.0
 10
112.4570751955
 20
187.4317471295
 30
0.0
  0
SPLINE
  5
3D6
100
AcDbEntity
  8
0
100
AcDbSpline
 62
7
  6
CONTINUOUS
 70
0
 71
3
 72
16
 73
12
 74
0
 42
0.0000001
 43
0.0000001
 44
0.0000000001
 40
0.0
 40
0.0
 40
0.0
 40
0.0
 40
0.2450113438
 40
0.3689267636
 40
0.4940956562
 40
0.6208476679
 40
0.7494898734
 40
0.8144554983
 40
0.8793302285
 40
0.9425038301
 40
1.0
 40
1.0
 40
1.0
 40
1.0
 10
102.3430798048
 20
185.9357341253
 30
0.0
 10
102.6488365561
 20
185.6347018838
 30
0.0
 10
103.1039194374
 20
185.1758907025
 30
0.0
 10
103.6954742436
 20
184.5443189293
 30
0.0
 10
104.1329388979
 20
184.0523964096
 30
0.0
 10
104.5574348352
 20
183.538427219
 30
0.0
 10
104.8905978087
 20
183.0862278649
 30
0.0
 10
105.1312299272
 20
182.7025424081
 30
0.0
 10
105.2892678331
 20
182.4031222554
 30
0.0
 10
105.4073692979
 20
182.0996273563
 30
0.0
 10
105.4449946319
 20
181.8885343476
 30
0.0
 10
105.4449946319
 20
181.7878438277
 30
0.0
  0
SPLINE
  5
3D7
100
AcDbEntity
  8
0
100
AcDbSpline
 62
7
  6
CONTINUOUS
 70
0
 71
3
 72
18
 73
14
 74
0
 42
0.0000001
 43
0.0000001
 44
0.0000000001
 40
0.0
 40
0.0
 40
0.0
 40
0.0
 40
0.1295224177
 40
0.2569741219
 40
0.3819256571
 40
0.5038732451
 40
0.6223962036
 40
0.680528313
 40
0.7382767078
 40
0.7965501743
 40
0.8572976469
 40
0.9238829062
 40
1.0
 40
1.0
 40
1.0
 40
1.0
 10
103.4987051539
 20
181.0695987658
 30
0.0
 10
103.5986187568
 20
181.0613834637
 30
0.0
 10
103.7971407981
 20
181.0483056014
 30
0.0
 10
104.0927750331
 20
181.0413709723
 30
0.0
 10
104.3825980847
 20
181.0509427625
 30
0.0
 10
104.6639771286
 20
181.0826566468
 30
0.0
 10
104.8900400702
 20
181.1356259647
 30
0.0
 10
105.0590654366
 20
181.2025664831
 30
0.0
 10
105.1773031457
 20
181.2683303307
 30
0.0
 10
105.2842716925
 20
181.3550675101
 30
0.0
 10
105.3733898453
 20
181.4697504905
 30
0.0
 10
105.4331640894
 20
181.6176685479
 30
0.0
 10
105.4449946319
 20
181.7289289442
 30
0.0
 10
105.4449946319
 20
181.7878438277
 30
0.0
  0
SPLINE
  5
3D8
100
AcDbEntity
  8
0
100
AcDbSpline
 62
7
  6
CONTINUOUS
 70
0
 71
3
 72
18
 73
14
 74
0
 42
0.0000001
 43
0.0000001
 44
0.0000000001
 40
0.0
 40
0.0
 40
0.0
 40
0.0
 40
0.0428487902
 40
0.0874668805
 40
0.1352879169
 40
0.1872385004
 40
0.2437306642
 40
0.3047366468
 40
0.4383695117
 40
0.5826771303
 40
0.7297921214
 40
0.8713447434
 40
1.0
 40
1.0
 40
1.0
 40
1.0
 10
91.4770093531
 20
176.508259411
 30
0.0
 10
91.3783924775
 20
176.565191813
 30
0.0
 10
91.161006454
 20
176.655533401
 30
0.0
 10
90.8021701321
 20
176.7081109304
 30
0.0
 10
90.416838019
 20
176.6797504534
 30
0.0
 10
90.0135689735
 20
176.5726070958
 30
0.0
 10
89.6002496661
 20
176.3899438804
 30
0.0
 10
89.0296937272
 20
176.0407018905
 30
0.0
 10
88.3499812695
 20
175.4387328905
 30
0.0
 10
87.651515526
 20
174.5444311681
 30
0.0
 10
87.1012194074
 20
173.5274960331
 30
0.0
 10
86.7442993846
 20
172.4719687359
 30
0.0
 10
86.6486300462
 20
171.7530673707
 30
0.0
 10
86.6486300462
 20
171.4111652438
 30
0.0
  0
SPLINE
  5
3D9
100
AcDbEntity
  8
0
100
AcDbSpline
 62
7
  6
CONTINUOUS
 70
0
 71
3
 72
9
 73
5
 74
0
 42
0.0000001
 43
0.0000001
 44
0.0000000001
 40
0.0
 40
0.0
 40
0.0
 40
0.0
 40
0.2547243066
 40
1.0
 40
1.0
 40
1.0
 40
1.0
 10
97.9697669297
 20
176.5176140919
 30
0.0
 10
97.971120087
 20
176.4998165108
 30
0.0
 10
97.9771837131
 20
176.4300067962
 30
0.0
 10
97.986302563
 20
176.3604538202
 30
0.0
 10
97.9949839109
 20
176.3089577736
 30
0.0
  0
SPLINE
  5
3DA
100
AcDbEntity
  8
0
100
AcDbSpline
 62
7
  6
CONTINUOUS
 70
0
 71
3
 72
11
 73
7
 74
0
 42
0.0000001
 43
0.0000001
 44
0.0000000001
 40
0.0
 40
0.0
 40
0.0
 40
0.0
 40
0.2765802428
 40
0.5317166743
 40
0.7704016399
 40
1.0
 40
1.0
 40
1.0
 40
1.0
 10
98.0088303005
 20
176.2349832515
 30
0.0
 10
98.0291365357
 20
176.1365519152
 30
0.0
 10
98.0824486229
 20
175.9497256452
 30
0.0
 10
98.2081320095
 20
175.6975336283
 30
0.0
 10
98.3742778665
 20
175.4909559153
 30
0.0
 10
98.5113920645
 20
175.3867170832
 30
0.0
 10
98.5836422864
 20
175.3449946429
 30
0.0
  0
SPLINE
  5
3DB
100
AcDbEntity
  8
0
100
AcDbSpline
 62
7
  6
CONTINUOUS
 70
0
 71
3
 72
14
 73
10
 74
0
 42
0.0000001
 43
0.0000001
 44
0.0000000001
 40
0.0
 40
0.0
 40
0.0
 40
0.0
 40
0.2921644645
 40
0.4249366609
 40
0.5494353046
 40
0.6670097899
 40
0.7795847644
 40
0.8896513228
 40
1.0
 40
1.0
 40
1.0
 40
1.0
 10
106.6243252234
 20
181.3110927739
 30
0.0
 10
106.6243252234
 20
181.034527679
 30
0.0
 10
106.6611610207
 20
180.6293936902
 30
0.0
 10
106.8071855657
 20
180.12881971
 30
0.0
 10
106.9549598792
 20
179.8046567505
 30
0.0
 10
107.1428082849
 20
179.5244296964
 30
0.0
 10
107.3688953983
 20
179.2923582653
 30
0.0
 10
107.6299900603
 20
179.1122438179
 30
0.0
 10
107.8232766325
 20
179.0295669922
 30
0.0
 10
107.9227751788
 20
178.997766333
 30
0.0
  0
SPLINE
  5
3DC
100
AcDbEntity
  8
0
100
AcDbSpline
 62
7
  6
CONTINUOUS
 70
0
 71
3
 72
18
 73
14
 74
0
 42
0.0000001
 43
0.0000001
 44
0.0000000001
 40
0.0
 40
0.0
 40
0.0
 40
0.0
 40
0.1286550902
 40
0.2702045902
 40
0.4173197676
 40
0.561629525
 40
0.6952654826
 40
0.7562711427
 40
0.8127619086
 40
0.8647130767
 40
0.9125343952
 40
0.9571517344
 40
1.0
 40
1.0
 40
1.0
 40
1.0
 10
102.912030078
 20
179.1678109661
 30
0.0
 10
102.912030078
 20
178.8686472711
 30
0.0
 10
102.8283250392
 20
178.2396152323
 30
0.0
 10
102.516008557
 20
177.3160431331
 30
0.0
 10
102.034527179
 20
176.4262111224
 30
0.0
 10
101.4233352871
 20
175.6437111744
 30
0.0
 10
100.8286063496
 20
175.1169501865
 30
0.0
 10
100.3293556274
 20
174.8113774804
 30
0.0
 10
99.9676960899
 20
174.6515695506
 30
0.0
 10
99.6148459222
 20
174.5577961592
 30
0.0
 10
99.2776761765
 20
174.5329669418
 30
0.0
 10
98.9637068798
 20
174.5790143675
 30
0.0
 10
98.7734859131
 20
174.6580368112
 30
0.0
 10
98.6872033099
 20
174.707862443
 30
0.0
  0
SPLINE
  5
3DD
100
AcDbEntity
  8
0
100
AcDbSpline
 62
7
  6
CONTINUOUS
 70
0
 71
3
 72
12
 73
8
 74
0
 42
0.0000001
 43
0.0000001
 44
0.0000000001
 40
0.0
 40
0.0
 40
0.0
 40
0.0
 40
0.2895821567
 40
0.5486359363
 40
0.7816376878
 40
0.8918387163
 40
1.0
 40
1.0
 40
1.0
 40
1.0
 10
81.133211284
 20
161.4498645183
 30
0.0
 10
81.133211284
 20
161.206570959
 30
0.0
 10
81.1700731089
 20
160.7439796947
 30
0.0
 10
81.3571227195
 20
160.1087825373
 30
0.0
 10
81.6258943472
 20
159.6704976923
 30
0.0
 10
81.8973672137
 20
159.4035619434
 30
0.0
 10
82.0486565126
 20
159.2979333916
 30
0.0
 10
82.1273545208
 20
159.2524981056
 30
0.0
  0
SPLINE
  5
3DE
100
AcDbEntity
  8
0
100
AcDbSpline
 62
7
  6
CONTINUOUS
 70
0
 71
3
 72
14
 73
10
 74
0
 42
0.0000001
 43
0.0000001
 44
0.0000000001
 40
0.0
 40
0.0
 40
0.0
 40
0.0
 40
0.2921644645
 40
0.4249366609
 40
0.5494353046
 40
0.6670097899
 40
0.7795847644
 40
0.8896513228
 40
1.0
 40
1.0
 40
1.0
 40
1.0
 10
97.078423421
 20
175.7997966966
 30
0.0
 10
97.078423421
 20
175.5232316017
 30
0.0
 10
97.1152592183
 20
175.1180976129
 30
0.0
 10
97.2612837633
 20
174.6175236327
 30
0.0
 10
97.4090580768
 20
174.2933606733
 30
0.0
 10
97.5969064825
 20
174.0131336191
 30
0.0
 10
97.8229935959
 20
173.7810621881
 30
0.0
 10
98.0840882579
 20
173.6009477406
 30
0.0
 10
98.2773748301
 20
173.518270915
 30
0.0
 10
98.3768733764
 20
173.4864702557
 30
0.0
  0
SPLINE
  5
3DF
100
AcDbEntity
  8
0
100
AcDbSpline
 62
7
  6
CONTINUOUS
 70
0
 71
3
 72
34
 73
30
 74
0
 42
0.0000001
 43
0.0000001
 44
0.0000000001
 40
0.0
 40
0.0
 40
0.0
 40
0.0
 40
0.0838824857
 40
0.1682020794
 40
0.2530094578
 40
0.338351252
 40
0.424245734
 40
0.5106056672
 40
0.5538500429
 40
0.5969759144
 40
0.6397062925
 40
0.6814812003
 40
0.7211795121
 40
0.7567530885
 40
0.7853979971
 40
0.796473185
 40
0.8053795226
 40
0.8123950779
 40
0.8179907196
 40
0.8227711863
 40
0.8273452804
 40
0.83215739
 40
0.8374385347
 40
0.8496309951
 40
0.863920982
 40
0.8799873531
 40
0.9162616
 40
0.9566462567
 40
1.0
 40
1.0
 40
1.0
 40
1.0
 10
97.1815131791
 20
184.4330076829
 30
0.0
 10
97.3227172907
 20
184.3688161348
 30
0.0
 10
97.6061260353
 20
184.2406795525
 30
0.0
 10
98.0333715593
 20
184.0500333211
 30
0.0
 10
98.4642296145
 20
183.8608788563
 30
0.0
 10
98.8991878893
 20
183.6738465353
 30
0.0
 10
99.3386319356
 20
183.4900312542
 30
0.0
 10
99.7083247621
 20
183.3412505994
 30
0.0
 10
100.0064106051
 20
183.2265050105
 30
0.0
 10
100.2302997344
 20
183.1436384358
 30
0.0
 10
100.4530061995
 20
183.0654749606
 30
0.0
 10
100.6714484004
 20
182.994481367
 30
0.0
 10
100.8794965968
 20
182.9344938599
 30
0.0
 10
101.0667258058
 20
182.8910456265
 30
0.0
 10
101.2049815196
 20
182.8710343162
 30
0.0
 10
101.2950485158
 20
182.8701893908
 30
0.0
 10
101.3448193048
 20
182.87589663
 30
0.0
 10
101.3832158465
 20
182.8873776752
 30
0.0
 10
101.4111236807
 20
182.9043123141
 30
0.0
 10
101.4289715389
 20
182.9262114357
 30
0.0
 10
101.4373681452
 20
182.9515408566
 30
0.0
 10
101.4381173066
 20
182.9789277181
 30
0.0
 10
101.4306028024
 20
183.0196508876
 30
0.0
 10
101.4073611491
 20
183.0741689535
 30
0.0
 10
101.3663948711
 20
183.1414305908
 30
0.0
 10
101.2930728367
 20
183.2406122959
 30
0.0
 10
101.1792101954
 20
183.3691188977
 30
0.0
 10
101.0226407775
 20
183.5264503131
 30
0.0
 10
100.9093364583
 20
183.6320416565
 30
0.0
 10
100.8500231996
 20
183.6859738496
 30
0.0
  0
SPLINE
  5
3E0
100
AcDbEntity
  8
0
100
AcDbSpline
 62
7
  6
CONTINUOUS
 70
0
 71
3
 72
16
 73
12
 74
0
 42
0.0000001
 43
0.0000001
 44
0.0000000001
 40
0.0
 40
0.0
 40
0.0
 40
0.0
 40
0.2450113438
 40
0.3689267636
 40
0.4940956562
 40
0.6208476679
 40
0.7494898734
 40
0.8144554983
 40
0.8793302285
 40
0.9425038301
 40
1.0
 40
1.0
 40
1.0
 40
1.0
 10
92.7971780025
 20
180.424438048
 30
0.0
 10
93.1029347537
 20
180.1234058065
 30
0.0
 10
93.558017635
 20
179.6645946253
 30
0.0
 10
94.1495724412
 20
179.0330228521
 30
0.0
 10
94.5870370955
 20
178.5411003324
 30
0.0
 10
95.0115330328
 20
178.0271311417
 30
0.0
 10
95.3446960063
 20
177.5749317876
 30
0.0
 10
95.5853281248
 20
177.1912463308
 30
0.0
 10
95.7433660307
 20
176.8918261782
 30
0.0
 10
95.8614674955
 20
176.588331279
 30
0.0
 10
95.8990928295
 20
176.3772382703
 30
0.0
 10
95.8990928295
 20
176.2765477504
 30
0.0
  0
SPLINE
  5
3E1
100
AcDbEntity
  8
0
100
AcDbSpline
 62
7
  6
CONTINUOUS
 70
0
 71
3
 72
26
 73
22
 74
0
 42
0.0000001
 43
0.0000001
 44
0.0000000001
 40
0.0
 40
0.0
 40
0.0
 40
0.0
 40
0.1263424991
 40
0.1900754286
 40
0.2543331486
 40
0.3193079975
 40
0.3853153705
 40
0.4528878535
 40
0.4875412094
 40
0.5228371935
 40
0.5584520379
 40
0.5932971172
 40
0.6262531979
 40
0.6573835621
 40
0.6873245809
 40
0.716572025
 40
0.7739739936
 40
0.8307489773
 40
0.8872599967
 40
0.943654623
 40
1.0
 40
1.0
 40
1.0
 40
1.0
 10
92.7971780025
 20
180.424438048
 30
0.0
 10
93.1603417191
 20
180.3695193249
 30
0.0
 10
93.7082316069
 20
180.2960425605
 30
0.0
 10
94.4443988259
 20
180.2261946402
 30
0.0
 10
95.0044619949
 20
180.1920635397
 30
0.0
 10
95.572284443
 20
180.1832338582
 30
0.0
 10
96.1492162907
 20
180.2116972507
 30
0.0
 10
96.6346069673
 20
180.2846577512
 30
0.0
 10
97.019185926
 20
180.3965859436
 30
0.0
 10
97.301317216
 20
180.5203804994
 30
0.0
 10
97.5567090858
 20
180.6963298778
 30
0.0
 10
97.7534832768
 20
180.929501906
 30
0.0
 10
97.8670593441
 20
181.1980123453
 30
0.0
 10
97.9076173179
 20
181.4704438195
 30
0.0
 10
97.8986740546
 20
181.733854005
 30
0.0
 10
97.8433502098
 20
182.0689095245
 30
0.0
 10
97.7184776649
 20
182.4684944774
 30
0.0
 10
97.5196476187
 20
182.9236317685
 30
0.0
 10
97.2899468095
 20
183.3605388574
 30
0.0
 10
97.0389452772
 20
183.7838978471
 30
0.0
 10
96.8610959543
 20
184.0592815431
 30
0.0
 10
96.7701938029
 20
184.1955464923
 30
0.0
  0
SPLINE
  5
3E2
100
AcDbEntity
  8
0
100
AcDbSpline
 62
7
  6
CONTINUOUS
 70
0
 71
3
 72
19
 73
15
 74
0
 42
0.0000001
 43
0.0000001
 44
0.0000000001
 40
0.0
 40
0.0
 40
0.0
 40
0.0
 40
0.1318501306
 40
0.2619737461
 40
0.3899207637
 40
0.5150519871
 40
0.6364689662
 40
0.6954942172
 40
0.7532749965
 40
0.8100292134
 40
0.8669192804
 40
0.8965479413
 40
0.9279892261
 40
1.0
 40
1.0
 40
1.0
 40
1.0
 10
92.7971780025
 20
175.7103591448
 30
0.0
 10
92.9482517373
 20
175.6846575332
 30
0.0
 10
93.249029759
 20
175.6370441781
 30
0.0
 10
93.6986363851
 20
175.5795544918
 30
0.0
 10
94.1424994724
 20
175.5406554504
 30
0.0
 10
94.5777811246
 20
175.5270542137
 30
0.0
 10
94.933327741
 20
175.5458156766
 30
0.0
 10
95.2068753825
 20
175.5906534753
 30
0.0
 10
95.4020385989
 20
175.6436540186
 30
0.0
 10
95.5854241583
 20
175.7239255209
 30
0.0
 10
95.7209421994
 20
175.8249075001
 30
0.0
 10
95.8074156794
 20
175.9322785738
 30
0.0
 10
95.8798448584
 20
176.070013453
 30
0.0
 10
95.8990928295
 20
176.1928523624
 30
0.0
 10
95.8990928295
 20
176.2765477504
 30
0.0
  0
SPLINE
  5
3E3
100
AcDbEntity
  8
0
100
AcDbSpline
 62
7
  6
CONTINUOUS
 70
0
 71
3
 72
11
 73
7
 74
0
 42
0.0000001
 43
0.0000001
 44
0.0000000001
 40
0.0
 40
0.0
 40
0.0
 40
0.0
 40
0.22364517
 40
0.4615142525
 40
0.719615073
 40
1.0
 40
1.0
 40
1.0
 40
1.0
 10
27.4385201617
 20
138.1990990728
 30
0.0
 10
27.324380691
 20
138.2649967301
 30
0.0
 10
27.1089720869
 20
138.4383790852
 30
0.0
 10
26.8608714706
 20
138.7875984984
 30
0.0
 10
26.6874929966
 20
139.2146829764
 30
0.0
 10
26.6274642605
 20
139.5283266453
 30
0.0
 10
26.6094904814
 20
139.6925800223
 30
0.0
  0
SPLINE
  5
3E4
100
AcDbEntity
  8
0
100
AcDbSpline
 62
7
  6
CONTINUOUS
 70
0
 71
3
 72
11
 73
7
 74
0
 42
0.0000001
 43
0.0000001
 44
0.0000000001
 40
0.0
 40
0.0
 40
0.0
 40
0.0
 40
0.2368169205
 40
0.4825917025
 40
0.7371052518
 40
1.0
 40
1.0
 40
1.0
 40
1.0
 10
26.9065215336
 20
207.4540940491
 30
0.0
 10
26.1863045306
 20
202.1412931947
 30
0.0
 10
25.1052574401
 20
191.2593635854
 30
0.0
 10
24.5366356163
 20
174.5711099311
 30
0.0
 10
24.9921698689
 20
157.2894909306
 30
0.0
 10
25.9620685546
 20
145.609045201
 30
0.0
 10
26.6094904814
 20
139.6925800223
 30
0.0
  0
SPLINE
  5
3E5
100
AcDbEntity
  8
0
100
AcDbSpline
 62
7
  6
CONTINUOUS
 70
0
 71
3
 72
9
 73
5
 74
0
 42
0.0000001
 43
0.0000001
 44
0.0000000001
 40
0.0
 40
0.0
 40
0.0
 40
0.0
 40
0.2603782916
 40
1.0
 40
1.0
 40
1.0
 40
1.0
 10
30.1816322288
 20
136.8620047248
 30
0.0
 10
30.1972655464
 20
136.8290335189
 30
0.0
 10
30.262037648
 20
136.7047611791
 30
0.0
 10
30.3472417112
 20
136.5906924218
 30
0.0
 10
30.4206977385
 20
136.5175634435
 30
0.0
  0
SPLINE
  5
3E6
100
AcDbEntity
  8
0
100
AcDbSpline
 62
7
  6
CONTINUOUS
 70
0
 71
3
 72
9
 73
5
 74
0
 42
0.0000001
 43
0.0000001
 44
0.0000000001
 40
0.0
 40
0.0
 40
0.0
 40
0.0
 40
0.2527452273
 40
1.0
 40
1.0
 40
1.0
 40
1.0
 10
30.4206977385
 20
136.5175634435
 30
0.0
 10
30.4365187208
 20
136.5018129012
 30
0.0
 10
30.501039114
 20
136.4414608191
 30
0.0
 10
30.5733933228
 20
136.3894593931
 30
0.0
 10
30.6305544062
 20
136.3564581698
 30
0.0
  0
SPLINE
  5
3E7
100
AcDbEntity
  8
0
100
AcDbSpline
 62
7
  6
CONTINUOUS
 70
0
 71
3
 72
11
 73
7
 74
0
 42
0.0000001
 43
0.0000001
 44
0.0000000001
 40
0.0
 40
0.0
 40
0.0
 40
0.0
 40
0.2177731171
 40
0.4509285976
 40
0.710222822
 40
1.0
 40
1.0
 40
1.0
 40
1.0
 10
122.9033566164
 20
91.400657771
 30
0.0
 10
122.7714147954
 20
91.4768327005
 30
0.0
 10
122.5245063695
 20
91.6843505998
 30
0.0
 10
122.2617544685
 20
92.1140561632
 30
0.0
 10
122.1055453082
 20
92.6436061026
 30
0.0
 10
122.0748926321
 20
93.0290509656
 30
0.0
 10
122.0748926321
 20
93.2317768983
 30
0.0
  0
SPLINE
  5
3E8
100
AcDbEntity
  8
0
100
AcDbSpline
 62
7
  6
CONTINUOUS
 70
0
 71
3
 72
11
 73
7
 74
0
 42
0.0000001
 43
0.0000001
 44
0.0000000001
 40
0.0
 40
0.0
 40
0.0
 40
0.0
 40
0.2897757032
 40
0.5490693955
 40
0.7822254653
 40
1.0
 40
1.0
 40
1.0
 40
1.0
 10
152.9046199346
 20
146.6307273939
 30
0.0
 10
153.0801781558
 20
146.7320853751
 30
0.0
 10
153.4292947586
 20
146.8982538408
 30
0.0
 10
153.9659807219
 20
147.027742203
 30
0.0
 10
154.4694734389
 20
147.0150477433
 30
0.0
 10
154.7726338463
 20
146.9049858758
 30
0.0
 10
154.9045712993
 20
146.8288134681
 30
0.0
  0
SPLINE
  5
3E9
100
AcDbEntity
  8
0
100
AcDbSpline
 62
7
  6
CONTINUOUS
 70
0
 71
3
 72
15
 73
11
 74
0
 42
0.0000001
 43
0.0000001
 44
0.0000000001
 40
0.0
 40
0.0
 40
0.0
 40
0.0
 40
0.1141475829
 40
0.2373370756
 40
0.3669780685
 40
0.5000016033
 40
0.6330249151
 40
0.7626652568
 40
0.8858537231
 40
1.0
 40
1.0
 40
1.0
 40
1.0
 10
128.8630894694
 20
129.4844164938
 30
0.0
 10
128.8630894694
 20
129.7079846376
 30
0.0
 10
128.9040683164
 20
130.173260756
 30
0.0
 10
129.067282497
 20
130.8751704081
 30
0.0
 10
129.328865951
 20
131.5861334358
 30
0.0
 10
129.678846407
 20
132.2794344514
 30
0.0
 10
130.1042685899
 20
132.9291779499
 30
0.0
 10
130.5891841275
 20
133.5111965532
 30
0.0
 10
131.1154431469
 20
134.003496371
 30
0.0
 10
131.4978910524
 20
134.2716204852
 30
0.0
 10
131.6915048182
 20
134.3834027778
 30
0.0
  0
SPLINE
  5
3EA
100
AcDbEntity
  8
0
100
AcDbSpline
 62
7
  6
CONTINUOUS
 70
0
 71
3
 72
15
 73
11
 74
0
 42
0.0000001
 43
0.0000001
 44
0.0000000001
 40
0.0
 40
0.0
 40
0.0
 40
0.0
 40
0.1141543519
 40
0.237325601
 40
0.366974755
 40
0.4999984147
 40
0.6330222943
 40
0.7626720931
 40
0.8858443543
 40
1.0
 40
1.0
 40
1.0
 40
1.0
 10
125.6104118182
 20
123.03407985
 30
0.0
 10
125.833083813
 20
123.1626388188
 30
0.0
 10
126.2729008704
 20
123.4709474665
 30
0.0
 10
126.8780651262
 20
124.0371277359
 30
0.0
 10
127.4357566915
 20
124.7063950608
 30
0.0
 10
127.924969817
 20
125.4536430816
 30
0.0
 10
128.3274957439
 20
126.2509413603
 30
0.0
 10
128.6282504968
 20
127.0685552794
 30
0.0
 10
128.8159943108
 20
127.875739936
 30
0.0
 10
128.8630894694
 20
128.4107920739
 30
0.0
 10
128.8630894694
 20
128.6679140766
 30
0.0
  0
SPLINE
  5
3EB
100
AcDbEntity
  8
0
100
AcDbSpline
 62
7
  6
CONTINUOUS
 70
0
 71
3
 72
15
 73
11
 74
0
 42
0.0000001
 43
0.0000001
 44
0.0000000001
 40
0.0
 40
0.0
 40
0.0
 40
0.0
 40
0.1141475829
 40
0.2373370756
 40
0.3669780685
 40
0.5000016033
 40
0.6330249151
 40
0.7626652568
 40
0.8858537231
 40
1.0
 40
1.0
 40
1.0
 40
1.0
 10
122.0748926321
 20
117.7268494122
 30
0.0
 10
122.0748926321
 20
117.950417556
 30
0.0
 10
122.1158714792
 20
118.4156936744
 30
0.0
 10
122.2790856598
 20
119.1176033264
 30
0.0
 10
122.5406691138
 20
119.8285663541
 30
0.0
 10
122.8906495698
 20
120.5218673698
 30
0.0
 10
123.3160717527
 20
121.1716108683
 30
0.0
 10
123.8009872902
 20
121.7536294715
 30
0.0
 10
124.3272463096
 20
122.2459292894
 30
0.0
 10
124.7096942152
 20
122.5140534036
 30
0.0
 10
124.903307981
 20
122.6258356962
 30
0.0
  0
SPLINE
  5
3EC
100
AcDbEntity
  8
0
100
AcDbSpline
 62
7
  6
CONTINUOUS
 70
0
 71
3
 72
9
 73
5
 74
0
 42
0.0000001
 43
0.0000001
 44
0.0000000001
 40
0.0
 40
0.0
 40
0.0
 40
0.0
 40
0.253139686
 40
1.0
 40
1.0
 40
1.0
 40
1.0
 10
143.2503657331
 20
115.4227731125
 30
0.0
 10
143.2120031831
 20
115.3728071192
 30
0.0
 10
143.0579986804
 20
115.1773255867
 30
0.0
 10
142.8941826126
 20
114.9895382551
 30
0.0
 10
142.7664065025
 20
114.8545702624
 30
0.0
  0
SPLINE
  5
3ED
100
AcDbEntity
  8
0
100
AcDbSpline
 62
7
  6
CONTINUOUS
 70
0
 71
3
 72
11
 73
7
 74
0
 42
0.0000001
 43
0.0000001
 44
0.0000000001
 40
0.0
 40
0.0
 40
0.0
 40
0.0
 40
0.2177731171
 40
0.4509285976
 40
0.710222822
 40
1.0
 40
1.0
 40
1.0
 40
1.0
 10
138.8133254322
 20
82.2152407943
 30
0.0
 10
138.6813836112
 20
82.2914157238
 30
0.0
 10
138.4344751853
 20
82.4989336231
 30
0.0
 10
138.1717232843
 20
82.9286391865
 30
0.0
 10
138.015514124
 20
83.4581891259
 30
0.0
 10
137.9848614479
 20
83.8436339889
 30
0.0
 10
137.9848614479
 20
84.0463599216
 30
0.0
  0
SPLINE
  5
3EE
100
AcDbEntity
  8
0
100
AcDbSpline
 62
7
  6
CONTINUOUS
 70
0
 71
3
 72
11
 73
7
 74
0
 42
0.0000001
 43
0.0000001
 44
0.0000000001
 40
0.0
 40
0.0
 40
0.0
 40
0.0
 40
0.2177798312
 40
0.4509239181
 40
0.7102597115
 40
1.0
 40
1.0
 40
1.0
 40
1.0
 10
153.393864414
 20
69.257458845
 30
0.0
 10
153.3080912085
 20
69.3069588026
 30
0.0
 10
153.1476339442
 20
69.4418854116
 30
0.0
 10
152.9768059791
 20
69.7211795838
 30
0.0
 10
152.8753085479
 20
70.065400017
 30
0.0
 10
152.8553646601
 20
70.3159348903
 30
0.0
 10
152.8553646601
 20
70.4476894666
 30
0.0
  0
SPLINE
  5
3EF
100
AcDbEntity
  8
0
100
AcDbSpline
 62
7
  6
CONTINUOUS
 70
0
 71
3
 72
11
 73
7
 74
0
 42
0.0000001
 43
0.0000001
 44
0.0000000001
 40
0.0
 40
0.0
 40
0.0
 40
0.0
 40
0.2177798312
 40
0.4509239181
 40
0.7102597115
 40
1.0
 40
1.0
 40
1.0
 40
1.0
 10
186.7267393002
 20
126.992012202
 30
0.0
 10
186.6409660947
 20
127.0415121596
 30
0.0
 10
186.4805088304
 20
127.1764387686
 30
0.0
 10
186.3096808653
 20
127.4557329407
 30
0.0
 10
186.2081834341
 20
127.7999533739
 30
0.0
 10
186.1882395464
 20
128.0504882473
 30
0.0
 10
186.1882395464
 20
128.1822428236
 30
0.0
  0
SPLINE
  5
3F0
100
AcDbEntity
  8
0
100
AcDbSpline
 62
7
  6
CONTINUOUS
 70
0
 71
3
 72
11
 73
7
 74
0
 42
0.0000001
 43
0.0000001
 44
0.0000000001
 40
0.0
 40
0.0
 40
0.0
 40
0.0
 40
0.2177798312
 40
0.4509239181
 40
0.7102597115
 40
1.0
 40
1.0
 40
1.0
 40
1.0
 10
153.393864414
 20
107.7473827885
 30
0.0
 10
153.3080912085
 20
107.7968827461
 30
0.0
 10
153.1476339442
 20
107.9318093551
 30
0.0
 10
152.9768059791
 20
108.2111035272
 30
0.0
 10
152.8753085479
 20
108.5553239604
 30
0.0
 10
152.8553646601
 20
108.8058588338
 30
0.0
 10
152.8553646601
 20
108.9376134101
 30
0.0
  0
SPLINE
  5
3F1
100
AcDbEntity
  8
0
100
AcDbSpline
 62
7
  6
CONTINUOUS
 70
0
 71
3
 72
15
 73
11
 74
0
 42
0.0000001
 43
0.0000001
 44
0.0000000001
 40
0.0
 40
0.0
 40
0.0
 40
0.0
 40
0.1080128151
 40
0.2180620975
 40
0.3319994177
 40
0.4513585055
 40
0.577277768
 40
0.710492627
 40
0.8514154749
 40
1.0
 40
1.0
 40
1.0
 40
1.0
 10
159.9918771375
 20
78.072488343
 30
0.0
 10
160.40175216
 20
77.8358508738
 30
0.0
 10
161.2719830592
 20
77.428323768
 30
0.0
 10
162.6800693105
 20
77.0389573205
 30
0.0
 10
164.1811260647
 20
76.871563122
 30
0.0
 10
165.7591648339
 20
76.9264619372
 30
0.0
 10
167.398961748
 20
77.2015421324
 30
0.0
 10
169.0853130586
 20
77.6931499661
 30
0.0
 10
170.8022216608
 20
78.39589549
 30
0.0
 10
171.9278171354
 20
78.9851295591
 30
0.0
 10
172.4916476402
 20
79.3106553097
 30
0.0
  0
SPLINE
  5
3F2
100
AcDbEntity
  8
0
100
AcDbSpline
 62
7
  6
CONTINUOUS
 70
0
 71
3
 72
11
 73
7
 74
0
 42
0.0000001
 43
0.0000001
 44
0.0000000001
 40
0.0
 40
0.0
 40
0.0
 40
0.0
 40
0.2177709505
 40
0.4509489942
 40
0.7101987597
 40
1.0
 40
1.0
 40
1.0
 40
1.0
 10
148.0714318014
 20
69.5100341298
 30
0.0
 10
147.9065046381
 20
69.605252693
 30
0.0
 10
147.5978188788
 20
69.8646329552
 30
0.0
 10
147.2694757069
 20
70.4018101911
 30
0.0
 10
147.0741396644
 20
71.0637236646
 30
0.0
 10
147.0358659298
 20
71.5455266928
 30
0.0
 10
147.0358659298
 20
71.7989574764
 30
0.0
  0
SPLINE
  5
3F3
100
AcDbEntity
  8
0
100
AcDbSpline
 62
7
  6
CONTINUOUS
 70
0
 71
3
 72
11
 73
7
 74
0
 42
0.0000001
 43
0.0000001
 44
0.0000000001
 40
0.0
 40
0.0
 40
0.0
 40
0.0
 40
0.2177723674
 40
0.4509510027
 40
0.7102002307
 40
1.0
 40
1.0
 40
1.0
 40
1.0
 10
152.1726682072
 20
67.1422377535
 30
0.0
 10
152.3375899016
 20
67.0470223278
 30
0.0
 10
152.7165506733
 20
66.909392878
 30
0.0
 10
153.3459074444
 20
66.893631223
 30
0.0
 10
154.0167814502
 20
67.0554150905
 30
0.0
 10
154.4531535058
 20
67.2631606221
 30
0.0
 10
154.6726215217
 20
67.3898697839
 30
0.0
  0
SPLINE
  5
3F4
100
AcDbEntity
  8
0
100
AcDbSpline
 62
7
  6
CONTINUOUS
 70
0
 71
3
 72
10
 73
6
 74
0
 42
0.0000001
 43
0.0000001
 44
0.0000000001
 40
0.0
 40
0.0
 40
0.0
 40
0.0
 40
0.2350062664
 40
0.4767115809
 40
1.0
 40
1.0
 40
1.0
 40
1.0
 10
186.7267393002
 20
88.5020882585
 30
0.0
 10
186.6739815691
 20
88.5325348932
 30
0.0
 10
186.5732719697
 20
88.6060184355
 30
0.0
 10
186.3985618842
 20
88.7993709638
 30
0.0
 10
186.3113115714
 20
88.9831109543
 30
0.0
 10
186.2703349189
 20
89.1124077843
 30
0.0
  0
SPLINE
  5
3F5
100
AcDbEntity
  8
0
100
AcDbSpline
 62
7
  6
CONTINUOUS
 70
0
 71
3
 72
11
 73
7
 74
0
 42
0.0000001
 43
0.0000001
 44
0.0000000001
 40
0.0
 40
0.0
 40
0.0
 40
0.0
 40
0.2897757032
 40
0.5490693955
 40
0.7822254653
 40
1.0
 40
1.0
 40
1.0
 40
1.0
 10
168.8145887505
 20
137.4453104172
 30
0.0
 10
168.9901469716
 20
137.5466683984
 30
0.0
 10
169.3392635744
 20
137.7128368641
 30
0.0
 10
169.8759495377
 20
137.8423252263
 30
0.0
 10
170.3794422547
 20
137.8296307666
 30
0.0
 10
170.6826026621
 20
137.7195688991
 30
0.0
 10
170.8145401151
 20
137.6433964914
 30
0.0
  0
SPLINE
  5
3F6
100
AcDbEntity
  8
0
100
AcDbSpline
 62
7
  6
CONTINUOUS
 70
0
 71
3
 72
15
 73
11
 74
0
 42
0.0000001
 43
0.0000001
 44
0.0000000001
 40
0.0
 40
0.0
 40
0.0
 40
0.0
 40
0.1141475829
 40
0.2373370756
 40
0.3669780685
 40
0.5000016033
 40
0.6330249151
 40
0.7626652568
 40
0.8858537231
 40
1.0
 40
1.0
 40
1.0
 40
1.0
 10
144.7730582852
 20
120.2989995171
 30
0.0
 10
144.7730582852
 20
120.5225676609
 30
0.0
 10
144.8140371322
 20
120.9878437793
 30
0.0
 10
144.9772513128
 20
121.6897534314
 30
0.0
 10
145.2388347669
 20
122.4007164591
 30
0.0
 10
145.5888152228
 20
123.0940174747
 30
0.0
 10
146.0142374058
 20
123.7437609732
 30
0.0
 10
146.4991529433
 20
124.3257795765
 30
0.0
 10
147.0254119627
 20
124.8180793943
 30
0.0
 10
147.4078598682
 20
125.0862035085
 30
0.0
 10
147.601473634
 20
125.1979858011
 30
0.0
  0
SPLINE
  5
3F7
100
AcDbEntity
  8
0
100
AcDbSpline
 62
7
  6
CONTINUOUS
 70
0
 71
3
 72
15
 73
11
 74
0
 42
0.0000001
 43
0.0000001
 44
0.0000000001
 40
0.0
 40
0.0
 40
0.0
 40
0.0
 40
0.1141543519
 40
0.237325601
 40
0.366974755
 40
0.4999984147
 40
0.6330222943
 40
0.7626720931
 40
0.8858443543
 40
1.0
 40
1.0
 40
1.0
 40
1.0
 10
141.520380634
 20
113.8486628733
 30
0.0
 10
141.7430526288
 20
113.9772218421
 30
0.0
 10
142.1828696862
 20
114.2855304898
 30
0.0
 10
142.788033942
 20
114.8517107592
 30
0.0
 10
143.3457255074
 20
115.5209780841
 30
0.0
 10
143.8349386328
 20
116.2682261049
 30
0.0
 10
144.2374645597
 20
117.0655243836
 30
0.0
 10
144.5382193126
 20
117.8831383027
 30
0.0
 10
144.7259631266
 20
118.6903229593
 30
0.0
 10
144.7730582852
 20
119.2253750972
 30
0.0
 10
144.7730582852
 20
119.4824970999
 30
0.0
  0
SPLINE
  5
3F8
100
AcDbEntity
  8
0
100
AcDbSpline
 62
7
  6
CONTINUOUS
 70
0
 71
3
 72
15
 73
11
 74
0
 42
0.0000001
 43
0.0000001
 44
0.0000000001
 40
0.0
 40
0.0
 40
0.0
 40
0.0
 40
0.1141475829
 40
0.2373370756
 40
0.3669780685
 40
0.5000016033
 40
0.6330249151
 40
0.7626652568
 40
0.8858537231
 40
1.0
 40
1.0
 40
1.0
 40
1.0
 10
137.9848614479
 20
108.5414324354
 30
0.0
 10
137.9848614479
 20
108.7650005793
 30
0.0
 10
138.025840295
 20
109.2302766977
 30
0.0
 10
138.1890544756
 20
109.9321863497
 30
0.0
 10
138.4506379296
 20
110.6431493774
 30
0.0
 10
138.8006183856
 20
111.3364503931
 30
0.0
 10
139.2260405685
 20
111.9861938915
 30
0.0
 10
139.7109561061
 20
112.5682124948
 30
0.0
 10
140.2372151254
 20
113.0605123127
 30
0.0
 10
140.619663031
 20
113.3286364269
 30
0.0
 10
140.8132767968
 20
113.4404187195
 30
0.0
  0
SPLINE
  5
3F9
100
AcDbEntity
  8
0
100
AcDbSpline
 62
7
  6
CONTINUOUS
 70
0
 71
3
 72
15
 73
11
 74
0
 42
0.0000001
 43
0.0000001
 44
0.0000000001
 40
0.0
 40
0.0
 40
0.0
 40
0.0
 40
0.114155658
 40
0.2373279333
 40
0.3669777387
 40
0.5000016213
 40
0.633025278
 40
0.7626744253
 40
0.8858456604
 40
1.0
 40
1.0
 40
1.0
 40
1.0
 10
147.0358659298
 20
110.3378715649
 30
0.0
 10
147.0358659298
 20
110.6173520327
 30
0.0
 10
147.0870563364
 20
111.1989305075
 30
0.0
 10
147.2911257291
 20
112.0763052107
 30
0.0
 10
147.6180331191
 20
112.9650160364
 30
0.0
 10
148.0555613298
 20
113.8316446032
 30
0.0
 10
148.5873147391
 20
114.6438706859
 30
0.0
 10
149.1935012099
 20
115.3713351043
 30
0.0
 10
149.8512883932
 20
115.9867483766
 30
0.0
 10
150.329350365
 20
116.3218664255
 30
0.0
 10
150.5713851159
 20
116.4616044199
 30
0.0
  0
SPLINE
  5
3FA
100
AcDbEntity
  8
0
100
AcDbSpline
 62
7
  6
CONTINUOUS
 70
0
 71
3
 72
11
 73
7
 74
0
 42
0.0000001
 43
0.0000001
 44
0.0000000001
 40
0.0
 40
0.0
 40
0.0
 40
0.0
 40
0.2305508528
 40
0.4760044413
 40
0.7336255892
 40
1.0
 40
1.0
 40
1.0
 40
1.0
 10
172.4916476402
 20
79.3106553097
 30
0.0
 10
173.4128814541
 20
79.8425267253
 30
0.0
 10
175.2422796363
 20
81.0694373219
 30
0.0
 10
177.8278584787
 20
83.2631801208
 30
0.0
 10
180.2935332647
 20
85.8250020754
 30
0.0
 10
181.8031916615
 20
87.7183734278
 30
0.0
 10
182.5265573969
 20
88.7119879417
 30
0.0
  0
SPLINE
  5
3FB
100
AcDbEntity
  8
0
100
AcDbSpline
 62
7
  6
CONTINUOUS
 70
0
 71
3
 72
18
 73
14
 74
0
 42
0.0000001
 43
0.0000001
 44
0.0000000001
 40
0.0
 40
0.0
 40
0.0
 40
0.0
 40
0.156861925
 40
0.3074024484
 40
0.44907166
 40
0.5799832602
 40
0.6992101801
 40
0.7545790853
 40
0.8073123282
 40
0.8577280829
 40
0.9062661171
 40
0.953477232
 40
1.0
 40
1.0
 40
1.0
 40
1.0
 10
187.0554758202
 20
96.5618650821
 30
0.0
 10
187.6267225987
 20
97.8504176386
 30
0.0
 10
188.6201406774
 20
100.4341548212
 30
0.0
 10
189.6560330632
 20
104.3425557649
 30
0.0
 10
190.1868357539
 20
108.118012438
 30
0.0
 10
190.1959143423
 20
111.6507392975
 30
0.0
 10
189.7537122656
 20
114.3773955073
 30
0.0
 10
189.1212002005
 20
116.3233955218
 30
0.0
 10
188.5323148809
 20
117.6239318129
 30
0.0
 10
187.8211035602
 20
118.7909664544
 30
0.0
 10
186.9922839742
 20
119.8152431817
 30
0.0
 10
186.0521162222
 20
120.6878671582
 30
0.0
 10
185.3534489941
 20
121.1649280434
 30
0.0
 10
184.9914181429
 20
121.3739431328
 30
0.0
  0
SPLINE
  5
3FC
100
AcDbEntity
  8
0
100
AcDbSpline
 62
7
  6
CONTINUOUS
 70
0
 71
3
 72
11
 73
7
 74
0
 42
0.0000001
 43
0.0000001
 44
0.0000000001
 40
0.0
 40
0.0
 40
0.0
 40
0.0
 40
0.289799778
 40
0.5490490151
 40
0.7822276429
 40
1.0
 40
1.0
 40
1.0
 40
1.0
 10
183.9466862324
 20
135.7307284826
 30
0.0
 10
184.1661542547
 20
135.8574376481
 30
0.0
 10
184.6025263277
 20
136.0651831795
 30
0.0
 10
185.2734003409
 20
136.2269670483
 30
0.0
 10
185.9027571085
 20
136.2112053825
 30
0.0
 10
186.2817178518
 20
136.0735759192
 30
0.0
 10
186.4466395469
 20
135.978360513
 30
0.0
  0
SPLINE
  5
3FD
100
AcDbEntity
  8
0
100
AcDbSpline
 62
7
  6
CONTINUOUS
 70
0
 71
3
 72
10
 73
6
 74
0
 42
0.0000001
 43
0.0000001
 44
0.0000000001
 40
0.0
 40
0.0
 40
0.0
 40
0.0
 40
0.5232856774
 40
0.7649792103
 40
1.0
 40
1.0
 40
1.0
 40
1.0
 10
188.5708006657
 20
93.0956725848
 30
0.0
 10
188.7031231992
 20
93.1247470001
 30
0.0
 10
188.9056385773
 20
93.1409140105
 30
0.0
 10
189.1601430719
 20
93.0863012058
 30
0.0
 10
189.2739790007
 20
93.0358328498
 30
0.0
 10
189.326679746
 20
93.0054191018
 30
0.0
  0
SPLINE
  5
3FE
100
AcDbEntity
  8
0
100
AcDbSpline
 62
7
  6
CONTINUOUS
 70
0
 71
3
 72
17
 73
13
 74
0
 42
0.0000001
 43
0.0000001
 44
0.0000000001
 40
0.0
 40
0.0
 40
0.0
 40
0.0
 40
0.1286938287
 40
0.2702786484
 40
0.4174347437
 40
0.5617788623
 40
0.6954492664
 40
0.8127116048
 40
0.8646776308
 40
0.9125100673
 40
0.9571398924
 40
1.0
 40
1.0
 40
1.0
 40
1.0
 10
152.8553646601
 20
70.4476894666
 30
0.0
 10
152.8553646601
 20
70.6699329818
 30
0.0
 10
152.9175316039
 20
71.1372161211
 30
0.0
 10
153.1496032824
 20
71.8233117525
 30
0.0
 10
153.5071611305
 20
72.4842491795
 30
0.0
 10
153.9615076459
 20
73.0658252782
 30
0.0
 10
154.4755091654
 20
73.5210711472
 30
0.0
 10
154.940762529
 20
73.7754173295
 30
0.0
 10
155.3046850516
 20
73.8722984214
 30
0.0
 10
155.5551652053
 20
73.8906663689
 30
0.0
 10
155.7884108352
 20
73.8565407149
 30
0.0
 10
155.9296983996
 20
73.7977857063
 30
0.0
 10
155.9938048597
 20
73.7607896883
 30
0.0
  0
SPLINE
  5
3FF
100
AcDbEntity
  8
0
100
AcDbSpline
 62
7
  6
CONTINUOUS
 70
0
 71
3
 72
17
 73
13
 74
0
 42
0.0000001
 43
0.0000001
 44
0.0000000001
 40
0.0
 40
0.0
 40
0.0
 40
0.0
 40
0.1286938287
 40
0.2702786484
 40
0.4174347437
 40
0.5617788623
 40
0.6954492664
 40
0.8127116048
 40
0.8646776308
 40
0.9125100673
 40
0.9571398924
 40
1.0
 40
1.0
 40
1.0
 40
1.0
 10
186.1882395464
 20
128.1822428236
 30
0.0
 10
186.1882395464
 20
128.4044863388
 30
0.0
 10
186.2504064902
 20
128.8717694781
 30
0.0
 10
186.4824781687
 20
129.5578651095
 30
0.0
 10
186.8400360168
 20
130.2188025365
 30
0.0
 10
187.2943825322
 20
130.8003786352
 30
0.0
 10
187.8083840516
 20
131.2556245041
 30
0.0
 10
188.2736374153
 20
131.5099706865
 30
0.0
 10
188.6375599378
 20
131.6068517784
 30
0.0
 10
188.8880400915
 20
131.6252197259
 30
0.0
 10
189.1212857215
 20
131.5910940719
 30
0.0
 10
189.2625732858
 20
131.5323390633
 30
0.0
 10
189.326679746
 20
131.4953430453
 30
0.0
  0
SPLINE
  5
400
100
AcDbEntity
  8
0
100
AcDbSpline
 62
7
  6
CONTINUOUS
 70
0
 71
3
 72
17
 73
13
 74
0
 42
0.0000001
 43
0.0000001
 44
0.0000000001
 40
0.0
 40
0.0
 40
0.0
 40
0.0
 40
0.1286938287
 40
0.2702786484
 40
0.4174347437
 40
0.5617788623
 40
0.6954492664
 40
0.8127116048
 40
0.8646776308
 40
0.9125100673
 40
0.9571398924
 40
1.0
 40
1.0
 40
1.0
 40
1.0
 10
152.8553646601
 20
108.9376134101
 30
0.0
 10
152.8553646601
 20
109.1598569253
 30
0.0
 10
152.9175316039
 20
109.6271400646
 30
0.0
 10
153.1496032824
 20
110.313235696
 30
0.0
 10
153.5071611305
 20
110.974173123
 30
0.0
 10
153.9615076459
 20
111.5557492217
 30
0.0
 10
154.4755091654
 20
112.0109950906
 30
0.0
 10
154.940762529
 20
112.265341273
 30
0.0
 10
155.3046850516
 20
112.3622223649
 30
0.0
 10
155.5551652053
 20
112.3805903124
 30
0.0
 10
155.7884108352
 20
112.3464646584
 30
0.0
 10
155.9296983996
 20
112.2877096498
 30
0.0
 10
155.9938048597
 20
112.2507136318
 30
0.0
  0
SPLINE
  5
401
100
AcDbEntity
  8
0
100
AcDbSpline
 62
7
  6
CONTINUOUS
 70
0
 71
3
 72
11
 73
7
 74
0
 42
0.0000001
 43
0.0000001
 44
0.0000000001
 40
0.0
 40
0.0
 40
0.0
 40
0.0
 40
0.2898012489
 40
0.5490510236
 40
0.7822290598
 40
1.0
 40
1.0
 40
1.0
 40
1.0
 10
191.5834418243
 20
131.3216407901
 30
0.0
 10
191.5834418243
 20
131.5750715811
 30
0.0
 10
191.5451680808
 20
132.0568746242
 30
0.0
 10
191.3498320358
 20
132.7187881048
 30
0.0
 10
191.0214888563
 20
133.2559653322
 30
0.0
 10
190.7128030995
 20
133.5153455631
 30
0.0
 10
190.5478759527
 20
133.6105641368
 30
0.0
  0
SPLINE
  5
402
100
AcDbEntity
  8
0
100
AcDbSpline
 62
7
  6
CONTINUOUS
 70
0
 71
3
 72
15
 73
11
 74
0
 42
0.0000001
 43
0.0000001
 44
0.0000000001
 40
0.0
 40
0.0
 40
0.0
 40
0.0
 40
0.1141543519
 40
0.237325601
 40
0.366974755
 40
0.4999984147
 40
0.6330222943
 40
0.7626720931
 40
0.8858443543
 40
1.0
 40
1.0
 40
1.0
 40
1.0
 10
188.0479226382
 20
86.6589938466
 30
0.0
 10
188.2899574152
 20
86.7987318561
 30
0.0
 10
188.7680194341
 20
87.1338499515
 30
0.0
 10
189.4258066687
 20
87.7492632877
 30
0.0
 10
190.0319931527
 20
88.4767277714
 30
0.0
 10
190.5637465499
 20
89.288953881
 30
0.0
 10
191.0012747314
 20
90.1555824448
 30
0.0
 10
191.3281820715
 20
91.0442932264
 30
0.0
 10
191.5322514345
 20
91.9216678532
 30
0.0
 10
191.5834418243
 20
92.5032462639
 30
0.0
 10
191.5834418243
 20
92.7827267016
 30
0.0
  0
SPLINE
  5
403
100
AcDbEntity
  8
0
100
AcDbSpline
 62
7
  6
CONTINUOUS
 70
0
 71
3
 72
25
 73
21
 74
0
 42
0.0000001
 43
0.0000001
 44
0.0000000001
 40
0.0
 40
0.0
 40
0.0
 40
0.0
 40
0.0213320791
 40
0.0428926617
 40
0.0648979477
 40
0.0875428516
 40
0.1353180106
 40
0.1872190276
 40
0.2436567825
 40
0.304604725
 40
0.3696925383
 40
0.4382898856
 40
0.5095763441
 40
0.5826005951
 40
0.656332067
 40
0.7297091863
 40
0.8016853277
 40
0.8712781831
 40
0.9376162149
 40
1.0
 40
1.0
 40
1.0
 40
1.0
 10
158.8605014471
 20
78.7256733269
 30
0.0
 10
158.5533556827
 20
78.9030005535
 30
0.0
 10
157.9579182304
 20
79.2995664016
 30
0.0
 10
157.1407911386
 20
80.0082460569
 30
0.0
 10
156.4017656411
 20
80.8277536865
 30
0.0
 10
155.510794617
 20
82.0833800473
 30
0.0
 10
154.6187810805
 20
83.9283665651
 30
0.0
 10
153.9388637076
 20
86.4455935893
 30
0.0
 10
153.6358481993
 20
89.2536211823
 30
0.0
 10
153.7132613504
 20
92.2940014543
 30
0.0
 10
154.1676476762
 20
95.5042216085
 30
0.0
 10
154.9888926475
 20
98.8171322364
 30
0.0
 10
156.1593822419
 20
102.162852075
 30
0.0
 10
157.6541903674
 20
105.470335218
 30
0.0
 10
159.4414459683
 20
108.669116598
 30
0.0
 10
161.4830397668
 20
111.690957232
 30
0.0
 10
163.7353930392
 20
114.4714116314
 30
0.0
 10
166.1508392404
 20
116.9513999714
 30
0.0
 10
168.6776996957
 20
119.0779435227
 30
0.0
 10
170.4620544085
 20
120.2703782545
 30
0.0
 10
171.36027208
 20
120.7889613734
 30
0.0
  0
SPLINE
  5
404
100
AcDbEntity
  8
0
100
AcDbSpline
 62
7
  6
CONTINUOUS
 70
0
 71
3
 72
25
 73
21
 74
0
 42
0.0000001
 43
0.0000001
 44
0.0000000001
 40
0.0
 40
0.0
 40
0.0
 40
0.0
 40
0.0623836167
 40
0.1287213509
 40
0.1983140001
 40
0.2702900758
 40
0.3436673578
 40
0.4173990717
 40
0.4904234985
 40
0.5617100966
 40
0.6303076041
 40
0.6953955537
 40
0.7563435331
 40
0.8127812253
 40
0.8646821605
 40
0.9124572692
 40
0.9351021548
 40
0.9571074167
 40
0.9786679641
 40
1.0
 40
1.0
 40
1.0
 40
1.0
 10
172.4916476402
 20
120.1357761662
 30
0.0
 10
171.593432396
 20
119.6171944487
 30
0.0
 10
169.8090837512
 20
118.4247646591
 30
0.0
 10
167.2822312191
 20
116.2982291653
 30
0.0
 10
164.866789266
 20
113.8182499875
 30
0.0
 10
162.614435045
 20
111.0377986875
 30
0.0
 10
160.5728356979
 20
108.0159549971
 30
0.0
 10
158.7855737512
 20
104.8171660678
 30
0.0
 10
157.2907608214
 20
101.509674908
 30
0.0
 10
156.1202682804
 20
98.1639477058
 30
0.0
 10
155.2990218307
 20
94.8510299487
 30
0.0
 10
154.844635772
 20
91.6408041289
 30
0.0
 10
154.7672242355
 20
88.6004219506
 30
0.0
 10
155.0702416164
 20
85.7923963774
 30
0.0
 10
155.7501599516
 20
83.2751729723
 30
0.0
 10
156.6421738136
 20
81.4301894796
 30
0.0
 10
157.533144356
 20
80.1745646643
 30
0.0
 10
158.2721695996
 20
79.3550585672
 30
0.0
 10
159.0892955764
 20
78.6463802074
 30
0.0
 10
159.6847322024
 20
78.2498155676
 30
0.0
 10
159.9918771375
 20
78.072488343
 30
0.0
  0
SPLINE
  5
405
100
AcDbEntity
  8
0
100
AcDbSpline
 62
7
  6
CONTINUOUS
 70
0
 71
3
 72
11
 73
7
 74
0
 42
0.0000001
 43
0.0000001
 44
0.0000000001
 40
0.0
 40
0.0
 40
0.0
 40
0.0
 40
0.2177798312
 40
0.4509239181
 40
0.7102597115
 40
1.0
 40
1.0
 40
1.0
 40
1.0
 10
155.9938048597
 20
112.2507136318
 30
0.0
 10
156.0795780652
 20
112.2012136742
 30
0.0
 10
156.2400353295
 20
112.0662870652
 30
0.0
 10
156.4108632946
 20
111.786992893
 30
0.0
 10
156.5123607258
 20
111.4427724598
 30
0.0
 10
156.5323046136
 20
111.1922375865
 30
0.0
 10
156.5323046136
 20
111.0604830102
 30
0.0
  0
SPLINE
  5
406
100
AcDbEntity
  8
0
100
AcDbSpline
 62
7
  6
CONTINUOUS
 70
0
 71
3
 72
11
 73
7
 74
0
 42
0.0000001
 43
0.0000001
 44
0.0000000001
 40
0.0
 40
0.0
 40
0.0
 40
0.0
 40
0.2177798312
 40
0.4509239181
 40
0.7102597115
 40
1.0
 40
1.0
 40
1.0
 40
1.0
 10
189.326679746
 20
131.4953430453
 30
0.0
 10
189.4124529515
 20
131.4458430877
 30
0.0
 10
189.5729102158
 20
131.3109164787
 30
0.0
 10
189.7437381809
 20
131.0316223065
 30
0.0
 10
189.8452356121
 20
130.6874018733
 30
0.0
 10
189.8651794999
 20
130.436867
 30
0.0
 10
189.8651794999
 20
130.3051124237
 30
0.0
  0
SPLINE
  5
407
100
AcDbEntity
  8
0
100
AcDbSpline
 62
7
  6
CONTINUOUS
 70
0
 71
3
 72
17
 73
13
 74
0
 42
0.0000001
 43
0.0000001
 44
0.0000000001
 40
0.0
 40
0.0
 40
0.0
 40
0.0
 40
0.1286938287
 40
0.2702786484
 40
0.4174347437
 40
0.5617788623
 40
0.6954492664
 40
0.8127116048
 40
0.8646776308
 40
0.9125100673
 40
0.9571398924
 40
1.0
 40
1.0
 40
1.0
 40
1.0
 10
189.8651794999
 20
91.8151884802
 30
0.0
 10
189.8651794999
 20
91.592944965
 30
0.0
 10
189.803012556
 20
91.1256618257
 30
0.0
 10
189.5709408775
 20
90.4395661943
 30
0.0
 10
189.2133830294
 20
89.7786287673
 30
0.0
 10
188.759036514
 20
89.1970526686
 30
0.0
 10
188.2450349946
 20
88.7418067997
 30
0.0
 10
187.7797816309
 20
88.4874606173
 30
0.0
 10
187.4158591084
 20
88.3905795254
 30
0.0
 10
187.1653789547
 20
88.3722115779
 30
0.0
 10
186.9321333247
 20
88.4063372319
 30
0.0
 10
186.7908457604
 20
88.4650922405
 30
0.0
 10
186.7267393002
 20
88.5020882585
 30
0.0
  0
SPLINE
  5
408
100
AcDbEntity
  8
0
100
AcDbSpline
 62
7
  6
CONTINUOUS
 70
0
 71
3
 72
11
 73
7
 74
0
 42
0.0000001
 43
0.0000001
 44
0.0000000001
 40
0.0
 40
0.0
 40
0.0
 40
0.0
 40
0.2177798312
 40
0.4509239181
 40
0.7102597115
 40
1.0
 40
1.0
 40
1.0
 40
1.0
 10
155.9938048597
 20
73.7607896883
 30
0.0
 10
156.0795780652
 20
73.7112897307
 30
0.0
 10
156.2400353295
 20
73.5763631217
 30
0.0
 10
156.4108632946
 20
73.2970689496
 30
0.0
 10
156.5123607258
 20
72.9528485164
 30
0.0
 10
156.5323046136
 20
72.702313643
 30
0.0
 10
156.5323046136
 20
72.5705590667
 30
0.0
  0
SPLINE
  5
409
100
AcDbEntity
  8
0
100
AcDbSpline
 62
7
  6
CONTINUOUS
 70
0
 71
3
 72
15
 73
11
 74
0
 42
0.0000001
 43
0.0000001
 44
0.0000000001
 40
0.0
 40
0.0
 40
0.0
 40
0.0
 40
0.1080128151
 40
0.2180620975
 40
0.3319994177
 40
0.4513585055
 40
0.577277768
 40
0.710492627
 40
0.8514154749
 40
1.0
 40
1.0
 40
1.0
 40
1.0
 10
184.9914181429
 20
121.3739431328
 30
0.0
 10
184.5815431205
 20
121.610580602
 30
0.0
 10
183.7113122212
 20
122.0181077079
 30
0.0
 10
182.3032259699
 20
122.4074741553
 30
0.0
 10
180.8021692157
 20
122.5748683539
 30
0.0
 10
179.2241304465
 20
122.5199695386
 30
0.0
 10
177.5843335325
 20
122.2448893435
 30
0.0
 10
175.8979822218
 20
121.7532815097
 30
0.0
 10
174.1810736196
 20
121.0505359858
 30
0.0
 10
173.055478145
 20
120.4613019168
 30
0.0
 10
172.4916476402
 20
120.1357761662
 30
0.0
  0
SPLINE
  5
40A
100
AcDbEntity
  8
0
100
AcDbSpline
 62
7
  6
CONTINUOUS
 70
0
 71
3
 72
17
 73
13
 74
0
 42
0.0000001
 43
0.0000001
 44
0.0000000001
 40
0.0
 40
0.0
 40
0.0
 40
0.0
 40
0.1286938287
 40
0.2702786484
 40
0.4174347437
 40
0.5617788623
 40
0.6954492664
 40
0.8127116048
 40
0.8646776308
 40
0.9125100673
 40
0.9571398924
 40
1.0
 40
1.0
 40
1.0
 40
1.0
 10
156.5323046136
 20
72.5705590667
 30
0.0
 10
156.5323046136
 20
72.3483155515
 30
0.0
 10
156.4701376698
 20
71.8810324122
 30
0.0
 10
156.2380659913
 20
71.1949367808
 30
0.0
 10
155.8805081432
 20
70.5339993538
 30
0.0
 10
155.4261616278
 20
69.9524232551
 30
0.0
 10
154.9121601084
 20
69.4971773862
 30
0.0
 10
154.4469067447
 20
69.2428312038
 30
0.0
 10
154.0829842221
 20
69.1459501119
 30
0.0
 10
153.8325040684
 20
69.1275821644
 30
0.0
 10
153.5992584385
 20
69.1617078184
 30
0.0
 10
153.4579708741
 20
69.220462827
 30
0.0
 10
153.393864414
 20
69.257458845
 30
0.0
  0
SPLINE
  5
40B
100
AcDbEntity
  8
0
100
AcDbSpline
 62
7
  6
CONTINUOUS
 70
0
 71
3
 72
17
 73
13
 74
0
 42
0.0000001
 43
0.0000001
 44
0.0000000001
 40
0.0
 40
0.0
 40
0.0
 40
0.0
 40
0.1286938287
 40
0.2702786484
 40
0.4174347437
 40
0.5617788623
 40
0.6954492664
 40
0.8127116048
 40
0.8646776308
 40
0.9125100673
 40
0.9571398924
 40
1.0
 40
1.0
 40
1.0
 40
1.0
 10
189.8651794999
 20
130.3051124237
 30
0.0
 10
189.8651794999
 20
130.0828689085
 30
0.0
 10
189.803012556
 20
129.6155857692
 30
0.0
 10
189.5709408775
 20
128.9294901378
 30
0.0
 10
189.2133830294
 20
128.2685527108
 30
0.0
 10
188.759036514
 20
127.6869766121
 30
0.0
 10
188.2450349946
 20
127.2317307431
 30
0.0
 10
187.7797816309
 20
126.9773845608
 30
0.0
 10
187.4158591084
 20
126.8805034689
 30
0.0
 10
187.1653789547
 20
126.8621355214
 30
0.0
 10
186.9321333247
 20
126.8962611754
 30
0.0
 10
186.7908457604
 20
126.955016184
 30
0.0
 10
186.7267393002
 20
126.992012202
 30
0.0
  0
SPLINE
  5
40C
100
AcDbEntity
  8
0
100
AcDbSpline
 62
7
  6
CONTINUOUS
 70
0
 71
3
 72
11
 73
7
 74
0
 42
0.0000001
 43
0.0000001
 44
0.0000000001
 40
0.0
 40
0.0
 40
0.0
 40
0.0
 40
0.2177723674
 40
0.4509510027
 40
0.7102002307
 40
1.0
 40
1.0
 40
1.0
 40
1.0
 10
190.5478759527
 20
133.6105641368
 30
0.0
 10
190.3829542584
 20
133.7057795625
 30
0.0
 10
190.0039934867
 20
133.8434090123
 30
0.0
 10
189.3746367156
 20
133.8591706673
 30
0.0
 10
188.7037627098
 20
133.6973867998
 30
0.0
 10
188.2673906542
 20
133.4896412682
 30
0.0
 10
188.0479226382
 20
133.3629321064
 30
0.0
  0
SPLINE
  5
40D
100
AcDbEntity
  8
0
100
AcDbSpline
 62
7
  6
CONTINUOUS
 70
0
 71
3
 72
15
 73
11
 74
0
 42
0.0000001
 43
0.0000001
 44
0.0000000001
 40
0.0
 40
0.0
 40
0.0
 40
0.0
 40
0.1141543519
 40
0.237325601
 40
0.366974755
 40
0.4999984147
 40
0.6330222943
 40
0.7626720931
 40
0.8858443543
 40
1.0
 40
1.0
 40
1.0
 40
1.0
 10
154.6726215217
 20
114.0938080437
 30
0.0
 10
154.4305867448
 20
113.9540700342
 30
0.0
 10
153.9525247259
 20
113.6189519388
 30
0.0
 10
153.2947374913
 20
113.0035386026
 30
0.0
 10
152.6885510072
 20
112.2760741189
 30
0.0
 10
152.15679761
 20
111.4638480093
 30
0.0
 10
151.7192694286
 20
110.5972194455
 30
0.0
 10
151.3923620884
 20
109.7085086639
 30
0.0
 10
151.1882927255
 20
108.8311340371
 30
0.0
 10
151.1371023357
 20
108.2495556264
 30
0.0
 10
151.1371023357
 20
107.9700751887
 30
0.0
  0
SPLINE
  5
40E
100
AcDbEntity
  8
0
100
AcDbSpline
 62
7
  6
CONTINUOUS
 70
0
 71
3
 72
11
 73
7
 74
0
 42
0.0000001
 43
0.0000001
 44
0.0000000001
 40
0.0
 40
0.0
 40
0.0
 40
0.0
 40
0.2177798312
 40
0.4509239181
 40
0.7102597115
 40
1.0
 40
1.0
 40
1.0
 40
1.0
 10
189.326679746
 20
93.0054191018
 30
0.0
 10
189.4124529515
 20
92.9559191442
 30
0.0
 10
189.5729102158
 20
92.8209925352
 30
0.0
 10
189.7437381809
 20
92.5416983631
 30
0.0
 10
189.8452356121
 20
92.1974779299
 30
0.0
 10
189.8651794999
 20
91.9469430565
 30
0.0
 10
189.8651794999
 20
91.8151884802
 30
0.0
  0
SPLINE
  5
40F
100
AcDbEntity
  8
0
100
AcDbSpline
 62
7
  6
CONTINUOUS
 70
0
 71
3
 72
11
 73
7
 74
0
 42
0.0000001
 43
0.0000001
 44
0.0000000001
 40
0.0
 40
0.0
 40
0.0
 40
0.0
 40
0.2898012489
 40
0.5490510236
 40
0.7822290598
 40
1.0
 40
1.0
 40
1.0
 40
1.0
 10
151.1371023357
 20
69.4311611002
 30
0.0
 10
151.1371023357
 20
69.1777303092
 30
0.0
 10
151.1753760791
 20
68.695927266
 30
0.0
 10
151.3707121242
 20
68.0340137855
 30
0.0
 10
151.6990553036
 20
67.4968365581
 30
0.0
 10
152.0077410605
 20
67.2374563272
 30
0.0
 10
152.1726682072
 20
67.1422377535
 30
0.0
  0
SPLINE
  5
410
100
AcDbEntity
  8
0
100
AcDbSpline
 62
7
  6
CONTINUOUS
 70
0
 71
3
 72
17
 73
13
 74
0
 42
0.0000001
 43
0.0000001
 44
0.0000000001
 40
0.0
 40
0.0
 40
0.0
 40
0.0
 40
0.1286938287
 40
0.2702786484
 40
0.4174347437
 40
0.5617788623
 40
0.6954492664
 40
0.8127116048
 40
0.8646776308
 40
0.9125100673
 40
0.9571398924
 40
1.0
 40
1.0
 40
1.0
 40
1.0
 10
156.5323046136
 20
111.0604830102
 30
0.0
 10
156.5323046136
 20
110.838239495
 30
0.0
 10
156.4701376698
 20
110.3709563557
 30
0.0
 10
156.2380659913
 20
109.6848607243
 30
0.0
 10
155.8805081432
 20
109.0239232973
 30
0.0
 10
155.4261616278
 20
108.4423471986
 30
0.0
 10
154.9121601084
 20
107.9871013296
 30
0.0
 10
154.4469067447
 20
107.7327551473
 30
0.0
 10
154.0829842221
 20
107.6358740554
 30
0.0
 10
153.8325040684
 20
107.6175061079
 30
0.0
 10
153.5992584385
 20
107.6516317619
 30
0.0
 10
153.4579708741
 20
107.7103867705
 30
0.0
 10
153.393864414
 20
107.7473827885
 30
0.0
  0
SPLINE
  5
411
100
AcDbEntity
  8
0
100
AcDbSpline
 62
7
  6
CONTINUOUS
 70
0
 71
3
 72
15
 73
11
 74
0
 42
0.0000001
 43
0.0000001
 44
0.0000000001
 40
0.0
 40
0.0
 40
0.0
 40
0.0
 40
0.1485845154
 40
0.2895068088
 40
0.4227213715
 40
0.5486405566
 40
0.6679995612
 40
0.781937036
 40
0.8919867099
 40
1.0
 40
1.0
 40
1.0
 40
1.0
 10
171.36027208
 20
120.7889613734
 30
0.0
 10
171.9241025683
 20
121.1144871144
 30
0.0
 10
173.0496955417
 20
121.7037207185
 30
0.0
 10
174.7666008594
 20
122.4064646099
 30
0.0
 10
176.4529481293
 20
122.8980714711
 30
0.0
 10
178.0927424678
 20
123.1731552359
 30
0.0
 10
179.6707814134
 20
123.2280544304
 30
0.0
 10
181.1718400736
 20
123.060660824
 30
0.0
 10
182.5799321112
 20
122.6712973909
 30
0.0
 10
183.4501655977
 20
122.2637666049
 30
0.0
 10
183.8600427129
 20
122.0271285634
 30
0.0
  0
SPLINE
  5
412
100
AcDbEntity
  8
0
100
AcDbSpline
 62
7
  6
CONTINUOUS
 70
0
 71
3
 72
13
 73
9
 74
0
 42
0.0000001
 43
0.0000001
 44
0.0000000001
 40
0.0
 40
0.0
 40
0.0
 40
0.0
 40
0.1142466307
 40
0.237544229
 40
0.5000005226
 40
0.7624565301
 40
0.8857537943
 40
1.0
 40
1.0
 40
1.0
 40
1.0
 10
113.9427969471
 20
207.2552264835
 30
0.0
 10
113.7975879856
 20
207.3390610199
 30
0.0
 10
113.4800074829
 20
207.4869546613
 30
0.0
 10
112.7761763902
 20
207.7007161681
 30
0.0
 10
111.8214732803
 20
207.8045576507
 30
0.0
 10
110.8667710886
 20
207.7007117539
 30
0.0
 10
110.1629426335
 20
207.4869467849
 30
0.0
 10
109.8453640768
 20
207.3390515571
 30
0.0
 10
109.70015626
 20
207.2552162854
 30
0.0
  0
SPLINE
  5
413
100
AcDbEntity
  8
0
100
AcDbSpline
 62
7
  6
CONTINUOUS
 70
0
 71
3
 72
14
 73
10
 74
0
 42
0.0000001
 43
0.0000001
 44
0.0000000001
 40
0.0
 40
0.0
 40
0.0
 40
0.0
 40
0.0957392945
 40
0.1960578689
 40
0.30454131
 40
0.4233191735
 40
0.553123256
 40
0.6935421622
 40
1.0
 40
1.0
 40
1.0
 40
1.0
 10
73.6777954906
 20
232.2398279149
 30
0.0
 10
73.6777945483
 20
232.362914384
 30
0.0
 10
73.6419792377
 20
232.6161996024
 30
0.0
 10
73.4853010376
 20
232.9792474844
 30
0.0
 10
73.2324137193
 20
233.3199917394
 30
0.0
 10
72.8916069138
 20
233.6309690276
 30
0.0
 10
72.4716993271
 20
233.9060015313
 30
0.0
 10
71.8009586478
 20
234.2256026851
 30
0.0
 10
71.2410659194
 20
234.378419017
 30
0.0
 10
70.8531288465
 20
234.4472446569
 30
0.0
  0
SPLINE
  5
414
100
AcDbEntity
  8
0
100
AcDbSpline
 62
7
  6
CONTINUOUS
 70
0
 71
3
 72
11
 73
7
 74
0
 42
0.0000001
 43
0.0000001
 44
0.0000000001
 40
0.0
 40
0.0
 40
0.0
 40
0.0
 40
0.260153143
 40
0.5216020698
 40
0.7717920974
 40
1.0
 40
1.0
 40
1.0
 40
1.0
 10
70.8531288465
 20
234.4472446569
 30
0.0
 10
70.5016870548
 20
234.5095955069
 30
0.0
 10
69.7855836999
 20
234.5759151263
 30
0.0
 10
68.7245527358
 20
234.5108701705
 30
0.0
 10
67.7297561159
 20
234.2883528297
 30
0.0
 10
67.1205379298
 20
234.0293407653
 30
0.0
 10
66.8493840481
 20
233.8727909332
 30
0.0
  0
SPLINE
  5
415
100
AcDbEntity
  8
0
100
AcDbSpline
 62
7
  6
CONTINUOUS
 70
0
 71
3
 72
13
 73
9
 74
0
 42
0.0000001
 43
0.0000001
 44
0.0000000001
 40
0.0
 40
0.0
 40
0.0
 40
0.0
 40
0.1142483233
 40
0.2375469957
 40
0.4999994774
 40
0.7624522452
 40
0.8857512516
 40
1.0
 40
1.0
 40
1.0
 40
1.0
 10
78.4462049268
 20
180.147761661
 30
0.0
 10
78.3009945018
 20
180.0639248835
 30
0.0
 10
77.9834100716
 20
179.916030185
 30
0.0
 10
77.2795812883
 20
179.7022680825
 30
0.0
 10
76.3248879064
 20
179.5984271411
 30
0.0
 10
75.3701936065
 20
179.7022636683
 30
0.0
 10
74.6663621856
 20
179.9160223086
 30
0.0
 10
74.3487758094
 20
180.0639154207
 30
0.0
 10
74.2035642397
 20
180.1477514629
 30
0.0
  0
SPLINE
  5
416
100
AcDbEntity
  8
0
100
AcDbSpline
 62
7
  6
CONTINUOUS
 70
0
 71
3
 72
11
 73
7
 74
0
 42
0.0000001
 43
0.0000001
 44
0.0000000001
 40
0.0
 40
0.0
 40
0.0
 40
0.0
 40
0.2897781767
 40
0.5490726313
 40
0.7822276909
 40
1.0
 40
1.0
 40
1.0
 40
1.0
 10
109.7001739238
 20
205.9488649442
 30
0.0
 10
109.5685015629
 20
206.0248842975
 30
0.0
 10
109.3296460461
 20
206.1893293973
 30
0.0
 10
109.044274688
 20
206.4893609761
 30
0.0
 10
108.8637051741
 20
206.821152169
 30
0.0
 10
108.8215074893
 20
207.0593362757
 30
0.0
 10
108.8215074878
 20
207.1735974058
 30
0.0
  0
SPLINE
  5
417
100
AcDbEntity
  8
0
100
AcDbSpline
 62
7
  6
CONTINUOUS
 70
0
 71
3
 72
15
 73
11
 74
0
 42
0.0000001
 43
0.0000001
 44
0.0000000001
 40
0.0
 40
0.0
 40
0.0
 40
0.0
 40
0.0933564697
 40
0.192039241
 40
0.3000218815
 40
0.4193885318
 40
0.5505041666
 40
0.6923753351
 40
0.8430958291
 40
1.0
 40
1.0
 40
1.0
 40
1.0
 10
76.4278114796
 20
230.6068230839
 30
0.0
 10
76.4278184488
 20
230.8353324123
 30
0.0
 10
76.3539131485
 20
231.3080570313
 30
0.0
 10
76.0333214029
 20
231.9781162324
 30
0.0
 10
75.5202455878
 20
232.5979547594
 30
0.0
 10
74.8340249503
 20
233.1522288034
 30
0.0
 10
73.9955870598
 20
233.6277859044
 30
0.0
 10
73.0293014874
 20
234.0121897421
 30
0.0
 10
71.9635616836
 20
234.2944827951
 30
0.0
 10
71.2175096184
 20
234.4077472702
 30
0.0
 10
70.8353789523
 20
234.4461502662
 30
0.0
  0
SPLINE
  5
418
100
AcDbEntity
  8
0
100
AcDbSpline
 62
7
  6
CONTINUOUS
 70
0
 71
3
 72
10
 73
6
 74
0
 42
0.0000001
 43
0.0000001
 44
0.0000000001
 40
0.0
 40
0.0
 40
0.0
 40
0.0
 40
0.2380982603
 40
0.4814216677
 40
1.0
 40
1.0
 40
1.0
 40
1.0
 10
77.1778026923
 20
225.2995573525
 30
0.0
 10
77.1777880924
 20
225.4530925694
 30
0.0
 10
77.1488164634
 20
225.7643244256
 30
0.0
 10
76.973755384
 20
226.3877053642
 30
0.0
 10
76.7182646065
 20
226.8196538719
 30
0.0
 10
76.512126283
 20
227.0829603325
 30
0.0
  0
SPLINE
  5
419
100
AcDbEntity
  8
0
100
AcDbSpline
 62
7
  6
CONTINUOUS
 70
0
 71
3
 72
18
 73
14
 74
0
 42
0.0000001
 43
0.0000001
 44
0.0000000001
 40
0.0
 40
0.0
 40
0.0
 40
0.0
 40
0.0428473854
 40
0.0874642904
 40
0.1352855905
 40
0.1872370585
 40
0.2437280374
 40
0.3047335978
 40
0.4383684003
 40
0.5826764803
 40
0.7297923549
 40
0.8713437444
 40
1.0
 40
1.0
 40
1.0
 40
1.0
 10
57.9573128016
 20
224.8914754751
 30
0.0
 10
57.9573279457
 20
225.040926493
 30
0.0
 10
57.9173154436
 20
225.3472942945
 30
0.0
 10
57.7416567891
 20
225.7896845201
 30
0.0
 10
57.4565270714
 20
226.2090616333
 30
0.0
 10
57.0700682208
 20
226.5970967572
 30
0.0
 10
56.5912224253
 20
226.9470493372
 30
0.0
 10
55.8198339779
 20
227.3664141123
 30
0.0
 10
54.6895106859
 20
227.743914904
 30
0.0
 10
53.2146240621
 20
227.9510116055
 30
0.0
 10
51.6975792289
 20
227.9091074857
 30
0.0
 10
50.2635660623
 20
227.6221520224
 30
0.0
 10
49.3836351735
 20
227.2591139471
 30
0.0
 10
48.9950047985
 20
227.0347394348
 30
0.0
  0
SPLINE
  5
41A
100
AcDbEntity
  8
0
100
AcDbSpline
 62
7
  6
CONTINUOUS
 70
0
 71
3
 72
11
 73
7
 74
0
 42
0.0000001
 43
0.0000001
 44
0.0000000001
 40
0.0
 40
0.0
 40
0.0
 40
0.0
 40
0.2208679447
 40
0.4553888858
 40
0.7134828703
 40
1.0
 40
1.0
 40
1.0
 40
1.0
 10
58.7073096424
 20
224.0749730566
 30
0.0
 10
58.7073311706
 20
224.2871268455
 30
0.0
 10
58.6352687494
 20
224.7271972205
 30
0.0
 10
58.3241677377
 20
225.34730108
 30
0.0
 10
57.8285958248
 20
225.9164444792
 30
0.0
 10
57.4099251
 20
226.2356372265
 30
0.0
 10
57.178662423
 20
226.3848340199
 30
0.0
  0
SPLINE
  5
41B
100
AcDbEntity
  8
0
100
AcDbSpline
 62
7
  6
CONTINUOUS
 70
0
 71
3
 72
11
 73
7
 74
0
 42
0.0000001
 43
0.0000001
 44
0.0000000001
 40
0.0
 40
0.0
 40
0.0
 40
0.0
 40
0.2272379022
 40
0.4647383973
 40
0.7206518845
 40
1.0
 40
1.0
 40
1.0
 40
1.0
 10
60.2073229938
 20
215.90994888
 30
0.0
 10
60.2073178479
 20
216.1338701375
 30
0.0
 10
60.1442658302
 20
216.5939354477
 30
0.0
 10
59.8678282091
 20
217.2553661789
 30
0.0
 10
59.4209446215
 20
217.8785892583
 30
0.0
 10
59.0358294062
 20
218.2434515463
 30
0.0
 10
58.8222275667
 20
218.4170842659
 30
0.0
  0
SPLINE
  5
41C
100
AcDbEntity
  8
0
100
AcDbSpline
 62
7
  6
CONTINUOUS
 70
0
 71
3
 72
11
 73
7
 74
0
 42
0.0000001
 43
0.0000001
 44
0.0000000001
 40
0.0
 40
0.0
 40
0.0
 40
0.0
 40
0.2897733512
 40
0.5490657165
 40
0.7822241652
 40
1.0
 40
1.0
 40
1.0
 40
1.0
 10
74.2035436319
 20
186.7613597611
 30
0.0
 10
74.0718752732
 20
186.6853414525
 30
0.0
 10
73.8330246579
 20
186.5209006834
 30
0.0
 10
73.5476575447
 20
186.2208734429
 30
0.0
 10
73.3670849642
 20
185.889085093
 30
0.0
 10
73.324886821
 20
185.6508993829
 30
0.0
 10
73.3248868224
 20
185.5366374975
 30
0.0
  0
SPLINE
  5
41D
100
AcDbEntity
  8
0
100
AcDbSpline
 62
7
  6
CONTINUOUS
 70
0
 71
3
 72
11
 73
7
 74
0
 42
0.0000001
 43
0.0000001
 44
0.0000000001
 40
0.0
 40
0.0
 40
0.0
 40
0.0
 40
0.2897733512
 40
0.5490657165
 40
0.7822241652
 40
1.0
 40
1.0
 40
1.0
 40
1.0
 10
32.4840698482
 20
210.8475642778
 30
0.0
 10
32.3524014895
 20
210.7715459692
 30
0.0
 10
32.1135508742
 20
210.6071052001
 30
0.0
 10
31.828183761
 20
210.3070779596
 30
0.0
 10
31.6476111805
 20
209.9752896097
 30
0.0
 10
31.6054130373
 20
209.7371038996
 30
0.0
 10
31.6054130387
 20
209.6228420142
 30
0.0
  0
SPLINE
  5
41E
100
AcDbEntity
  8
0
100
AcDbSpline
 62
7
  6
CONTINUOUS
 70
0
 71
3
 72
11
 73
7
 74
0
 42
0.0000001
 43
0.0000001
 44
0.0000000001
 40
0.0
 40
0.0
 40
0.0
 40
0.0
 40
0.2177753738
 40
0.4509336309
 40
0.7102261693
 40
1.0
 40
1.0
 40
1.0
 40
1.0
 10
107.9018596124
 20
211.5826581554
 30
0.0
 10
107.9018596105
 20
211.735008976
 30
0.0
 10
107.8455941348
 20
212.0525935871
 30
0.0
 10
107.6048254856
 20
212.4949823369
 30
0.0
 10
107.2243282736
 20
212.8950216228
 30
0.0
 10
106.9058547426
 20
213.1142768187
 30
0.0
 10
106.730293648
 20
213.2156347709
 30
0.0
  0
SPLINE
  5
41F
100
AcDbEntity
  8
0
100
AcDbSpline
 62
7
  6
CONTINUOUS
 70
0
 71
3
 72
11
 73
7
 74
0
 42
0.0000001
 43
0.0000001
 44
0.0000000001
 40
0.0
 40
0.0
 40
0.0
 40
0.0
 40
0.2242718271
 40
0.4624182716
 40
0.7198934372
 40
1.0
 40
1.0
 40
1.0
 40
1.0
 10
87.7339222849
 20
208.7234146683
 30
0.0
 10
87.7165001783
 20
208.8376029482
 30
0.0
 10
87.6498939114
 20
209.0691512301
 30
0.0
 10
87.4673105483
 20
209.3949543163
 30
0.0
 10
87.2055400738
 20
209.6996932982
 30
0.0
 10
86.9916535146
 20
209.8774826132
 30
0.0
 10
86.8747352057
 20
209.9619993669
 30
0.0
  0
SPLINE
  5
420
100
AcDbEntity
  8
0
100
AcDbSpline
 62
7
  6
CONTINUOUS
 70
0
 71
3
 72
11
 73
7
 74
0
 42
0.0000001
 43
0.0000001
 44
0.0000000001
 40
0.0
 40
0.0
 40
0.0
 40
0.0
 40
0.2177845113
 40
0.450917848
 40
0.7103083905
 40
1.0
 40
1.0
 40
1.0
 40
1.0
 10
82.0423337031
 20
201.4816551118
 30
0.0
 10
82.1083102797
 20
201.4435764046
 30
0.0
 10
82.2598832177
 20
201.3885532697
 30
0.0
 10
82.5116607092
 20
201.3821860976
 30
0.0
 10
82.7799852312
 20
201.4469886069
 30
0.0
 10
82.954559026
 20
201.530038913
 30
0.0
 10
83.0423121574
 20
201.5807029046
 30
0.0
  0
SPLINE
  5
421
100
AcDbEntity
  8
0
100
AcDbSpline
 62
7
  6
CONTINUOUS
 70
0
 71
3
 72
17
 73
13
 74
0
 42
0.0000001
 43
0.0000001
 44
0.0000000001
 40
0.0
 40
0.0
 40
0.0
 40
0.0
 40
0.0428590382
 40
0.0874850278
 40
0.1353193459
 40
0.1872814037
 40
0.3045420728
 40
0.4382079173
 40
0.5825499624
 40
0.7297142529
 40
0.8713069433
 40
1.0
 40
1.0
 40
1.0
 40
1.0
 10
81.6887776679
 20
201.68577342
 30
0.0
 10
81.639468716
 20
201.7142363303
 30
0.0
 10
81.5460285088
 20
201.7858047213
 30
0.0
 10
81.4335225495
 20
201.9280034405
 30
0.0
 10
81.3494799745
 20
202.101959235
 30
0.0
 10
81.2739868992
 20
202.3816294419
 30
0.0
 10
81.2645196108
 20
202.7893973042
 30
0.0
 10
81.3700694033
 20
203.3068952123
 30
0.0
 10
81.5827282701
 20
203.8332711916
 30
0.0
 10
81.8855005801
 20
204.3257031907
 30
0.0
 10
82.2533134071
 20
204.7442089039
 30
0.0
 10
82.540704143
 20
204.9653549336
 30
0.0
 10
82.6887572948
 20
205.0508329504
 30
0.0
  0
SPLINE
  5
422
100
AcDbEntity
  8
0
100
AcDbSpline
 62
7
  6
CONTINUOUS
 70
0
 71
3
 72
17
 73
13
 74
0
 42
0.0000001
 43
0.0000001
 44
0.0000000001
 40
0.0
 40
0.0
 40
0.0
 40
0.0
 40
0.12868996
 40
0.2702722062
 40
0.4174312903
 40
0.5617781732
 40
0.6954492761
 40
0.8127130379
 40
0.8646790319
 40
0.9125109796
 40
0.9571404657
 40
1.0
 40
1.0
 40
1.0
 40
1.0
 10
68.9001706459
 20
201.2540504355
 30
0.0
 10
68.6780964978
 20
201.3822621041
 30
0.0
 10
68.1753034366
 20
201.5897194878
 30
0.0
 10
67.3558332739
 20
201.7536446851
 30
0.0
 10
66.489093029
 20
201.7776578747
 30
0.0
 10
65.645809393
 20
201.6591722926
 30
0.0
 10
64.8943500281
 20
201.4081905626
 30
0.0
 10
64.3717694148
 20
201.0900197666
 30
0.0
 10
64.0650048175
 20
200.7822551486
 30
0.0
 10
63.9021434265
 20
200.5425586752
 30
0.0
 10
63.8016771969
 20
200.2897998057
 30
0.0
 10
63.7788857408
 20
200.1147199044
 30
0.0
 10
63.7788706793
 20
200.0293179732
 30
0.0
  0
SPLINE
  5
423
100
AcDbEntity
  8
0
100
AcDbSpline
 62
7
  6
CONTINUOUS
 70
0
 71
3
 72
11
 73
7
 74
0
 42
0.0000001
 43
0.0000001
 44
0.0000000001
 40
0.0
 40
0.0
 40
0.0
 40
0.0
 40
0.217780861
 40
0.4509234132
 40
0.7102539949
 40
1.0
 40
1.0
 40
1.0
 40
1.0
 10
69.7788475891
 20
200.0293179746
 30
0.0
 10
69.778867741
 20
200.143583496
 30
0.0
 10
69.7366139091
 20
200.3817596708
 30
0.0
 10
69.5560744146
 20
200.7135766856
 30
0.0
 10
69.2706704352
 20
201.0135790436
 30
0.0
 10
69.03182828
 20
201.1780395846
 30
0.0
 10
68.9001706459
 20
201.2540504355
 30
0.0
  0
SPLINE
  5
424
100
AcDbEntity
  8
0
100
AcDbSpline
 62
7
  6
CONTINUOUS
 70
0
 71
3
 72
11
 73
7
 74
0
 42
0.0000001
 43
0.0000001
 44
0.0000000001
 40
0.0
 40
0.0
 40
0.0
 40
0.0
 40
0.2897011399
 40
0.5490888176
 40
0.7822183492
 40
1.0
 40
1.0
 40
1.0
 40
1.0
 10
82.6887572948
 20
205.0508329504
 30
0.0
 10
82.7765133883
 20
205.1014986521
 30
0.0
 10
82.9510893345
 20
205.1845497063
 30
0.0
 10
83.2194161202
 20
205.249352792
 30
0.0
 10
83.4711883191
 20
205.2429785451
 30
0.0
 10
83.6227634753
 20
205.1879650714
 30
0.0
 10
83.6887369218
 20
205.1498828122
 30
0.0
  0
SPLINE
  5
425
100
AcDbEntity
  8
0
100
AcDbSpline
 62
7
  6
CONTINUOUS
 70
0
 71
3
 72
17
 73
13
 74
0
 42
0.0000001
 43
0.0000001
 44
0.0000000001
 40
0.0
 40
0.0
 40
0.0
 40
0.0
 40
0.1286920618
 40
0.2702783064
 40
0.4174365418
 40
0.5617781925
 40
0.6954479477
 40
0.8127116203
 40
0.8646743896
 40
0.9125102982
 40
0.9571382578
 40
1.0
 40
1.0
 40
1.0
 40
1.0
 10
83.0423121574
 20
201.5807029046
 30
0.0
 10
83.1903641489
 20
201.6661802515
 30
0.0
 10
83.4777474736
 20
201.8873194481
 30
0.0
 10
83.8455501969
 20
202.3058096948
 30
0.0
 10
84.1483198871
 20
202.7982225921
 30
0.0
 10
84.3609862675
 20
203.3245922427
 30
0.0
 10
84.4665457074
 20
203.8420957014
 30
0.0
 10
84.4570924479
 20
204.2498760984
 30
0.0
 10
84.3815933604
 20
204.5295509483
 30
0.0
 10
84.2975606326
 20
204.7035184978
 30
0.0
 10
84.1850447925
 20
204.8457195555
 30
0.0
 10
84.0916044033
 20
204.9172986673
 30
0.0
 10
84.0422906117
 20
204.9457603659
 30
0.0
  0
SPLINE
  5
426
100
AcDbEntity
  8
0
100
AcDbSpline
 62
7
  6
CONTINUOUS
 70
0
 71
3
 72
11
 73
7
 74
0
 42
0.0000001
 43
0.0000001
 44
0.0000000001
 40
0.0
 40
0.0
 40
0.0
 40
0.0
 40
0.2897733512
 40
0.5490657165
 40
0.7822241652
 40
1.0
 40
1.0
 40
1.0
 40
1.0
 10
101.0734393986
 20
213.2156211734
 30
0.0
 10
100.897881587
 20
213.1142634287
 30
0.0
 10
100.5794140999
 20
212.8950090699
 30
0.0
 10
100.1989246157
 20
212.4949727492
 30
0.0
 10
99.958161175
 20
212.0525882828
 30
0.0
 10
99.901896984
 20
211.7350073359
 30
0.0
 10
99.901896986
 20
211.5826581554
 30
0.0
  0
SPLINE
  5
427
100
AcDbEntity
  8
0
100
AcDbSpline
 62
7
  6
CONTINUOUS
 70
0
 71
3
 72
15
 73
11
 74
0
 42
0.0000001
 43
0.0000001
 44
0.0000000001
 40
0.0
 40
0.0
 40
0.0
 40
0.0
 40
0.1141447985
 40
0.2373324971
 40
0.3669747555
 40
0.5000005214
 40
0.6330262147
 40
0.7626682613
 40
0.8858556261
 40
1.0
 40
1.0
 40
1.0
 40
1.0
 10
106.730293648
 20
213.2156347709
 30
0.0
 10
106.5366816993
 20
213.3274141528
 30
0.0
 10
106.1132596332
 20
213.5245589628
 30
0.0
 10
105.4237863752
 20
213.7341603661
 30
0.0
 10
104.6772796314
 20
213.8631035532
 30
0.0
 10
103.9018617533
 20
213.9066585134
 30
0.0
 10
103.1264444952
 20
213.8630998729
 30
0.0
 10
102.3799395827
 20
213.7341531413
 30
0.0
 10
101.6904692931
 20
213.5245484605
 30
0.0
 10
101.2670498209
 20
213.3274015356
 30
0.0
 10
101.0734393986
 20
213.2156211734
 30
0.0
  0
SPLINE
  5
428
100
AcDbEntity
  8
0
100
AcDbSpline
 62
7
  6
CONTINUOUS
 70
0
 71
3
 72
11
 73
7
 74
0
 42
0.0000001
 43
0.0000001
 44
0.0000000001
 40
0.0
 40
0.0
 40
0.0
 40
0.0
 40
0.2191895662
 40
0.4529220188
 40
0.7116628037
 40
1.0
 40
1.0
 40
1.0
 40
1.0
 10
86.7493396822
 20
209.8271776675
 30
0.0
 10
86.7493591652
 20
209.9376500479
 30
0.0
 10
86.7100368231
 20
210.1673825151
 30
0.0
 10
86.5413376005
 20
210.4891995765
 30
0.0
 10
86.2735958236
 20
210.7822652345
 30
0.0
 10
86.0485195699
 20
210.9446140981
 30
0.0
 10
85.924343651
 20
211.0201066864
 30
0.0
  0
SPLINE
  5
429
100
AcDbEntity
  8
0
100
AcDbSpline
 62
7
  6
CONTINUOUS
 70
0
 71
3
 72
11
 73
7
 74
0
 42
0.0000001
 43
0.0000001
 44
0.0000000001
 40
0.0
 40
0.0
 40
0.0
 40
0.0
 40
0.2177796629
 40
0.4509238111
 40
0.7102593659
 40
1.0
 40
1.0
 40
1.0
 40
1.0
 10
37.6053811527
 20
210.7659454022
 30
0.0
 10
37.6054013201
 20
210.6516823197
 30
0.0
 10
37.5631457417
 20
210.4135107133
 30
0.0
 10
37.3826164735
 20
210.0816921252
 30
0.0
 10
37.0972162178
 20
209.7816934831
 30
0.0
 10
36.8583807588
 20
209.6172323217
 30
0.0
 10
36.7267281991
 20
209.5412231346
 30
0.0
  0
SPLINE
  5
42A
100
AcDbEntity
  8
0
100
AcDbSpline
 62
7
  6
CONTINUOUS
 70
0
 71
3
 72
9
 73
5
 74
0
 42
0.0000001
 43
0.0000001
 44
0.0000000001
 40
0.0
 40
0.0
 40
0.0
 40
0.0
 40
0.2444296014
 40
1.0
 40
1.0
 40
1.0
 40
1.0
 10
62.5288215229
 20
214.54644653
 30
0.0
 10
62.5059227414
 20
214.6154743767
 30
0.0
 10
62.4039240735
 20
214.8950875702
 30
0.0
 10
62.2693982501
 20
215.1625353501
 30
0.0
 10
62.1534852243
 20
215.355158825
 30
0.0
  0
SPLINE
  5
42B
100
AcDbEntity
  8
0
100
AcDbSpline
 62
7
  6
CONTINUOUS
 70
0
 71
3
 72
11
 73
7
 74
0
 42
0.0000001
 43
0.0000001
 44
0.0000000001
 40
0.0
 40
0.0
 40
0.0
 40
0.0
 40
0.2793877914
 40
0.5352676595
 40
0.7727688331
 40
1.0
 40
1.0
 40
1.0
 40
1.0
 10
46.5921637851
 20
218.4168597174
 30
0.0
 10
46.3785533667
 20
218.243226202
 30
0.0
 10
45.993477227
 20
217.8783917933
 30
0.0
 10
45.5467562592
 20
217.2551586344
 30
0.0
 10
45.270360195
 20
216.5938490767
 30
0.0
 10
45.207333572
 20
216.1338375354
 30
0.0
 10
45.2073387172
 20
215.9099488904
 30
0.0
  0
SPLINE
  5
42C
100
AcDbEntity
  8
0
100
AcDbSpline
 62
7
  6
CONTINUOUS
 70
0
 71
3
 72
11
 73
7
 74
0
 42
0.0000001
 43
0.0000001
 44
0.0000000001
 40
0.0
 40
0.0
 40
0.0
 40
0.0
 40
0.2846861367
 40
0.5420911666
 40
0.7773862295
 40
1.0
 40
1.0
 40
1.0
 40
1.0
 10
48.1126845987
 20
226.3026813164
 30
0.0
 10
47.8988808094
 20
226.1556693815
 30
0.0
 10
47.5122232038
 20
225.8431476877
 30
0.0
 10
47.0572373208
 20
225.2925813939
 30
0.0
 10
46.7728417399
 20
224.6975840887
 30
0.0
 10
46.7073726574
 20
224.2778685943
 30
0.0
 10
46.7073520687
 20
224.0749730564
 30
0.0
  0
SPLINE
  5
42D
100
AcDbEntity
  8
0
100
AcDbSpline
 62
7
  6
CONTINUOUS
 70
0
 71
3
 72
9
 73
5
 74
0
 42
0.0000001
 43
0.0000001
 44
0.0000000001
 40
0.0
 40
0.0
 40
0.0
 40
0.0
 40
0.2588906838
 40
1.0
 40
1.0
 40
1.0
 40
1.0
 10
48.9950047985
 20
227.0347394348
 30
0.0
 10
48.9400491668
 20
227.0030109755
 30
0.0
 10
48.7301928748
 20
226.8763656151
 30
0.0
 10
48.5302157611
 20
226.7329708441
 30
0.0
 10
48.3906921711
 20
226.6166453592
 30
0.0
  0
SPLINE
  5
42E
100
AcDbEntity
  8
0
100
AcDbSpline
 62
7
  6
CONTINUOUS
 70
0
 71
3
 72
11
 73
7
 74
0
 42
0.0000001
 43
0.0000001
 44
0.0000000001
 40
0.0
 40
0.0
 40
0.0
 40
0.0
 40
0.2766006214
 40
0.5317424179
 40
0.7704184616
 40
1.0
 40
1.0
 40
1.0
 40
1.0
 10
48.3040741617
 20
226.5420903239
 30
0.0
 10
48.1725388793
 20
226.4251560944
 30
0.0
 10
47.9358125075
 20
226.1808103255
 30
0.0
 10
47.6632936177
 20
225.7694915111
 30
0.0
 10
47.4954114025
 20
225.3367255651
 30
0.0
 10
47.457363712
 20
225.0375553775
 30
0.0
 10
47.4573489095
 20
224.8914754721
 30
0.0
  0
SPLINE
  5
42F
100
AcDbEntity
  8
0
100
AcDbSpline
 62
7
  6
CONTINUOUS
 70
0
 71
3
 72
11
 73
7
 74
0
 42
0.0000001
 43
0.0000001
 44
0.0000000001
 40
0.0
 40
0.0
 40
0.0
 40
0.0
 40
0.2228964003
 40
0.4583021121
 40
0.7156030448
 40
1.0
 40
1.0
 40
1.0
 40
1.0
 10
115.5285701643
 20
204.7240918541
 30
0.0
 10
115.528570163
 20
204.8247968068
 30
0.0
 10
115.4963055972
 20
205.0330139862
 30
0.0
 10
115.356250581
 20
205.3284931447
 30
0.0
 10
115.1319355218
 20
205.6022399873
 30
0.0
 10
114.9411307631
 20
205.7579288704
 30
0.0
 10
114.8356061628
 20
205.8312398277
 30
0.0
  0
SPLINE
  5
430
100
AcDbEntity
  8
0
100
AcDbSpline
 62
7
  6
CONTINUOUS
 70
0
 71
3
 72
11
 73
7
 74
0
 42
0.0000001
 43
0.0000001
 44
0.0000000001
 40
0.0
 40
0.0
 40
0.0
 40
0.0
 40
0.2219807049
 40
0.4569660397
 40
0.714599061
 40
1.0
 40
1.0
 40
1.0
 40
1.0
 10
115.5285701643
 20
202.2745846027
 30
0.0
 10
115.5285701656
 20
202.1714956746
 30
0.0
 10
115.4946685388
 20
201.9580502381
 30
0.0
 10
115.347850822
 20
201.6560725968
 30
0.0
 10
115.1132255086
 20
201.3774165335
 30
0.0
 10
114.9142188393
 20
201.2199415165
 30
0.0
 10
114.8042255733
 20
201.1459904782
 30
0.0
  0
SPLINE
  5
431
100
AcDbEntity
  8
0
100
AcDbSpline
 62
7
  6
CONTINUOUS
 70
0
 71
3
 72
9
 73
5
 74
0
 42
0.0000001
 43
0.0000001
 44
0.0000000001
 40
0.0
 40
0.0
 40
0.0
 40
0.0
 40
0.2444296014
 40
1.0
 40
1.0
 40
1.0
 40
1.0
 10
79.4993136161
 20
224.3443062229
 30
0.0
 10
79.4764148346
 20
224.4133340696
 30
0.0
 10
79.3744161666
 20
224.6929472631
 30
0.0
 10
79.2398903432
 20
224.960395043
 30
0.0
 10
79.1239773175
 20
225.153018518
 30
0.0
  0
SPLINE
  5
432
100
AcDbEntity
  8
0
100
AcDbSpline
 62
7
  6
CONTINUOUS
 70
0
 71
3
 72
11
 73
7
 74
0
 42
0.0000001
 43
0.0000001
 44
0.0000000001
 40
0.0
 40
0.0
 40
0.0
 40
0.0
 40
0.2177753738
 40
0.4509336309
 40
0.7102261693
 40
1.0
 40
1.0
 40
1.0
 40
1.0
 10
79.3248587923
 20
185.5366374975
 30
0.0
 10
79.3248587908
 20
185.650900613
 30
0.0
 10
79.2826596841
 20
185.8890890713
 30
0.0
 10
79.1020831972
 20
186.2208806337
 30
0.0
 10
78.8167102882
 20
186.5209100981
 30
0.0
 10
78.5778551399
 20
186.685351495
 30
0.0
 10
78.446184319
 20
186.7613699591
 30
0.0
  0
SPLINE
  5
433
100
AcDbEntity
  8
0
100
AcDbSpline
 62
7
  6
CONTINUOUS
 70
0
 71
3
 72
10
 73
6
 74
0
 42
0.0000001
 43
0.0000001
 44
0.0000000001
 40
0.0
 40
0.0
 40
0.0
 40
0.0
 40
0.5197482181
 40
0.7626662032
 40
1.0
 40
1.0
 40
1.0
 40
1.0
 10
62.8916732368
 20
227.1432722462
 30
0.0
 10
62.6715279106
 20
226.8731870447
 30
0.0
 10
62.3973525141
 20
226.427997392
 30
0.0
 10
62.2090501422
 20
225.7814983804
 30
0.0
 10
62.177828075
 20
225.4586660293
 30
0.0
 10
62.1778432049
 20
225.2995573865
 30
0.0
  0
SPLINE
  5
434
100
AcDbEntity
  8
0
100
AcDbSpline
 62
7
  6
CONTINUOUS
 70
0
 71
3
 72
11
 73
7
 74
0
 42
0.0000001
 43
0.0000001
 44
0.0000000001
 40
0.0
 40
0.0
 40
0.0
 40
0.0
 40
0.2177753738
 40
0.4509336309
 40
0.7102261693
 40
1.0
 40
1.0
 40
1.0
 40
1.0
 10
114.8214714204
 20
206.0304940219
 30
0.0
 10
114.8214714189
 20
206.1447571373
 30
0.0
 10
114.7792723122
 20
206.3829455957
 30
0.0
 10
114.5986958253
 20
206.714737158
 30
0.0
 10
114.3133229163
 20
207.0147666224
 30
0.0
 10
114.0744677681
 20
207.1792080193
 30
0.0
 10
113.9427969471
 20
207.2552264835
 30
0.0
  0
SPLINE
  5
435
100
AcDbEntity
  8
0
100
AcDbSpline
 62
7
  6
CONTINUOUS
 70
0
 71
3
 72
12
 73
8
 74
0
 42
0.0000001
 43
0.0000001
 44
0.0000000001
 40
0.0
 40
0.0
 40
0.0
 40
0.0
 40
0.2895810204
 40
0.548637375
 40
0.7816378622
 40
0.8918387092
 40
1.0
 40
1.0
 40
1.0
 40
1.0
 10
64.9048323039
 20
233.3624481739
 30
0.0
 10
64.6085493055
 20
233.1913901261
 30
0.0
 10
64.0711209697
 20
232.8212518087
 30
0.0
 10
63.4290787087
 20
232.1468642389
 30
0.0
 10
63.0843103566
 20
231.5113939407
 30
0.0
 10
62.9500947156
 20
230.9931152887
 30
0.0
 10
62.927838315
 20
230.7346072955
 30
0.0
 10
62.9278344177
 20
230.6068230778
 30
0.0
  0
SPLINE
  5
436
100
AcDbEntity
  8
0
100
AcDbSpline
 62
7
  6
CONTINUOUS
 70
0
 71
3
 72
9
 73
5
 74
0
 42
0.0000001
 43
0.0000001
 44
0.0000000001
 40
0.0
 40
0.0
 40
0.0
 40
0.0
 40
0.2546609695
 40
1.0
 40
1.0
 40
1.0
 40
1.0
 10
68.3688192972
 20
234.4298937189
 30
0.0
 10
68.2310846424
 20
234.4141637647
 30
0.0
 10
67.6914499364
 20
234.3423732747
 30
0.0
 10
67.1569141174
 20
234.2305653767
 30
0.0
 10
66.765804483
 20
234.1225895644
 30
0.0
  0
SPLINE
  5
437
100
AcDbEntity
  8
0
100
AcDbSpline
 62
7
  6
CONTINUOUS
 70
0
 71
3
 72
9
 73
5
 74
0
 42
0.0000001
 43
0.0000001
 44
0.0000000001
 40
0.0
 40
0.0
 40
0.0
 40
0.0
 40
0.5171518061
 40
1.0
 40
1.0
 40
1.0
 40
1.0
 10
66.765804483
 20
234.1225895644
 30
0.0
 10
66.4311035895
 20
234.0301868268
 30
0.0
 10
65.7929378904
 20
233.8163180491
 30
0.0
 10
65.1855894282
 20
233.5245424076
 30
0.0
 10
64.9048323039
 20
233.3624481739
 30
0.0
  0
SPLINE
  5
438
100
AcDbEntity
  8
0
100
AcDbSpline
 62
7
  6
CONTINUOUS
 70
0
 71
3
 72
11
 73
7
 74
0
 42
0.0000001
 43
0.0000001
 44
0.0000000001
 40
0.0
 40
0.0
 40
0.0
 40
0.0
 40
0.2897756264
 40
0.5490692242
 40
0.7822277401
 40
1.0
 40
1.0
 40
1.0
 40
1.0
 10
66.8493840481
 20
233.8727909332
 30
0.0
 10
66.6738251493
 20
233.7714325608
 30
0.0
 10
66.3553564129
 20
233.5521764673
 30
0.0
 10
65.9748681207
 20
233.1521370108
 30
0.0
 10
65.7341074565
 20
232.7097531865
 30
0.0
 10
65.6778492403
 20
232.3921743422
 30
0.0
 10
65.6778504066
 20
232.2398279153
 30
0.0
  0
SPLINE
  5
439
100
AcDbEntity
  8
0
100
AcDbSpline
 62
7
  6
CONTINUOUS
 70
0
 71
3
 72
11
 73
7
 74
0
 42
0.0000001
 43
0.0000001
 44
0.0000000001
 40
0.0
 40
0.0
 40
0.0
 40
0.0
 40
0.217772663
 40
0.4509314042
 40
0.7102278685
 40
1.0
 40
1.0
 40
1.0
 40
1.0
 10
107.9018487846
 20
208.7248996923
 30
0.0
 10
107.9018524133
 20
208.5725531108
 30
0.0
 10
107.8455881505
 20
208.2549746918
 30
0.0
 10
107.6048315894
 20
207.8125874379
 30
0.0
 10
107.2243409882
 20
207.4125500964
 30
0.0
 10
106.9058738344
 20
207.1932937426
 30
0.0
 10
106.7303171998
 20
207.0919366773
 30
0.0
  0
SPLINE
  5
43A
100
AcDbEntity
  8
0
100
AcDbSpline
 62
7
  6
CONTINUOUS
 70
0
 71
3
 72
9
 73
5
 74
0
 42
0.0000001
 43
0.0000001
 44
0.0000000001
 40
0.0
 40
0.0
 40
0.0
 40
0.0
 40
0.4752390475
 40
1.0
 40
1.0
 40
1.0
 40
1.0
 10
32.484087512
 20
208.3981095526
 30
0.0
 10
32.7317725372
 20
208.2551117717
 30
0.0
 10
33.2978269229
 20
208.0309713006
 30
0.0
 10
33.8950734837
 20
207.9301243155
 30
0.0
 10
34.2099483387
 20
207.9059319315
 30
0.0
  0
SPLINE
  5
43B
100
AcDbEntity
  8
0
100
AcDbSpline
 62
7
  6
CONTINUOUS
 70
0
 71
3
 72
17
 73
13
 74
0
 42
0.0000001
 43
0.0000001
 44
0.0000000001
 40
0.0
 40
0.0
 40
0.0
 40
0.0
 40
0.1286926234
 40
0.2702773362
 40
0.4174341499
 40
0.5617794299
 40
0.6954504977
 40
0.8127129602
 40
0.8646788349
 40
0.9125109856
 40
0.9571404061
 40
1.0
 40
1.0
 40
1.0
 40
1.0
 10
78.4462019828
 20
183.0055113665
 30
0.0
 10
78.2241239564
 20
182.8772953236
 30
0.0
 10
77.7213208908
 20
182.6698324561
 30
0.0
 10
76.9018433954
 20
182.5059109258
 30
0.0
 10
76.0351053165
 20
182.481896961
 30
0.0
 10
75.1918291003
 20
182.6003848488
 30
0.0
 10
74.440374578
 20
182.8513655195
 30
0.0
 10
73.9177973909
 20
183.1695362179
 30
0.0
 10
73.6110309836
 20
183.4772959228
 30
0.0
 10
73.4481686498
 20
183.716992793
 30
0.0
 10
73.3477046847
 20
183.9697523458
 30
0.0
 10
73.3249057517
 20
184.1448314965
 30
0.0
 10
73.3248906783
 20
184.2302336261
 30
0.0
  0
SPLINE
  5
43C
100
AcDbEntity
  8
0
100
AcDbSpline
 62
7
  6
CONTINUOUS
 70
0
 71
3
 72
11
 73
7
 74
0
 42
0.0000001
 43
0.0000001
 44
0.0000000001
 40
0.0
 40
0.0
 40
0.0
 40
0.0
 40
0.2177845113
 40
0.450917848
 40
0.7103083905
 40
1.0
 40
1.0
 40
1.0
 40
1.0
 10
84.0422906117
 20
204.9457603659
 30
0.0
 10
83.9763140351
 20
204.9838390732
 30
0.0
 10
83.8247410971
 20
205.0388622081
 30
0.0
 10
83.5729636056
 20
205.0452293802
 30
0.0
 10
83.3046390837
 20
204.9804268709
 30
0.0
 10
83.1300652888
 20
204.8973765647
 30
0.0
 10
83.0423121574
 20
204.8467125731
 30
0.0
  0
SPLINE
  5
43D
100
AcDbEntity
  8
0
100
AcDbSpline
 62
7
  6
CONTINUOUS
 70
0
 71
3
 72
13
 73
9
 74
0
 42
0.0000001
 43
0.0000001
 44
0.0000000001
 40
0.0
 40
0.0
 40
0.0
 40
0.0
 40
0.1142483233
 40
0.2375469957
 40
0.4999994774
 40
0.7624522452
 40
0.8857512516
 40
1.0
 40
1.0
 40
1.0
 40
1.0
 10
74.2035436319
 20
187.904463145
 30
0.0
 10
74.3487540568
 20
187.9882999225
 30
0.0
 10
74.666338487
 20
188.136194621
 30
0.0
 10
75.3701672704
 20
188.3499567235
 30
0.0
 10
76.3248606522
 20
188.4537976649
 30
0.0
 10
77.2795549521
 20
188.3499611377
 30
0.0
 10
77.983386373
 20
188.1362024974
 30
0.0
 10
78.3009727493
 20
187.9883093853
 30
0.0
 10
78.446184319
 20
187.9044733431
 30
0.0
  0
SPLINE
  5
43E
100
AcDbEntity
  8
0
100
AcDbSpline
 62
7
  6
CONTINUOUS
 70
0
 71
3
 72
14
 73
10
 74
0
 42
0.0000001
 43
0.0000001
 44
0.0000000001
 40
0.0
 40
0.0
 40
0.0
 40
0.0
 40
0.0923833624
 40
0.1921031356
 40
0.3019908467
 40
0.4232511131
 40
0.5555346935
 40
0.6973643847
 40
1.0
 40
1.0
 40
1.0
 40
1.0
 10
62.7942880767
 20
198.5202732376
 30
0.0
 10
62.8151092093
 20
198.3838070008
 30
0.0
 10
62.9028437336
 20
198.1055900133
 30
0.0
 10
63.1504136563
 20
197.7232532585
 30
0.0
 10
63.5060641987
 20
197.3750385336
 30
0.0
 10
63.9577858674
 20
197.0693725253
 30
0.0
 10
64.4926216606
 20
196.8138716198
 30
0.0
 10
65.312673744
 20
196.5437113636
 30
0.0
 10
65.9762679454
 20
196.4454184718
 30
0.0
 10
66.4279030147
 20
196.4224521341
 30
0.0
  0
SPLINE
  5
43F
100
AcDbEntity
  8
0
100
AcDbSpline
 62
7
  6
CONTINUOUS
 70
0
 71
3
 72
17
 73
13
 74
0
 42
0.0000001
 43
0.0000001
 44
0.0000000001
 40
0.0
 40
0.0
 40
0.0
 40
0.0
 40
0.1286926234
 40
0.2702773362
 40
0.4174341499
 40
0.5617794299
 40
0.6954504977
 40
0.8127129602
 40
0.8646788349
 40
0.9125109856
 40
0.9571404061
 40
1.0
 40
1.0
 40
1.0
 40
1.0
 10
32.4840698482
 20
211.9906676617
 30
0.0
 10
32.7061478746
 20
212.1188837047
 30
0.0
 10
33.2089509402
 20
212.3263465722
 30
0.0
 10
34.0284284356
 20
212.4902681025
 30
0.0
 10
34.8951665145
 20
212.5142820673
 30
0.0
 10
35.7384427307
 20
212.3957941795
 30
0.0
 10
36.489897253
 20
212.1448135088
 30
0.0
 10
37.0124744401
 20
211.8266428103
 30
0.0
 10
37.3192408475
 20
211.5188831054
 30
0.0
 10
37.4821031812
 20
211.2791862353
 30
0.0
 10
37.5825671463
 20
211.0264266825
 30
0.0
 10
37.6053660793
 20
210.8513475317
 30
0.0
 10
37.6053811527
 20
210.7659454022
 30
0.0
  0
SPLINE
  5
440
100
AcDbEntity
  8
0
100
AcDbSpline
 62
7
  6
CONTINUOUS
 70
0
 71
3
 72
11
 73
7
 74
0
 42
0.0000001
 43
0.0000001
 44
0.0000000001
 40
0.0
 40
0.0
 40
0.0
 40
0.0
 40
0.2897479759
 40
0.5490808555
 40
0.7822230711
 40
1.0
 40
1.0
 40
1.0
 40
1.0
 10
64.6575476226
 20
197.4981816449
 30
0.0
 10
64.5258893852
 20
197.5741928441
 30
0.0
 10
64.2870470583
 20
197.7386557721
 30
0.0
 10
64.0016419357
 20
198.0386591419
 30
0.0
 10
63.8211094282
 20
198.370478065
 30
0.0
 10
63.77885707
 20
198.6086509029
 30
0.0
 10
63.7788764983
 20
198.7229141076
 30
0.0
  0
SPLINE
  5
441
100
AcDbEntity
  8
0
100
AcDbSpline
 62
7
  6
CONTINUOUS
 70
0
 71
3
 72
16
 73
12
 74
0
 42
0.0000001
 43
0.0000001
 44
0.0000000001
 40
0.0
 40
0.0
 40
0.0
 40
0.0
 40
0.0428763199
 40
0.0875230218
 40
0.1869281048
 40
0.3042402151
 40
0.4379662944
 40
0.5823718203
 40
0.7295947109
 40
0.8712550786
 40
1.0
 40
1.0
 40
1.0
 40
1.0
 10
80.5245639452
 20
202.9352874361
 30
0.0
 10
80.4875764467
 20
202.9566218893
 30
0.0
 10
80.4174856788
 20
203.0102892155
 30
0.0
 10
80.3009925219
 20
203.1575627999
 30
0.0
 10
80.2141993185
 20
203.4103286305
 30
0.0
 10
80.2064769615
 20
203.7626560564
 30
0.0
 10
80.2854787265
 20
204.1512252595
 30
0.0
 10
80.445026798
 20
204.5458683321
 30
0.0
 10
80.6720868631
 20
204.915235176
 30
0.0
 10
80.9479613596
 20
205.2290904843
 30
0.0
 10
81.163501519
 20
205.3949567811
 30
0.0
 10
81.2745378445
 20
205.4590632509
 30
0.0
  0
SPLINE
  5
442
100
AcDbEntity
  8
0
100
AcDbSpline
 62
7
  6
CONTINUOUS
 70
0
 71
3
 72
11
 73
7
 74
0
 42
0.0000001
 43
0.0000001
 44
0.0000000001
 40
0.0
 40
0.0
 40
0.0
 40
0.0
 40
0.289375018
 40
0.5484713338
 40
0.78182333
 40
1.0
 40
1.0
 40
1.0
 40
1.0
 10
85.886216083
 20
208.611513296
 30
0.0
 10
86.0157286721
 20
208.6873930401
 30
0.0
 10
86.2505975735
 20
208.8512477651
 30
0.0
 10
86.5308310941
 20
209.1493205399
 30
0.0
 10
86.7080440063
 20
209.4782249813
 30
0.0
 10
86.7493197232
 20
209.7140054373
 30
0.0
 10
86.7493396822
 20
209.8271776675
 30
0.0
  0
SPLINE
  5
443
100
AcDbEntity
  8
0
100
AcDbSpline
 62
7
  6
CONTINUOUS
 70
0
 71
3
 72
17
 73
13
 74
0
 42
0.0000001
 43
0.0000001
 44
0.0000000001
 40
0.0
 40
0.0
 40
0.0
 40
0.0
 40
0.12868996
 40
0.2702722062
 40
0.4174312903
 40
0.5617781732
 40
0.6954492761
 40
0.8127130379
 40
0.8646790319
 40
0.9125109796
 40
0.9571404657
 40
1.0
 40
1.0
 40
1.0
 40
1.0
 10
64.6575476226
 20
198.8045855123
 30
0.0
 10
64.8796217706
 20
198.6763738437
 30
0.0
 10
65.3824148319
 20
198.46891646
 30
0.0
 10
66.2018849946
 20
198.3049912627
 30
0.0
 10
67.0686252394
 20
198.2809780731
 30
0.0
 10
67.9119088755
 20
198.3994636552
 30
0.0
 10
68.6633682404
 20
198.6504453852
 30
0.0
 10
69.1859488536
 20
198.9686161812
 30
0.0
 10
69.492713451
 20
199.2763807992
 30
0.0
 10
69.6555748419
 20
199.5160772725
 30
0.0
 10
69.7560410715
 20
199.7688361421
 30
0.0
 10
69.7788325276
 20
199.9439160433
 30
0.0
 10
69.7788475891
 20
200.0293179746
 30
0.0
  0
SPLINE
  5
444
100
AcDbEntity
  8
0
100
AcDbSpline
 62
7
  6
CONTINUOUS
 70
0
 71
3
 72
12
 73
8
 74
0
 42
0.0000001
 43
0.0000001
 44
0.0000000001
 40
0.0
 40
0.0
 40
0.0
 40
0.0
 40
0.1081612941
 40
0.2183621432
 40
0.4513626358
 40
0.7104189831
 40
1.0
 40
1.0
 40
1.0
 40
1.0
 10
76.4278114859
 20
225.2995573725
 30
0.0
 10
76.4278075975
 20
225.1717731508
 30
0.0
 10
76.4055511778
 20
224.9132651517
 30
0.0
 10
76.2713355491
 20
224.394986484
 30
0.0
 10
75.9265671693
 20
223.7595161958
 30
0.0
 10
75.2845249211
 20
223.0851286261
 30
0.0
 10
74.7470965886
 20
222.7149903225
 30
0.0
 10
74.4508135934
 20
222.5439322765
 30
0.0
  0
SPLINE
  5
445
100
AcDbEntity
  8
0
100
AcDbSpline
 62
7
  6
CONTINUOUS
 70
0
 71
3
 72
11
 73
7
 74
0
 42
0.0000001
 43
0.0000001
 44
0.0000000001
 40
0.0
 40
0.0
 40
0.0
 40
0.0
 40
0.2896408744
 40
0.5491100035
 40
0.7822350384
 40
1.0
 40
1.0
 40
1.0
 40
1.0
 10
81.2745378445
 20
205.4590632509
 30
0.0
 10
81.3403409498
 20
205.4970544646
 30
0.0
 10
81.4712887019
 20
205.5593207636
 30
0.0
 10
81.6725222628
 20
205.6079533513
 30
0.0
 10
81.8613830518
 20
205.6032054349
 30
0.0
 10
81.9750263508
 20
205.5618750745
 30
0.0
 10
82.0245117439
 20
205.5333318142
 30
0.0
  0
SPLINE
  5
446
100
AcDbEntity
  8
0
100
AcDbSpline
 62
7
  6
CONTINUOUS
 70
0
 71
3
 72
14
 73
10
 74
0
 42
0.0000001
 43
0.0000001
 44
0.0000000001
 40
0.0
 40
0.0
 40
0.0
 40
0.0
 40
0.3026355409
 40
0.4444652228
 40
0.576748806
 40
0.6980090839
 40
0.8078968117
 40
0.907616619
 40
1.0
 40
1.0
 40
1.0
 40
1.0
 10
66.4279030147
 20
194.3811960913
 30
0.0
 10
65.9762680571
 20
194.4041624233
 30
0.0
 10
65.3126739816
 20
194.5024552761
 30
0.0
 10
64.4926219998
 20
194.7726154476
 30
0.0
 10
63.9577861768
 20
195.0281163062
 30
0.0
 10
63.5060644397
 20
195.3337822916
 30
0.0
 10
63.1504137833
 20
195.6819970391
 30
0.0
 10
62.9028438094
 20
196.0643338817
 30
0.0
 10
62.8151092135
 20
196.3425509306
 30
0.0
 10
62.7942880767
 20
196.4790171948
 30
0.0
  0
SPLINE
  5
447
100
AcDbEntity
  8
0
100
AcDbSpline
 62
7
  6
CONTINUOUS
 70
0
 71
3
 72
17
 73
13
 74
0
 42
0.0000001
 43
0.0000001
 44
0.0000000001
 40
0.0
 40
0.0
 40
0.0
 40
0.0
 40
0.1286903759
 40
0.2702749122
 40
0.4174292505
 40
0.5617762177
 40
0.6954483458
 40
0.8127147475
 40
0.8646780754
 40
0.9125121143
 40
0.957141621
 40
1.0
 40
1.0
 40
1.0
 40
1.0
 10
106.7303171998
 20
207.0919366773
 30
0.0
 10
106.4342180106
 20
206.9209847512
 30
0.0
 10
105.7638174305
 20
206.6443766366
 30
0.0
 10
104.6711981041
 20
206.4257907031
 30
0.0
 10
103.5155491933
 20
206.393765036
 30
0.0
 10
102.3911725176
 20
206.5517596117
 30
0.0
 10
101.3892467485
 20
206.8864412746
 30
0.0
 10
100.692390907
 20
207.3105848529
 30
0.0
 10
100.2834558916
 20
207.7210201266
 30
0.0
 10
100.0662201185
 20
208.0405580861
 30
0.0
 10
99.9323307476
 20
208.3776012374
 30
0.0
 10
99.9019105259
 20
208.6110332936
 30
0.0
 10
99.9019078137
 20
208.7248996986
 30
0.0
  0
SPLINE
  5
448
100
AcDbEntity
  8
0
100
AcDbSpline
 62
7
  6
CONTINUOUS
 70
0
 71
3
 72
12
 73
8
 74
0
 42
0.0000001
 43
0.0000001
 44
0.0000000001
 40
0.0
 40
0.0
 40
0.0
 40
0.0
 40
0.1081603208
 40
0.2183607076
 40
0.4513642752
 40
0.7104112952
 40
1.0
 40
1.0
 40
1.0
 40
1.0
 10
77.1778026923
 20
223.2583013097
 30
0.0
 10
77.1778161936
 20
223.1163201313
 30
0.0
 10
77.1530890238
 20
222.8290881197
 30
0.0
 10
77.0039417891
 20
222.253226271
 30
0.0
 10
76.6208683339
 20
221.5471603504
 30
0.0
 10
75.9075052395
 20
220.797821752
 30
0.0
 10
75.3103579271
 20
220.3865651931
 30
0.0
 10
74.9811458872
 20
220.1964956678
 30
0.0
  0
SPLINE
  5
449
100
AcDbEntity
  8
0
100
AcDbSpline
 62
7
  6
CONTINUOUS
 70
0
 71
3
 72
9
 73
5
 74
0
 42
0.0000001
 43
0.0000001
 44
0.0000000001
 40
0.0
 40
0.0
 40
0.0
 40
0.0
 40
0.2563875355
 40
1.0
 40
1.0
 40
1.0
 40
1.0
 10
43.2611764867
 20
209.1162171911
 30
0.0
 10
43.2218451898
 20
209.1815776718
 30
0.0
 10
43.0749860308
 20
209.4403532587
 30
0.0
 10
42.9555011209
 20
209.7149382169
 30
0.0
 10
42.8858401881
 20
209.9249294862
 30
0.0
  0
SPLINE
  5
44A
100
AcDbEntity
  8
0
100
AcDbSpline
 62
7
  6
CONTINUOUS
 70
0
 71
3
 72
17
 73
13
 74
0
 42
0.0000001
 43
0.0000001
 44
0.0000000001
 40
0.0
 40
0.0
 40
0.0
 40
0.0
 40
0.0428575604
 40
0.0874859108
 40
0.1353172062
 40
0.1872823133
 40
0.3045426425
 40
0.438210377
 40
0.5825547796
 40
0.7297159944
 40
0.8713057371
 40
1.0
 40
1.0
 40
1.0
 40
1.0
 10
69.7788417702
 20
198.7229141053
 30
0.0
 10
69.7788272499
 20
198.6375163081
 30
0.0
 10
69.7560353114
 20
198.4624431121
 30
0.0
 10
69.6555728749
 20
198.2096919077
 30
0.0
 10
69.4927179268
 20
197.9699985006
 30
0.0
 10
69.1859660955
 20
197.6622366611
 30
0.0
 10
68.6634040509
 20
197.3440675434
 30
0.0
 10
67.9119672178
 20
197.0930838571
 30
0.0
 10
67.0686953378
 20
196.9745830433
 30
0.0
 10
66.2019424346
 20
196.9985851917
 30
0.0
 10
65.3824440149
 20
197.1625023817
 30
0.0
 10
64.8796286733
 20
197.3699659911
 30
0.0
 10
64.6575476226
 20
197.4981816449
 30
0.0
  0
SPLINE
  5
44B
100
AcDbEntity
  8
0
100
AcDbSpline
 62
7
  6
CONTINUOUS
 70
0
 71
3
 72
11
 73
7
 74
0
 42
0.0000001
 43
0.0000001
 44
0.0000000001
 40
0.0
 40
0.0
 40
0.0
 40
0.0
 40
0.2897733512
 40
0.5490657165
 40
0.7822241652
 40
1.0
 40
1.0
 40
1.0
 40
1.0
 10
113.9428146109
 20
204.8057717583
 30
0.0
 10
114.0744829696
 20
204.8817900669
 30
0.0
 10
114.313333585
 20
205.0462308359
 30
0.0
 10
114.5987006981
 20
205.3462580765
 30
0.0
 10
114.7792732786
 20
205.6780464263
 30
0.0
 10
114.8214714219
 20
205.9162321364
 30
0.0
 10
114.8214714204
 20
206.0304940219
 30
0.0
  0
SPLINE
  5
44C
100
AcDbEntity
  8
0
100
AcDbSpline
 62
7
  6
CONTINUOUS
 70
0
 71
3
 72
11
 73
7
 74
0
 42
0.0000001
 43
0.0000001
 44
0.0000000001
 40
0.0
 40
0.0
 40
0.0
 40
0.0
 40
0.217768468
 40
0.4509396739
 40
0.7102096614
 40
1.0
 40
1.0
 40
1.0
 40
1.0
 10
57.9573099876
 20
224.0749730572
 30
0.0
 10
57.9572900706
 20
223.8750208574
 30
0.0
 10
57.8835079742
 20
223.4581807096
 30
0.0
 10
57.5674486576
 20
222.8775867347
 30
0.0
 10
57.0680948452
 20
222.3525018099
 30
0.0
 10
56.650090815
 20
222.0647493767
 30
0.0
 10
56.4196569125
 20
221.9317090952
 30
0.0
  0
SPLINE
  5
44D
100
AcDbEntity
  8
0
100
AcDbSpline
 62
7
  6
CONTINUOUS
 70
0
 71
3
 72
11
 73
7
 74
0
 42
0.0000001
 43
0.0000001
 44
0.0000000001
 40
0.0
 40
0.0
 40
0.0
 40
0.0
 40
0.2897776971
 40
0.5490719787
 40
0.7822272299
 40
1.0
 40
1.0
 40
1.0
 40
1.0
 10
114.6499213921
 20
203.4993695906
 30
0.0
 10
114.7815912907
 20
203.5753887882
 30
0.0
 10
115.0204422745
 20
203.7398332603
 30
0.0
 10
115.3058078369
 20
204.0398626151
 30
0.0
 10
115.4863734445
 20
204.3716505955
 30
0.0
 10
115.5285701658
 20
204.609831954
 30
0.0
 10
115.5285701643
 20
204.7240918541
 30
0.0
  0
SPLINE
  5
44E
100
AcDbEntity
  8
0
100
AcDbSpline
 62
7
  6
CONTINUOUS
 70
0
 71
3
 72
18
 73
14
 74
0
 42
0.0000001
 43
0.0000001
 44
0.0000000001
 40
0.0
 40
0.0
 40
0.0
 40
0.0
 40
0.0428473854
 40
0.0874642904
 40
0.1352855905
 40
0.1872370585
 40
0.2437280374
 40
0.3047335978
 40
0.4383684003
 40
0.5826764803
 40
0.7297923549
 40
0.8713437444
 40
1.0
 40
1.0
 40
1.0
 40
1.0
 10
47.4573489095
 20
224.8914754721
 30
0.0
 10
47.4573337653
 20
224.7420244542
 30
0.0
 10
47.4973462674
 20
224.4356566527
 30
0.0
 10
47.673004922
 20
223.9932664271
 30
0.0
 10
47.9581346397
 20
223.5738893139
 30
0.0
 10
48.3445934902
 20
223.18585419
 30
0.0
 10
48.8234392857
 20
222.83590161
 30
0.0
 10
49.5948277331
 20
222.4165368349
 30
0.0
 10
50.7251510251
 20
222.0390360432
 30
0.0
 10
52.2000376489
 20
221.8319393417
 30
0.0
 10
53.7170824821
 20
221.8738434615
 30
0.0
 10
55.1510956488
 20
222.1607989248
 30
0.0
 10
56.0310265375
 20
222.5238370001
 30
0.0
 10
56.4196569125
 20
222.7482115124
 30
0.0
  0
SPLINE
  5
44F
100
AcDbEntity
  8
0
100
AcDbSpline
 62
7
  6
CONTINUOUS
 70
0
 71
3
 72
11
 73
7
 74
0
 42
0.0000001
 43
0.0000001
 44
0.0000000001
 40
0.0
 40
0.0
 40
0.0
 40
0.0
 40
0.217780861
 40
0.4509234132
 40
0.7102539949
 40
1.0
 40
1.0
 40
1.0
 40
1.0
 10
63.7788706793
 20
200.0293179732
 30
0.0
 10
63.7788505275
 20
199.9150524518
 30
0.0
 10
63.8211043593
 20
199.676876277
 30
0.0
 10
64.0016438538
 20
199.3450592622
 30
0.0
 10
64.2870478332
 20
199.0450569042
 30
0.0
 10
64.5258899884
 20
198.8805963632
 30
0.0
 10
64.6575476226
 20
198.8045855123
 30
0.0
  0
SPLINE
  5
450
100
AcDbEntity
  8
0
100
AcDbSpline
 62
7
  6
CONTINUOUS
 70
0
 71
3
 72
14
 73
10
 74
0
 42
0.0000001
 43
0.0000001
 44
0.0000000001
 40
0.0
 40
0.0
 40
0.0
 40
0.0
 40
0.1230514107
 40
0.2577009626
 40
0.3986972508
 40
0.5398790729
 40
0.6750657858
 40
0.7989283335
 40
1.0
 40
1.0
 40
1.0
 40
1.0
 10
83.0423121574
 20
204.8467125731
 30
0.0
 10
82.9128897259
 20
204.7719909435
 30
0.0
 10
82.6598492356
 20
204.5836118699
 30
0.0
 10
82.3266658874
 20
204.2296640032
 30
0.0
 10
82.0391068277
 20
203.8105872316
 30
0.0
 10
81.8156869824
 20
203.3539042355
 30
0.0
 10
81.6708269344
 20
202.8864015998
 30
0.0
 10
81.5984433892
 20
202.3343340652
 30
0.0
 10
81.6691039404
 20
201.9154525362
 30
0.0
 10
81.8031569429
 20
201.7113384013
 30
0.0
  0
SPLINE
  5
451
100
AcDbEntity
  8
0
100
AcDbSpline
 62
7
  6
CONTINUOUS
 70
0
 71
3
 72
9
 73
5
 74
0
 42
0.0000001
 43
0.0000001
 44
0.0000000001
 40
0.0
 40
0.0
 40
0.0
 40
0.0
 40
0.2581102902
 40
1.0
 40
1.0
 40
1.0
 40
1.0
 10
81.8130162992
 20
201.6966733996
 30
0.0
 10
81.828420138
 20
201.6742904788
 30
0.0
 10
81.8923408471
 20
201.5906086773
 30
0.0
 10
81.9746927065
 20
201.5206944474
 30
0.0
 10
82.0423337031
 20
201.4816551118
 30
0.0
  0
SPLINE
  5
452
100
AcDbEntity
  8
0
100
AcDbSpline
 62
7
  6
CONTINUOUS
 70
0
 71
3
 72
9
 73
5
 74
0
 42
0.0000001
 43
0.0000001
 44
0.0000000001
 40
0.0
 40
0.0
 40
0.0
 40
0.0
 40
0.4750938762
 40
1.0
 40
1.0
 40
1.0
 40
1.0
 10
113.9428146109
 20
203.4993678909
 30
0.0
 10
113.6895471044
 20
203.3531447006
 30
0.0
 10
113.1095953559
 20
203.1255869185
 30
0.0
 10
112.4979290232
 20
203.0263083996
 30
0.0
 10
112.1755779018
 20
203.0041763455
 30
0.0
  0
SPLINE
  5
453
100
AcDbEntity
  8
0
100
AcDbSpline
 62
7
  6
CONTINUOUS
 70
0
 71
3
 72
9
 73
5
 74
0
 42
0.0000001
 43
0.0000001
 44
0.0000000001
 40
0.0
 40
0.0
 40
0.0
 40
0.0
 40
0.2563875355
 40
1.0
 40
1.0
 40
1.0
 40
1.0
 10
60.2316685798
 20
218.9140768841
 30
0.0
 10
60.192337283
 20
218.9794373647
 30
0.0
 10
60.0454781239
 20
219.2382129516
 30
0.0
 10
59.925993214
 20
219.5127979098
 30
0.0
 10
59.8563322812
 20
219.7227891791
 30
0.0
  0
SPLINE
  5
454
100
AcDbEntity
  8
0
100
AcDbSpline
 62
7
  6
CONTINUOUS
 70
0
 71
3
 72
11
 73
7
 74
0
 42
0.0000001
 43
0.0000001
 44
0.0000000001
 40
0.0
 40
0.0
 40
0.0
 40
0.0
 40
0.2897733512
 40
0.5490657165
 40
0.7822241652
 40
1.0
 40
1.0
 40
1.0
 40
1.0
 10
106.7303171998
 20
209.9496951373
 30
0.0
 10
106.9058750114
 20
210.051052882
 30
0.0
 10
107.2243424985
 20
210.2703072408
 30
0.0
 10
107.6048319827
 20
210.6703435615
 30
0.0
 10
107.8455954234
 20
211.112728028
 30
0.0
 10
107.9018596144
 20
211.4303089748
 30
0.0
 10
107.9018596124
 20
211.5826581554
 30
0.0
  0
SPLINE
  5
455
100
AcDbEntity
  8
0
100
AcDbSpline
 62
7
  6
CONTINUOUS
 70
0
 71
3
 72
15
 73
11
 74
0
 42
0.0000001
 43
0.0000001
 44
0.0000000001
 40
0.0
 40
0.0
 40
0.0
 40
0.0
 40
0.1141447985
 40
0.2373324971
 40
0.3669747555
 40
0.5000005214
 40
0.6330262147
 40
0.7626682613
 40
0.8858556261
 40
1.0
 40
1.0
 40
1.0
 40
1.0
 10
101.0734629503
 20
209.9496815399
 30
0.0
 10
101.267074899
 20
209.837902158
 30
0.0
 10
101.6904969652
 20
209.6407573479
 30
0.0
 10
102.3799702232
 20
209.4311559446
 30
0.0
 10
103.126476967
 20
209.3022127575
 30
0.0
 10
103.901894845
 20
209.2586577973
 30
0.0
 10
104.6773121032
 20
209.3022164378
 30
0.0
 10
105.4238170157
 20
209.4311631694
 30
0.0
 10
106.1132873053
 20
209.6407678503
 30
0.0
 10
106.5367067775
 20
209.8379147751
 30
0.0
 10
106.7303171998
 20
209.9496951373
 30
0.0
  0
SPLINE
  5
456
100
AcDbEntity
  8
0
100
AcDbSpline
 62
7
  6
CONTINUOUS
 70
0
 71
3
 72
11
 73
7
 74
0
 42
0.0000001
 43
0.0000001
 44
0.0000000001
 40
0.0
 40
0.0
 40
0.0
 40
0.0
 40
0.2181692082
 40
0.4515211485
 40
0.7106215484
 40
1.0
 40
1.0
 40
1.0
 40
1.0
 10
86.7493338633
 20
208.5207737983
 30
0.0
 10
86.7493146198
 20
208.4075973812
 30
0.0
 10
86.7080286302
 20
208.1718048114
 30
0.0
 10
86.5307981694
 20
207.8428821161
 30
0.0
 10
86.250530179
 20
207.5447951221
 30
0.0
 10
86.0156338341
 20
207.3809376947
 30
0.0
 10
85.8861078743
 20
207.3050561076
 30
0.0
  0
SPLINE
  5
457
100
AcDbEntity
  8
0
100
AcDbSpline
 62
7
  6
CONTINUOUS
 70
0
 71
3
 72
12
 73
8
 74
0
 42
0.0000001
 43
0.0000001
 44
0.0000000001
 40
0.0
 40
0.0
 40
0.0
 40
0.0
 40
0.1081590056
 40
0.2183607065
 40
0.4513548963
 40
0.7104290909
 40
1.0
 40
1.0
 40
1.0
 40
1.0
 10
58.7073068986
 20
215.909948886
 30
0.0
 10
58.7072955827
 20
215.7963654949
 30
0.0
 10
58.6875641065
 20
215.5665773622
 30
0.0
 10
58.5681862475
 20
215.1059106104
 30
0.0
 10
58.261794191
 20
214.5410102051
 30
0.0
 10
57.691047318
 20
213.9415781038
 30
0.0
 10
57.2133422587
 20
213.6125504061
 30
0.0
 10
56.9499892064
 20
213.4605043581
 30
0.0
  0
SPLINE
  5
458
100
AcDbEntity
  8
0
100
AcDbSpline
 62
7
  6
CONTINUOUS
 70
0
 71
3
 72
18
 73
14
 74
0
 42
0.0000001
 43
0.0000001
 44
0.0000000001
 40
0.0
 40
0.0
 40
0.0
 40
0.0
 40
0.042847705
 40
0.0874648314
 40
0.1352861158
 40
0.1872374048
 40
0.2437281457
 40
0.304733431
 40
0.4383675776
 40
0.5826756861
 40
0.7297918144
 40
0.8713433873
 40
1.0
 40
1.0
 40
1.0
 40
1.0
 10
46.7073520687
 20
224.0749730564
 30
0.0
 10
46.7073347366
 20
223.904170623
 30
0.0
 10
46.7530644055
 20
223.5540339711
 30
0.0
 10
46.9538174987
 20
223.0484429411
 30
0.0
 10
47.2796826253
 20
222.5691563792
 30
0.0
 10
47.7213484792
 20
222.1256889983
 30
0.0
 10
48.2685986766
 20
221.7257448558
 30
0.0
 10
49.1501815915
 20
221.2464736123
 30
0.0
 10
50.4419755158
 20
220.8150437422
 30
0.0
 10
52.1275586249
 20
220.5783608887
 30
0.0
 10
53.861326025
 20
220.6262497967
 30
0.0
 10
55.5002014117
 20
220.9541989107
 30
0.0
 10
56.5058389845
 20
221.3690998099
 30
0.0
 10
56.9499892064
 20
221.6255285293
 30
0.0
  0
SPLINE
  5
459
100
AcDbEntity
  8
0
100
AcDbSpline
 62
7
  6
CONTINUOUS
 70
0
 71
3
 72
11
 73
7
 74
0
 42
0.0000001
 43
0.0000001
 44
0.0000000001
 40
0.0
 40
0.0
 40
0.0
 40
0.0
 40
0.217772663
 40
0.4509314042
 40
0.7102278685
 40
1.0
 40
1.0
 40
1.0
 40
1.0
 10
73.6777934341
 20
230.6068230777
 30
0.0
 10
73.6777970628
 20
230.4544764962
 30
0.0
 10
73.6215327999
 20
230.1368980773
 30
0.0
 10
73.3807762388
 20
229.6945108233
 30
0.0
 10
73.0002856377
 20
229.2944734818
 30
0.0
 10
72.6818184839
 20
229.075217128
 30
0.0
 10
72.5062618492
 20
228.9738600628
 30
0.0
  0
SPLINE
  5
45A
100
AcDbEntity
  8
0
100
AcDbSpline
 62
7
  6
CONTINUOUS
 70
0
 71
3
 72
15
 73
11
 74
0
 42
0.0000001
 43
0.0000001
 44
0.0000000001
 40
0.0
 40
0.0
 40
0.0
 40
0.0
 40
0.0933564697
 40
0.192039241
 40
0.3000218815
 40
0.4193885318
 40
0.5505041666
 40
0.6923753351
 40
0.8430958291
 40
1.0
 40
1.0
 40
1.0
 40
1.0
 10
62.9278344177
 20
230.6068230778
 30
0.0
 10
62.9278274485
 20
230.3783137494
 30
0.0
 10
63.0017327488
 20
229.9055891304
 30
0.0
 10
63.3223244944
 20
229.2355299293
 30
0.0
 10
63.8354003095
 20
228.6156914023
 30
0.0
 10
64.521620947
 20
228.0614173583
 30
0.0
 10
65.3600588375
 20
227.5858602574
 30
0.0
 10
66.3263444099
 20
227.2014564197
 30
0.0
 10
67.3920842137
 20
226.9191633667
 30
0.0
 10
68.1381362789
 20
226.8058988916
 30
0.0
 10
68.520266945
 20
226.7674958956
 30
0.0
  0
SPLINE
  5
45B
100
AcDbEntity
  8
0
100
AcDbSpline
 62
7
  6
CONTINUOUS
 70
0
 71
3
 72
9
 73
5
 74
0
 42
0.0000001
 43
0.0000001
 44
0.0000000001
 40
0.0
 40
0.0
 40
0.0
 40
0.0
 40
0.2444296014
 40
1.0
 40
1.0
 40
1.0
 40
1.0
 10
42.8858401881
 20
212.3744367376
 30
0.0
 10
42.9087389696
 20
212.3054088909
 30
0.0
 10
43.0107376375
 20
212.0257956974
 30
0.0
 10
43.145263461
 20
211.7583479175
 30
0.0
 10
43.2611764867
 20
211.5657244425
 30
0.0
  0
SPLINE
  5
45C
100
AcDbEntity
  8
0
100
AcDbSpline
 62
7
  6
CONTINUOUS
 70
0
 71
3
 72
19
 73
15
 74
0
 42
0.0000001
 43
0.0000001
 44
0.0000000001
 40
0.0
 40
0.0
 40
0.0
 40
0.0
 40
0.128629291
 40
0.2701549099
 40
0.4172449402
 40
0.5615301935
 40
0.6301817543
 40
0.6953201509
 40
0.7563156531
 40
0.8127976144
 40
0.8647383472
 40
0.912549972
 40
0.957159301
 40
1.0
 40
1.0
 40
1.0
 40
1.0
 10
58.0106537941
 20
210.3986359749
 30
0.0
 10
57.4554842903
 20
210.0781106257
 30
0.0
 10
56.198496108
 20
209.5594976077
 30
0.0
 10
54.1497572453
 20
209.1495160537
 30
0.0
 10
51.9832077011
 20
209.0896802262
 30
0.0
 10
50.1962046192
 20
209.340324506
 30
0.0
 10
48.862635703
 20
209.7245167426
 30
0.0
 10
47.9604175749
 20
210.0880281582
 30
0.0
 10
47.1588989272
 20
210.523952517
 30
0.0
 10
46.4748104458
 20
211.023798437
 30
0.0
 10
45.9227683736
 20
211.5781874367
 30
0.0
 10
45.5154717228
 20
212.1772900988
 30
0.0
 10
45.264447851
 20
212.8092539011
 30
0.0
 10
45.2073415302
 20
213.2469351872
 30
0.0
 10
45.2073396815
 20
213.4604416345
 30
0.0
  0
SPLINE
  5
45D
100
AcDbEntity
  8
0
100
AcDbSpline
 62
7
  6
CONTINUOUS
 70
0
 71
3
 72
9
 73
5
 74
0
 42
0.0000001
 43
0.0000001
 44
0.0000000001
 40
0.0
 40
0.0
 40
0.0
 40
0.0
 40
0.2270454721
 40
1.0
 40
1.0
 40
1.0
 40
1.0
 10
37.4471622038
 20
210.1779215758
 30
0.0
 10
37.4092864684
 20
210.2425763449
 30
0.0
 10
37.2180416564
 20
210.5131583497
 30
0.0
 10
36.9476339462
 20
210.7200271706
 30
0.0
 10
36.7267105353
 20
210.8475744758
 30
0.0
  0
SPLINE
  5
45E
100
AcDbEntity
  8
0
100
AcDbSpline
 62
7
  6
CONTINUOUS
 70
0
 71
3
 72
12
 73
8
 74
0
 42
0.0000001
 43
0.0000001
 44
0.0000000001
 40
0.0
 40
0.0
 40
0.0
 40
0.0
 40
0.1081590514
 40
0.2183578759
 40
0.4513599045
 40
0.7104171385
 40
1.0
 40
1.0
 40
1.0
 40
1.0
 10
60.2073220295
 20
213.460441633
 30
0.0
 10
60.2073232588
 20
213.3184620215
 30
0.0
 10
60.1825895863
 20
213.0312360622
 30
0.0
 10
60.0334643253
 20
212.4553741932
 30
0.0
 10
59.650387459
 20
211.7492948591
 30
0.0
 10
58.9370069012
 20
210.99996724
 30
0.0
 10
58.3398594204
 20
210.5887017973
 30
0.0
 10
58.0106537941
 20
210.3986359749
 30
0.0
  0
SPLINE
  5
45F
100
AcDbEntity
  8
0
100
AcDbSpline
 62
7
  6
CONTINUOUS
 70
0
 71
3
 72
12
 73
8
 74
0
 42
0.0000001
 43
0.0000001
 44
0.0000000001
 40
0.0
 40
0.0
 40
0.0
 40
0.0
 40
0.2895817993
 40
0.5486371749
 40
0.7816400895
 40
0.8918396553
 40
1.0
 40
1.0
 40
1.0
 40
1.0
 10
58.0106537941
 20
212.8481432263
 30
0.0
 10
58.3398582837
 20
213.0382083924
 30
0.0
 10
58.9370038841
 20
213.4494704516
 30
0.0
 10
59.6503816147
 20
214.1987964185
 30
0.0
 10
60.0334640051
 20
214.904873122
 30
0.0
 10
60.1825890914
 20
215.4807388731
 30
0.0
 10
60.2073262567
 20
215.7679675403
 30
0.0
 10
60.2073229938
 20
215.90994888
 30
0.0
  0
SPLINE
  5
460
100
AcDbEntity
  8
0
100
AcDbSpline
 62
7
  6
CONTINUOUS
 70
0
 71
3
 72
18
 73
14
 74
0
 42
0.0000001
 43
0.0000001
 44
0.0000000001
 40
0.0
 40
0.0
 40
0.0
 40
0.0
 40
0.1286546677
 40
0.2702044719
 40
0.4173205656
 40
0.5616311766
 40
0.695267366
 40
0.7562730035
 40
0.8127636272
 40
0.86471449
 40
0.9125353694
 40
0.9571522475
 40
1.0
 40
1.0
 40
1.0
 40
1.0
 10
56.9499892064
 20
213.4605043581
 30
0.0
 10
56.5058457031
 20
213.2040795175
 30
0.0
 10
55.5002230341
 20
212.7891829698
 30
0.0
 10
53.8613642353
 20
212.461226939
 30
0.0
 10
52.127594098
 20
212.4133355936
 30
0.0
 10
50.4419918705
 20
212.6500129269
 30
0.0
 10
49.1501792237
 20
213.0814500196
 30
0.0
 10
48.2685886448
 20
213.5607261424
 30
0.0
 10
47.7213402282
 20
213.9606717276
 30
0.0
 10
47.279679799
 20
214.4041388737
 30
0.0
 10
46.9538157253
 20
214.8834206655
 30
0.0
 10
46.7530640581
 20
215.3890101811
 30
0.0
 10
46.707337796
 20
215.7391462631
 30
0.0
 10
46.7073548124
 20
215.9099488844
 30
0.0
  0
SPLINE
  5
461
100
AcDbEntity
  8
0
100
AcDbSpline
 62
7
  6
CONTINUOUS
 70
0
 71
3
 72
11
 73
7
 74
0
 42
0.0000001
 43
0.0000001
 44
0.0000000001
 40
0.0
 40
0.0
 40
0.0
 40
0.0
 40
0.2177753738
 40
0.4509336309
 40
0.7102261693
 40
1.0
 40
1.0
 40
1.0
 40
1.0
 10
31.6054130387
 20
209.6228420142
 30
0.0
 10
31.6054130402
 20
209.5085788987
 30
0.0
 10
31.6476121469
 20
209.2703904404
 30
0.0
 10
31.8281886338
 20
208.938598878
 30
0.0
 10
32.1135615429
 20
208.6385694136
 30
0.0
 10
32.3524166911
 20
208.4741280167
 30
0.0
 10
32.484087512
 20
208.3981095526
 30
0.0
  0
SPLINE
  5
462
100
AcDbEntity
  8
0
100
AcDbSpline
 62
7
  6
CONTINUOUS
 70
0
 71
3
 72
12
 73
8
 74
0
 42
0.0000001
 43
0.0000001
 44
0.0000000001
 40
0.0
 40
0.0
 40
0.0
 40
0.0
 40
0.2895712537
 40
0.548642979
 40
0.7816379705
 40
0.8918399225
 40
1.0
 40
1.0
 40
1.0
 40
1.0
 10
56.9499892064
 20
221.6255285293
 30
0.0
 10
57.2133426933
 20
221.7775748283
 30
0.0
 10
57.6910477316
 20
222.1065999975
 30
0.0
 10
58.261790586
 20
222.7060326999
 30
0.0
 10
58.5681909518
 20
223.2709285519
 30
0.0
 10
58.6875620419
 20
223.7315994352
 30
0.0
 10
58.7072981164
 20
223.9613884876
 30
0.0
 10
58.7073096424
 20
224.0749730566
 30
0.0
  0
SPLINE
  5
463
100
AcDbEntity
  8
0
100
AcDbSpline
 62
7
  6
CONTINUOUS
 70
0
 71
3
 72
18
 73
14
 74
0
 42
0.0000001
 43
0.0000001
 44
0.0000000001
 40
0.0
 40
0.0
 40
0.0
 40
0.0
 40
0.1286544267
 40
0.2702037274
 40
0.417319017
 40
0.5616293562
 40
0.6952662917
 40
0.7562723291
 40
0.8127632913
 40
0.8647144483
 40
0.9125355162
 40
0.9571523575
 40
1.0
 40
1.0
 40
1.0
 40
1.0
 10
56.4196569125
 20
221.9317090952
 30
0.0
 10
56.0310320692
 20
221.7073377767
 30
0.0
 10
55.1511148602
 20
221.3443038681
 30
0.0
 10
53.7171188899
 20
221.0573425068
 30
0.0
 10
52.2000756898
 20
221.015435979
 30
0.0
 10
50.7251744317
 20
221.2225251954
 30
0.0
 10
49.5948347079
 20
221.6000315332
 30
0.0
 10
48.8234374915
 20
222.0193990535
 30
0.0
 10
48.3445919189
 20
222.3693531834
 30
0.0
 10
47.9581364863
 20
222.7573885378
 30
0.0
 10
47.6730049571
 20
223.1767616815
 30
0.0
 10
47.4973468016
 20
223.6191525084
 30
0.0
 10
47.4573368367
 20
223.9255211435
 30
0.0
 10
47.4573517235
 20
224.0749730558
 30
0.0
  0
SPLINE
  5
464
100
AcDbEntity
  8
0
100
AcDbSpline
 62
7
  6
CONTINUOUS
 70
0
 71
3
 72
11
 73
7
 74
0
 42
0.0000001
 43
0.0000001
 44
0.0000000001
 40
0.0
 40
0.0
 40
0.0
 40
0.0
 40
0.2897914058
 40
0.5490589437
 40
0.7822306263
 40
1.0
 40
1.0
 40
1.0
 40
1.0
 10
56.4196569125
 20
222.7482115124
 30
0.0
 10
56.6500918121
 20
222.8812523695
 30
0.0
 10
57.0680960776
 20
223.1690032652
 30
0.0
 10
57.567447633
 20
223.6940891135
 30
0.0
 10
57.8835115763
 20
224.2746801214
 30
0.0
 10
57.9572925399
 20
224.6915223148
 30
0.0
 10
57.9573128016
 20
224.8914754751
 30
0.0
  0
SPLINE
  5
465
100
AcDbEntity
  8
0
100
AcDbSpline
 62
7
  6
CONTINUOUS
 70
0
 71
3
 72
14
 73
10
 74
0
 42
0.0000001
 43
0.0000001
 44
0.0000000001
 40
0.0
 40
0.0
 40
0.0
 40
0.0
 40
0.0997899908
 40
0.2031325883
 40
0.3129918694
 40
0.4314183908
 40
0.5594905363
 40
0.6974048883
 40
1.0
 40
1.0
 40
1.0
 40
1.0
 10
62.1778432049
 20
225.2995573865
 30
0.0
 10
62.1778619788
 20
225.102128831
 30
0.0
 10
62.2263359143
 20
224.698748813
 30
0.0
 10
62.4406379817
 20
224.1127177069
 30
0.0
 10
62.7899316799
 20
223.5524394715
 30
0.0
 10
63.2656657192
 20
223.0278238033
 30
0.0
 10
63.8582789969
 20
222.5470134401
 30
0.0
 10
64.8187074875
 20
221.9569425765
 30
0.0
 10
65.6365356714
 20
221.632822758
 30
0.0
 10
66.2097820085
 20
221.4602246305
 30
0.0
  0
SPLINE
  5
466
100
AcDbEntity
  8
0
100
AcDbSpline
 62
7
  6
CONTINUOUS
 70
0
 71
3
 72
19
 73
15
 74
0
 42
0.0000001
 43
0.0000001
 44
0.0000000001
 40
0.0
 40
0.0
 40
0.0
 40
0.0
 40
0.0428409377
 40
0.087450785
 40
0.1352630283
 40
0.1872042907
 40
0.2436865155
 40
0.3046818851
 40
0.3698196797
 40
0.4384701556
 40
0.5827529004
 40
0.7298421466
 40
0.8713688156
 40
1.0
 40
1.0
 40
1.0
 40
1.0
 10
45.2073387172
 20
215.9099488904
 30
0.0
 10
45.2073436238
 20
215.6964412528
 30
0.0
 10
45.2644446727
 20
215.2587558219
 30
0.0
 10
45.5154779026
 20
214.6267872332
 30
0.0
 10
45.922780894
 20
214.0276794109
 30
0.0
 10
46.4748307993
 20
213.4732878813
 30
0.0
 10
47.1589246437
 20
212.9734438354
 30
0.0
 10
47.9604428607
 20
212.537523699
 30
0.0
 10
48.8626535831
 20
212.174018303
 30
0.0
 10
50.1962028527
 20
211.7898338061
 30
0.0
 10
51.9831835532
 20
211.5391901462
 30
0.0
 10
54.1497219024
 20
211.5990207398
 30
0.0
 10
56.198472844
 20
212.0089967774
 30
0.0
 10
57.4554761167
 20
212.5276131581
 30
0.0
 10
58.0106537941
 20
212.8481432263
 30
0.0
  0
SPLINE
  5
467
100
AcDbEntity
  8
0
100
AcDbSpline
 62
7
  6
CONTINUOUS
 70
0
 71
3
 72
9
 73
5
 74
0
 42
0.0000001
 43
0.0000001
 44
0.0000000001
 40
0.0
 40
0.0
 40
0.0
 40
0.0
 40
0.5247613351
 40
1.0
 40
1.0
 40
1.0
 40
1.0
 10
112.2169754223
 20
204.3135869575
 30
0.0
 10
112.5318470107
 20
204.3377815376
 30
0.0
 10
113.129086546
 20
204.4386317199
 30
0.0
 10
113.6951334194
 20
204.6627738092
 30
0.0
 10
113.9428146109
 20
204.8057717583
 30
0.0
  0
SPLINE
  5
468
100
AcDbEntity
  8
0
100
AcDbSpline
 62
7
  6
CONTINUOUS
 70
0
 71
3
 72
9
 73
5
 74
0
 42
0.0000001
 43
0.0000001
 44
0.0000000001
 40
0.0
 40
0.0
 40
0.0
 40
0.0
 40
0.2444296014
 40
1.0
 40
1.0
 40
1.0
 40
1.0
 10
59.8563322812
 20
222.1722964305
 30
0.0
 10
59.8792310627
 20
222.1032685838
 30
0.0
 10
59.9812297306
 20
221.8236553903
 30
0.0
 10
60.1157555541
 20
221.5562076104
 30
0.0
 10
60.2316685798
 20
221.3635841354
 30
0.0
  0
SPLINE
  5
469
100
AcDbEntity
  8
0
100
AcDbSpline
 62
7
  6
CONTINUOUS
 70
0
 71
3
 72
9
 73
5
 74
0
 42
0.0000001
 43
0.0000001
 44
0.0000000001
 40
0.0
 40
0.0
 40
0.0
 40
0.0
 40
0.2744293402
 40
1.0
 40
1.0
 40
1.0
 40
1.0
 10
109.70015626
 20
207.2552162854
 30
0.0
 10
109.6245934878
 20
207.2115903589
 30
0.0
 10
109.3572830404
 20
207.0404523215
 30
0.0
 10
109.1203513179
 20
206.8123367602
 30
0.0
 10
108.9984133545
 20
206.6165096035
 30
0.0
  0
SPLINE
  5
46A
100
AcDbEntity
  8
0
100
AcDbSpline
 62
7
  6
CONTINUOUS
 70
0
 71
3
 72
13
 73
9
 74
0
 42
0.0000001
 43
0.0000001
 44
0.0000000001
 40
0.0
 40
0.0
 40
0.0
 40
0.0
 40
0.1142466307
 40
0.237544229
 40
0.5000005226
 40
0.7624565301
 40
0.8857537943
 40
1.0
 40
1.0
 40
1.0
 40
1.0
 10
78.446184319
 20
186.7613699591
 30
0.0
 10
78.3009753575
 20
186.8452044956
 30
0.0
 10
77.9833948547
 20
186.993098137
 30
0.0
 10
77.279563762
 20
187.2068596437
 30
0.0
 10
76.3248606522
 20
187.3107011263
 30
0.0
 10
75.3701584604
 20
187.2068552296
 30
0.0
 10
74.6663300054
 20
186.9930902606
 30
0.0
 10
74.3487514486
 20
186.8451950327
 30
0.0
 10
74.2035436319
 20
186.7613597611
 30
0.0
  0
SPLINE
  5
46B
100
AcDbEntity
  8
0
100
AcDbSpline
 62
7
  6
CONTINUOUS
 70
0
 71
3
 72
9
 73
5
 74
0
 42
0.0000001
 43
0.0000001
 44
0.0000000001
 40
0.0
 40
0.0
 40
0.0
 40
0.0
 40
0.238069298
 40
1.0
 40
1.0
 40
1.0
 40
1.0
 10
74.9811458872
 20
220.1964956678
 30
0.0
 10
74.8439929994
 20
220.1173108837
 30
0.0
 10
74.2567424742
 20
219.8040964828
 30
0.0
 10
73.6312540469
 20
219.56511716
 30
0.0
 10
73.145919262
 20
219.4189852601
 30
0.0
  0
SPLINE
  5
46C
100
AcDbEntity
  8
0
100
AcDbSpline
 62
7
  6
CONTINUOUS
 70
0
 71
3
 72
11
 73
7
 74
0
 42
0.0000001
 43
0.0000001
 44
0.0000000001
 40
0.0
 40
0.0
 40
0.0
 40
0.0
 40
0.2897733512
 40
0.5490657165
 40
0.7822241652
 40
1.0
 40
1.0
 40
1.0
 40
1.0
 10
78.4462019828
 20
184.3119152339
 30
0.0
 10
78.5778703415
 20
184.3879335425
 30
0.0
 10
78.8167209568
 20
184.5523743116
 30
0.0
 10
79.10208807
 20
184.8524015521
 30
0.0
 10
79.2826606505
 20
185.184189902
 30
0.0
 10
79.3248587937
 20
185.4223756121
 30
0.0
 10
79.3248587923
 20
185.5366374975
 30
0.0
  0
SPLINE
  5
46D
100
AcDbEntity
  8
0
100
AcDbSpline
 62
7
  6
CONTINUOUS
 70
0
 71
3
 72
11
 73
7
 74
0
 42
0.0000001
 43
0.0000001
 44
0.0000000001
 40
0.0
 40
0.0
 40
0.0
 40
0.0
 40
0.2177753738
 40
0.4509336309
 40
0.7102261693
 40
1.0
 40
1.0
 40
1.0
 40
1.0
 10
73.3248868224
 20
185.5366374975
 30
0.0
 10
73.3248868239
 20
185.422374382
 30
0.0
 10
73.3670859306
 20
185.1841859237
 30
0.0
 10
73.5476624175
 20
184.8523943613
 30
0.0
 10
73.8330353265
 20
184.5523648969
 30
0.0
 10
74.0718904748
 20
184.3879235
 30
0.0
 10
74.2035612957
 20
184.3119050359
 30
0.0
  0
SPLINE
  5
46E
100
AcDbEntity
  8
0
100
AcDbSpline
 62
7
  6
CONTINUOUS
 70
0
 71
3
 72
13
 73
9
 74
0
 42
0.0000001
 43
0.0000001
 44
0.0000000001
 40
0.0
 40
0.0
 40
0.0
 40
0.0
 40
0.1142466307
 40
0.237544229
 40
0.5000005226
 40
0.7624565301
 40
0.8857537943
 40
1.0
 40
1.0
 40
1.0
 40
1.0
 10
74.2035612957
 20
184.3119050359
 30
0.0
 10
74.3487702572
 20
184.2280704995
 30
0.0
 10
74.66635076
 20
184.080176858
 30
0.0
 10
75.3701818526
 20
183.8664153513
 30
0.0
 10
76.3248849625
 20
183.7625738687
 30
0.0
 10
77.2795871543
 20
183.8664197654
 30
0.0
 10
77.9834156093
 20
184.0801847344
 30
0.0
 10
78.3009941661
 20
184.2280799623
 30
0.0
 10
78.4462019828
 20
184.3119152339
 30
0.0
  0
SPLINE
  5
46F
100
AcDbEntity
  8
0
100
AcDbSpline
 62
7
  6
CONTINUOUS
 70
0
 71
3
 72
14
 73
10
 74
0
 42
0.0000001
 43
0.0000001
 44
0.0000000001
 40
0.0
 40
0.0
 40
0.0
 40
0.0
 40
0.3025951117
 40
0.4405094637
 40
0.5685816092
 40
0.6870081306
 40
0.7968674117
 40
0.9002100092
 40
1.0
 40
1.0
 40
1.0
 40
1.0
 10
66.2097820085
 20
219.4189685877
 30
0.0
 10
65.6365356714
 20
219.5915667152
 30
0.0
 10
64.8187074875
 20
219.9156865337
 30
0.0
 10
63.8582789969
 20
220.5057573973
 30
0.0
 10
63.2656657192
 20
220.9865677604
 30
0.0
 10
62.7899316799
 20
221.5111834286
 30
0.0
 10
62.4406379817
 20
222.0714616641
 30
0.0
 10
62.2263359143
 20
222.6574927702
 30
0.0
 10
62.1778619788
 20
223.0608727882
 30
0.0
 10
62.1778432049
 20
223.2583013437
 30
0.0
  0
SPLINE
  5
470
100
AcDbEntity
  8
0
100
AcDbSpline
 62
7
  6
CONTINUOUS
 70
0
 71
3
 72
11
 73
7
 74
0
 42
0.0000001
 43
0.0000001
 44
0.0000000001
 40
0.0
 40
0.0
 40
0.0
 40
0.0
 40
0.2177727701
 40
0.4509280213
 40
0.7102223029
 40
1.0
 40
1.0
 40
1.0
 40
1.0
 10
79.324850755
 20
184.2302336301
 30
0.0
 10
79.3248507565
 20
184.11597373
 30
0.0
 10
79.2826540352
 20
183.8777923715
 30
0.0
 10
79.1020884276
 20
183.5460043911
 30
0.0
 10
78.8167228652
 20
183.2459750363
 30
0.0
 10
78.5778718814
 20
183.0815305642
 30
0.0
 10
78.4462019828
 20
183.0055113665
 30
0.0
  0
SPLINE
  5
471
100
AcDbEntity
  8
0
100
AcDbSpline
 62
7
  6
CONTINUOUS
 70
0
 71
3
 72
11
 73
7
 74
0
 42
0.0000001
 43
0.0000001
 44
0.0000000001
 40
0.0
 40
0.0
 40
0.0
 40
0.0
 40
0.2177753738
 40
0.4509336309
 40
0.7102261693
 40
1.0
 40
1.0
 40
1.0
 40
1.0
 10
99.901896986
 20
211.5826581554
 30
0.0
 10
99.9018969879
 20
211.4303073347
 30
0.0
 10
99.9581624635
 20
211.1127227236
 30
0.0
 10
100.1989311127
 20
210.6703339738
 30
0.0
 10
100.5794283248
 20
210.2702946879
 30
0.0
 10
100.8979018558
 20
210.0510394921
 30
0.0
 10
101.0734629503
 20
209.9496815399
 30
0.0
  0
SPLINE
  5
472
100
AcDbEntity
  8
0
100
AcDbSpline
 62
7
  6
CONTINUOUS
 70
0
 71
3
 72
12
 73
8
 74
0
 42
0.0000001
 43
0.0000001
 44
0.0000000001
 40
0.0
 40
0.0
 40
0.0
 40
0.0
 40
0.2895887048
 40
0.5486357248
 40
0.7816392924
 40
0.8918396792
 40
1.0
 40
1.0
 40
1.0
 40
1.0
 10
74.9811458872
 20
222.2377517106
 30
0.0
 10
75.3103579271
 20
222.4278212359
 30
0.0
 10
75.9075052395
 20
222.8390777948
 30
0.0
 10
76.6208683339
 20
223.5884163932
 30
0.0
 10
77.0039417891
 20
224.2944823138
 30
0.0
 10
77.1530890238
 20
224.8703441625
 30
0.0
 10
77.1778161936
 20
225.1575761741
 30
0.0
 10
77.1778026923
 20
225.2995573525
 30
0.0
  0
SPLINE
  5
473
100
AcDbEntity
  8
0
100
AcDbSpline
 62
7
  6
CONTINUOUS
 70
0
 71
3
 72
9
 73
5
 74
0
 42
0.0000001
 43
0.0000001
 44
0.0000000001
 40
0.0
 40
0.0
 40
0.0
 40
0.0
 40
0.2616987796
 40
1.0
 40
1.0
 40
1.0
 40
1.0
 10
73.145919262
 20
221.4602413029
 30
0.0
 10
73.312603133
 20
221.5104289909
 30
0.0
 10
73.9444066679
 20
221.7182695844
 30
0.0
 10
74.5558403017
 20
221.992202882
 30
0.0
 10
74.9811458872
 20
222.2377517106
 30
0.0
  0
SPLINE
  5
474
100
AcDbEntity
  8
0
100
AcDbSpline
 62
7
  6
CONTINUOUS
 70
0
 71
3
 72
10
 73
6
 74
0
 42
0.0000001
 43
0.0000001
 44
0.0000000001
 40
0.0
 40
0.0
 40
0.0
 40
0.0
 40
0.2304925296
 40
0.4761463899
 40
1.0
 40
1.0
 40
1.0
 40
1.0
 10
74.4508135934
 20
222.5439322765
 30
0.0
 10
74.1981254879
 20
222.3980436016
 30
0.0
 10
73.6550501736
 20
222.1321843097
 30
0.0
 10
72.4604602294
 20
221.7081377
 30
0.0
 10
71.4952525119
 20
221.5265487837
 30
0.0
 10
70.8354343255
 20
221.4602357492
 30
0.0
  0
SPLINE
  5
475
100
AcDbEntity
  8
0
100
AcDbSpline
 62
7
  6
CONTINUOUS
 70
0
 71
3
 72
14
 73
10
 74
0
 42
0.0000001
 43
0.0000001
 44
0.0000000001
 40
0.0
 40
0.0
 40
0.0
 40
0.0
 40
0.3072077455
 40
0.4497476581
 40
0.5815295956
 40
0.7013156741
 40
0.80928384
 40
0.9074709327
 40
1.0
 40
1.0
 40
1.0
 40
1.0
 10
34.2473008598
 20
206.5968071492
 30
0.0
 10
33.8980791142
 20
206.6210289843
 30
0.0
 10
33.3872185807
 20
206.7082247468
 30
0.0
 10
32.7638599895
 20
206.9372418533
 30
0.0
 10
32.3662150998
 20
207.1496838015
 30
0.0
 10
32.0396443312
 20
207.4007179438
 30
0.0
 10
31.7946395669
 20
207.6840656383
 30
0.0
 10
31.6409387829
 20
207.9923704222
 30
0.0
 10
31.605435504
 20
208.2110020196
 30
0.0
 10
31.6054168946
 20
208.3164381428
 30
0.0
  0
SPLINE
  5
476
100
AcDbEntity
  8
0
100
AcDbSpline
 62
7
  6
CONTINUOUS
 70
0
 71
3
 72
11
 73
7
 74
0
 42
0.0000001
 43
0.0000001
 44
0.0000000001
 40
0.0
 40
0.0
 40
0.0
 40
0.0
 40
0.2177727701
 40
0.4509280213
 40
0.7102223029
 40
1.0
 40
1.0
 40
1.0
 40
1.0
 10
108.8215074878
 20
207.1735974058
 30
0.0
 10
108.8215074864
 20
207.287857306
 30
0.0
 10
108.8637042076
 20
207.5260386645
 30
0.0
 10
109.0442698153
 20
207.8578266449
 30
0.0
 10
109.3296353776
 20
208.1578559997
 30
0.0
 10
109.5684863614
 20
208.3223004717
 30
0.0
 10
109.70015626
 20
208.3983196694
 30
0.0
  0
SPLINE
  5
477
100
AcDbEntity
  8
0
100
AcDbSpline
 62
7
  6
CONTINUOUS
 70
0
 71
3
 72
11
 73
7
 74
0
 42
0.0000001
 43
0.0000001
 44
0.0000000001
 40
0.0
 40
0.0
 40
0.0
 40
0.0
 40
0.2177796629
 40
0.4509238111
 40
0.7102593659
 40
1.0
 40
1.0
 40
1.0
 40
1.0
 10
114.8214675645
 20
204.7240901585
 30
0.0
 10
114.8214877319
 20
204.6098270759
 30
0.0
 10
114.7792321536
 20
204.3716554695
 30
0.0
 10
114.5987028853
 20
204.0398368814
 30
0.0
 10
114.3133026296
 20
203.7398382394
 30
0.0
 10
114.0744671707
 20
203.575377078
 30
0.0
 10
113.9428146109
 20
203.4993678909
 30
0.0
  0
SPLINE
  5
478
100
AcDbEntity
  8
0
100
AcDbSpline
 62
7
  6
CONTINUOUS
 70
0
 71
3
 72
15
 73
11
 74
0
 42
0.0000001
 43
0.0000001
 44
0.0000000001
 40
0.0
 40
0.0
 40
0.0
 40
0.0
 40
0.1569041761
 40
0.3076246809
 40
0.4494958491
 40
0.5806114842
 40
0.6999781321
 40
0.8079607691
 40
0.9066435358
 40
1.0
 40
1.0
 40
1.0
 40
1.0
 10
68.520266945
 20
221.4602301842
 30
0.0
 10
68.1381362661
 20
221.4986331815
 30
0.0
 10
67.3920841638
 20
221.6118976729
 30
0.0
 10
66.3263443212
 20
221.8941907338
 30
0.0
 10
65.3600587343
 20
222.2785946079
 30
0.0
 10
64.5216208538
 20
222.7541517143
 30
0.0
 10
63.8354002367
 20
223.308425764
 30
0.0
 10
63.3223244526
 20
223.9282642802
 30
0.0
 10
63.0017327206
 20
224.5983234563
 30
0.0
 10
62.9278274581
 20
225.0710480515
 30
0.0
 10
62.9278344114
 20
225.2995573665
 30
0.0
  0
SPLINE
  5
479
100
AcDbEntity
  8
0
100
AcDbSpline
 62
7
  6
CONTINUOUS
 70
0
 71
3
 72
17
 73
13
 74
0
 42
0.0000001
 43
0.0000001
 44
0.0000000001
 40
0.0
 40
0.0
 40
0.0
 40
0.0
 40
0.0428574423
 40
0.0874864255
 40
0.135320533
 40
0.1872838238
 40
0.3045491376
 40
0.4382184498
 40
0.5825636743
 40
0.7297201978
 40
0.8713079774
 40
1.0
 40
1.0
 40
1.0
 40
1.0
 10
65.6778504066
 20
232.2398279153
 30
0.0
 10
65.6778512784
 20
232.1259639978
 30
0.0
 10
65.7082779811
 20
231.892536932
 30
0.0
 10
65.8421543768
 20
231.5554933445
 30
0.0
 10
66.0593937904
 20
231.2359583101
 30
0.0
 10
66.4683236175
 20
230.8255229372
 30
0.0
 10
67.1651689816
 20
230.4013817616
 30
0.0
 10
68.1670772865
 20
230.0666963522
 30
0.0
 10
69.2914472025
 20
229.9086976398
 30
0.0
 10
70.4471059749
 20
229.9407160672
 30
0.0
 10
71.539745524
 20
230.1592985699
 30
0.0
 10
72.2101588689
 20
230.4359107821
 30
0.0
 10
72.5062618492
 20
230.606864897
 30
0.0
  0
SPLINE
  5
47A
100
AcDbEntity
  8
0
100
AcDbSpline
 62
7
  6
CONTINUOUS
 70
0
 71
3
 72
12
 73
8
 74
0
 42
0.0000001
 43
0.0000001
 44
0.0000000001
 40
0.0
 40
0.0
 40
0.0
 40
0.0
 40
0.2895810204
 40
0.548637375
 40
0.7816378622
 40
0.8918387092
 40
1.0
 40
1.0
 40
1.0
 40
1.0
 10
74.4508135934
 20
227.8511979879
 30
0.0
 10
74.7470965918
 20
228.0222560356
 30
0.0
 10
75.2845249276
 20
228.3923943531
 30
0.0
 10
75.9265671886
 20
229.0667819229
 30
0.0
 10
76.2713355407
 20
229.7022522211
 30
0.0
 10
76.4055511817
 20
230.2205308731
 30
0.0
 10
76.4278075823
 20
230.4790388662
 30
0.0
 10
76.4278114796
 20
230.6068230839
 30
0.0
  0
SPLINE
  5
47B
100
AcDbEntity
  8
0
100
AcDbSpline
 62
7
  6
CONTINUOUS
 70
0
 71
3
 72
10
 73
6
 74
0
 42
0.0000001
 43
0.0000001
 44
0.0000000001
 40
0.0
 40
0.0
 40
0.0
 40
0.0
 40
0.5238536101
 40
0.7695074704
 40
1.0
 40
1.0
 40
1.0
 40
1.0
 10
70.8354343255
 20
226.7675014605
 30
0.0
 10
71.4952525119
 20
226.833814495
 30
0.0
 10
72.4604602294
 20
227.0154034114
 30
0.0
 10
73.6550501736
 20
227.439450021
 30
0.0
 10
74.1981254879
 20
227.7053093129
 30
0.0
 10
74.4508135934
 20
227.8511979879
 30
0.0
  0
SPLINE
  5
47C
100
AcDbEntity
  8
0
100
AcDbSpline
 62
7
  6
CONTINUOUS
 70
0
 71
3
 72
13
 73
9
 74
0
 42
0.0000001
 43
0.0000001
 44
0.0000000001
 40
0.0
 40
0.0
 40
0.0
 40
0.0
 40
0.1142487484
 40
0.2375477548
 40
0.5000005226
 40
0.7624530043
 40
0.8857516767
 40
1.0
 40
1.0
 40
1.0
 40
1.0
 10
74.2035642397
 20
182.5972587143
 30
0.0
 10
74.3487758094
 20
182.513422672
 30
0.0
 10
74.6663621856
 20
182.36552956
 30
0.0
 10
75.3701936065
 20
182.1517709197
 30
0.0
 10
76.3248879064
 20
182.0479343925
 30
0.0
 10
77.2795812883
 20
182.1517753339
 30
0.0
 10
77.9834100716
 20
182.3655374364
 30
0.0
 10
78.3009945018
 20
182.5134321349
 30
0.0
 10
78.4462049268
 20
182.5972689123
 30
0.0
  0
SPLINE
  5
47D
100
AcDbEntity
  8
0
100
AcDbSpline
 62
7
  6
CONTINUOUS
 70
0
 71
3
 72
17
 73
13
 74
0
 42
0.0000001
 43
0.0000001
 44
0.0000000001
 40
0.0
 40
0.0
 40
0.0
 40
0.0
 40
0.1286903759
 40
0.2702749122
 40
0.4174292505
 40
0.5617762177
 40
0.6954483458
 40
0.8127147475
 40
0.8646780754
 40
0.9125121143
 40
0.957141621
 40
1.0
 40
1.0
 40
1.0
 40
1.0
 10
72.5062618492
 20
228.9738600628
 30
0.0
 10
72.2101626601
 20
228.8029081367
 30
0.0
 10
71.53976208
 20
228.5263000221
 30
0.0
 10
70.4471427536
 20
228.3077140886
 30
0.0
 10
69.2914938428
 20
228.2756884215
 30
0.0
 10
68.1671171671
 20
228.4336829972
 30
0.0
 10
67.165191398
 20
228.7683646601
 30
0.0
 10
66.4683355565
 20
229.1925082384
 30
0.0
 10
66.0594005411
 20
229.6029435121
 30
0.0
 10
65.8421647679
 20
229.9224814716
 30
0.0
 10
65.708275397
 20
230.2595246228
 30
0.0
 10
65.6778551753
 20
230.492956679
 30
0.0
 10
65.6778524632
 20
230.606823084
 30
0.0
  0
SPLINE
  5
47E
100
AcDbEntity
  8
0
100
AcDbSpline
 62
7
  6
CONTINUOUS
 70
0
 71
3
 72
13
 73
9
 74
0
 42
0.0000001
 43
0.0000001
 44
0.0000000001
 40
0.0
 40
0.0
 40
0.0
 40
0.0
 40
0.1142466307
 40
0.237544229
 40
0.5000005226
 40
0.7624565301
 40
0.8857537943
 40
1.0
 40
1.0
 40
1.0
 40
1.0
 10
36.7267105353
 20
210.8475744758
 30
0.0
 10
36.5815015738
 20
210.9314090123
 30
0.0
 10
36.2639210711
 20
211.0793026537
 30
0.0
 10
35.5600899784
 20
211.2930641604
 30
0.0
 10
34.6053868685
 20
211.396905643
 30
0.0
 10
33.6506846768
 20
211.2930597463
 30
0.0
 10
32.9468562217
 20
211.0792947773
 30
0.0
 10
32.629277665
 20
210.9313995494
 30
0.0
 10
32.4840698482
 20
210.8475642778
 30
0.0
  0
SPLINE
  5
47F
100
AcDbEntity
  8
0
100
AcDbSpline
 62
7
  6
CONTINUOUS
 70
0
 71
3
 72
11
 73
7
 74
0
 42
0.0000001
 43
0.0000001
 44
0.0000000001
 40
0.0
 40
0.0
 40
0.0
 40
0.0
 40
0.2897756264
 40
0.5490692242
 40
0.7822277401
 40
1.0
 40
1.0
 40
1.0
 40
1.0
 10
72.5062618492
 20
230.606864897
 30
0.0
 10
72.681820748
 20
230.7082232695
 30
0.0
 10
73.0002894843
 20
230.9274793629
 30
0.0
 10
73.3807777766
 20
231.3275188194
 30
0.0
 10
73.6215384408
 20
231.7699026438
 30
0.0
 10
73.677796657
 20
232.087481488
 30
0.0
 10
73.6777954906
 20
232.2398279149
 30
0.0
  0
SPLINE
  5
480
100
AcDbEntity
  8
0
100
AcDbSpline
 62
7
  6
CONTINUOUS
 70
0
 71
3
 72
11
 73
7
 74
0
 42
0.0000001
 43
0.0000001
 44
0.0000000001
 40
0.0
 40
0.0
 40
0.0
 40
0.0
 40
0.2177839237
 40
0.4509111717
 40
0.7102971901
 40
1.0
 40
1.0
 40
1.0
 40
1.0
 10
63.5111530842
 20
117.3732569507
 30
0.0
 10
63.610109757
 20
117.3161256315
 30
0.0
 10
63.8374779217
 20
117.2336138643
 30
0.0
 10
64.2151317906
 20
117.2240549689
 30
0.0
 10
64.6176218528
 20
117.3212527112
 30
0.0
 10
64.879485545
 20
117.4458288199
 30
0.0
 10
65.011120149
 20
117.5218276403
 30
0.0
  0
SPLINE
  5
481
100
AcDbEntity
  8
0
100
AcDbSpline
 62
7
  6
CONTINUOUS
 70
0
 71
3
 72
11
 73
7
 74
0
 42
0.0000001
 43
0.0000001
 44
0.0000000001
 40
0.0
 40
0.0
 40
0.0
 40
0.0
 40
0.2177825102
 40
0.4509091639
 40
0.7102957096
 40
1.0
 40
1.0
 40
1.0
 40
1.0
 10
30.6305508649
 20
136.3564520359
 30
0.0
 10
30.5315909409
 20
136.4135852936
 30
0.0
 10
30.3464407344
 20
136.5692392535
 30
0.0
 10
30.1493266574
 20
136.891529089
 30
0.0
 10
30.0322525544
 20
137.2887111471
 30
0.0
 10
30.009206418
 20
137.5777923959
 30
0.0
 10
30.009206418
 20
137.7297975152
 30
0.0
  0
SPLINE
  5
482
100
AcDbEntity
  8
0
100
AcDbSpline
 62
7
  6
CONTINUOUS
 70
0
 71
3
 72
11
 73
7
 74
0
 42
0.0000001
 43
0.0000001
 44
0.0000000001
 40
0.0
 40
0.0
 40
0.0
 40
0.0
 40
0.2372398078
 40
0.4999994051
 40
0.7627593222
 40
1.0
 40
1.0
 40
1.0
 40
1.0
 10
78.4462049268
 20
157.0407432562
 30
0.0
 10
78.1450376762
 20
156.8668653009
 30
0.0
 10
77.4446771123
 20
156.6131362532
 30
0.0
 10
76.324888176
 20
156.4915718127
 30
0.0
 10
75.2050973874
 20
156.6131310471
 30
0.0
 10
74.5047338484
 20
156.8668566371
 30
0.0
 10
74.2035642397
 20
157.0407330581
 30
0.0
  0
SPLINE
  5
483
100
AcDbEntity
  8
0
100
AcDbSpline
 62
7
  6
CONTINUOUS
 70
0
 71
3
 72
11
 73
7
 74
0
 42
0.0000001
 43
0.0000001
 44
0.0000000001
 40
0.0
 40
0.0
 40
0.0
 40
0.0
 40
0.2177821605
 40
0.4509085882
 40
0.7102951949
 40
1.0
 40
1.0
 40
1.0
 40
1.0
 10
115.5285772471
 20
179.167566198
 30
0.0
 10
115.528577215
 20
179.0533021874
 30
0.0
 10
115.4863515413
 20
178.8151400016
 30
0.0
 10
115.3058017387
 20
178.4833032621
 30
0.0
 10
115.0203778231
 20
178.1833357829
 30
0.0
 10
114.7815572293
 20
178.0188434668
 30
0.0
 10
114.6499213921
 20
177.9428439344
 30
0.0
  0
SPLINE
  5
484
100
AcDbEntity
  8
0
100
AcDbSpline
 62
7
  6
CONTINUOUS
 70
0
 71
3
 72
11
 73
7
 74
0
 42
0.0000001
 43
0.0000001
 44
0.0000000001
 40
0.0
 40
0.0
 40
0.0
 40
0.0
 40
0.2897042895
 40
0.5490907647
 40
0.7822174449
 40
1.0
 40
1.0
 40
1.0
 40
1.0
 10
62.8898086373
 20
118.74660243
 30
0.0
 10
62.8898086373
 20
118.5945973107
 30
0.0
 10
62.912854722
 20
118.3055160943
 30
0.0
 10
63.0299288547
 20
117.9083340595
 30
0.0
 10
63.2270429249
 20
117.5860442432
 30
0.0
 10
63.4121931129
 20
117.4303901743
 30
0.0
 10
63.5111530842
 20
117.3732569507
 30
0.0
  0
SPLINE
  5
485
100
AcDbEntity
  8
0
100
AcDbSpline
 62
7
  6
CONTINUOUS
 70
0
 71
3
 72
9
 73
5
 74
0
 42
0.0000001
 43
0.0000001
 44
0.0000000001
 40
0.0
 40
0.0
 40
0.0
 40
0.0
 40
0.2349022509
 40
1.0
 40
1.0
 40
1.0
 40
1.0
 10
74.2035642397
 20
180.1477514629
 30
0.0
 10
74.2769975744
 20
180.1053556665
 30
0.0
 10
74.597766803
 20
179.9390811326
 30
0.0
 10
74.9445014063
 20
179.8256294859
 30
0.0
 10
75.2136397264
 20
179.7636686653
 30
0.0
  0
SPLINE
  5
486
100
AcDbEntity
  8
0
100
AcDbSpline
 62
7
  6
CONTINUOUS
 70
0
 71
3
 72
9
 73
5
 74
0
 42
0.0000001
 43
0.0000001
 44
0.0000000001
 40
0.0
 40
0.0
 40
0.0
 40
0.0
 40
0.2465708886
 40
1.0
 40
1.0
 40
1.0
 40
1.0
 10
75.2136397264
 20
179.7636686653
 30
0.0
 10
75.2567034837
 20
179.7537545597
 30
0.0
 10
75.4319381758
 20
179.7161150644
 30
0.0
 10
75.6093273595
 20
179.6886079789
 30
0.0
 10
75.7434881059
 20
179.6733203658
 30
0.0
  0
SPLINE
  5
487
100
AcDbEntity
  8
0
100
AcDbSpline
 62
7
  6
CONTINUOUS
 70
0
 71
3
 72
9
 73
5
 74
0
 42
0.0000001
 43
0.0000001
 44
0.0000000001
 40
0.0
 40
0.0
 40
0.0
 40
0.0
 40
0.2532154778
 40
1.0
 40
1.0
 40
1.0
 40
1.0
 10
76.9062339422
 20
179.6733170091
 30
0.0
 10
76.951319244
 20
179.6784542065
 30
0.0
 10
77.1290840526
 20
179.7011571612
 30
0.0
 10
77.305623481
 20
179.7336300396
 30
0.0
 10
77.436038756
 20
179.7636518589
 30
0.0
  0
SPLINE
  5
488
100
AcDbEntity
  8
0
100
AcDbSpline
 62
7
  6
CONTINUOUS
 70
0
 71
3
 72
9
 73
5
 74
0
 42
0.0000001
 43
0.0000001
 44
0.0000000001
 40
0.0
 40
0.0
 40
0.0
 40
0.0
 40
0.2642673046
 40
1.0
 40
1.0
 40
1.0
 40
1.0
 10
77.436038756
 20
179.7636518589
 30
0.0
 10
77.5289946086
 20
179.7850504552
 30
0.0
 10
77.8778931175
 20
179.8771438522
 30
0.0
 10
78.2162210737
 20
180.0149812141
 30
0.0
 10
78.4462049268
 20
180.147761661
 30
0.0
  0
SPLINE
  5
489
100
AcDbEntity
  8
0
100
AcDbSpline
 62
7
  6
CONTINUOUS
 70
0
 71
3
 72
9
 73
5
 74
0
 42
0.0000001
 43
0.0000001
 44
0.0000000001
 40
0.0
 40
0.0
 40
0.0
 40
0.0
 40
0.256139438
 40
1.0
 40
1.0
 40
1.0
 40
1.0
 10
114.8379553014
 20
201.1690936289
 30
0.0
 10
114.8567291402
 20
201.1821725866
 30
0.0
 10
114.9293038499
 20
201.2342556918
 30
0.0
 10
114.9989223887
 20
201.2905007676
 30
0.0
 10
115.0484818564
 20
201.3347631616
 30
0.0
  0
SPLINE
  5
48A
100
AcDbEntity
  8
0
100
AcDbSpline
 62
7
  6
CONTINUOUS
 70
0
 71
3
 72
9
 73
5
 74
0
 42
0.0000001
 43
0.0000001
 44
0.0000000001
 40
0.0
 40
0.0
 40
0.0
 40
0.0
 40
0.2609341878
 40
1.0
 40
1.0
 40
1.0
 40
1.0
 10
115.0484818564
 20
201.3347631616
 30
0.0
 10
115.0744710192
 20
201.35797452
 30
0.0
 10
115.1717250991
 20
201.4494796573
 30
0.0
 10
115.2590928144
 20
201.5518126743
 30
0.0
 10
115.3151818223
 20
201.6330213564
 30
0.0
  0
SPLINE
  5
48B
100
AcDbEntity
  8
0
100
AcDbSpline
 62
7
  6
CONTINUOUS
 70
0
 71
3
 72
9
 73
5
 74
0
 42
0.0000001
 43
0.0000001
 44
0.0000000001
 40
0.0
 40
0.0
 40
0.0
 40
0.0
 40
0.2604112263
 40
1.0
 40
1.0
 40
1.0
 40
1.0
 10
115.3151818223
 20
201.6330213564
 30
0.0
 10
115.3359234993
 20
201.663052272
 30
0.0
 10
115.4111905007
 20
201.7812775986
 30
0.0
 10
115.4673641471
 20
201.9121271175
 30
0.0
 10
115.4939393085
 20
202.0123186153
 30
0.0
  0
SPLINE
  5
48C
100
AcDbEntity
  8
0
100
AcDbSpline
 62
7
  6
CONTINUOUS
 70
0
 71
3
 72
9
 73
5
 74
0
 42
0.0000001
 43
0.0000001
 44
0.0000000001
 40
0.0
 40
0.0
 40
0.0
 40
0.0
 40
0.2527278947
 40
1.0
 40
1.0
 40
1.0
 40
1.0
 10
115.4939393085
 20
202.0123186153
 30
0.0
 10
115.499661901
 20
202.0338934647
 30
0.0
 10
115.5196493541
 20
202.1199399324
 30
0.0
 10
115.5285772593
 20
202.2085856376
 30
0.0
 10
115.5285772471
 20
202.2745846027
 30
0.0
  0
ENDSEC
  0
SECTION
  2
OBJECTS
  0
DICTIONARY
  5
C
100
AcDbDictionary
280
0
281
1
  3
ACAD_GROUP
350
D
  3
ACAD_MLINESTYLE
350
17
  3
ACAD_LAYOUT
350
1A
  3
ACAD_PLOTSETTINGS
350
19
  3
ACAD_PLOTSTYLENAME
350
E
  0
DICTIONARY
  5
D
102
{ACAD_REACTORS
330
C
102
}
100
AcDbDictionary
280
0
281
1
  0
ACDBDICTIONARYWDFLT
  5
E
102
{ACAD_REACTORS
330
C
102
}
100
AcDbDictionary
281
1
  3
Normal
350
F
100
AcDbDictionaryWithDefault
340
F
  0
DICTIONARY
  5
17
102
{ACAD_REACTORS
330
C
102
}
100
AcDbDictionary
280
0
281
1
  3
Standard
350
18
  0
DICTIONARY
  5
19
102
{ACAD_REACTORS
330
C
102
}
100
AcDbDictionary
281
1
  0
DICTIONARY
  5
1A
102
{ACAD_REACTORS
330
C
102
}
100
AcDbDictionary
281
1
  3
Model
350
48D
  3
Layout1
350
48E
  0
ACDBPLACEHOLDER
  5
F
102
{ACAD_REACTORS
330
E
102
}
  0
MLINESTYLE
  5
18
102
{ACAD_REACTORS
330
17
102
}
100
AcDbMlineStyle
  2
STANDARD
 70
0
  3

 62
256
 51
90.0
 52
90.0
 71
2
 49
0.5
 62
256
  6
BYLAYER
 49
-0.5
 62
256
  6
BYLAYER
  0
LAYOUT
  5
48D
102
{ACAD_REACTORS
330
1A
102
}
100
AcDbPlotSettings
  1

  2
none_device
  4

  6

 40
0.0
 41
0.0
 42
0.0
 43
0.0
 44
210.0
 45
297.0
 46
0.0
 47
0.0
 48
0.0
 49
0.0
140
0.0
141
0.0
142
1.0
143
1.0
 70
1024
 72
1
 73
0
 74
0
  7

 75
0
147
1.0
148
0.0
149
0.0
100
AcDbLayout
  1
Model
 70
0
 71
0
 10
0.0
 20
0.0
 11
210.0
 21
297.0
 12
0.0
 22
0.0
 32
0.0
 14
0.0
 24
0.0
 34
0.0
 15
0.0
 25
0.0
 35
0.0
146
0.0
 13
0.0
 23
0.0
 33
0.0
 16
1.0
 26
0.0
 36
0.0
 17
0.0
 27
1.0
 37
0.0
 76
0
330
210
345
0
346
0
  0
LAYOUT
  5
48E
102
{ACAD_REACTORS
330
1A
102
}
100
AcDbPlotSettings
  1

  2
none_device
  4

  6

 40
0.0
 41
0.0
 42
0.0
 43
0.0
 44
210.0
 45
297.0
 46
0.0
 47
0.0
 48
0.0
 49
0.0
140
0.0
141
0.0
142
1.0
143
1.0
 70
0
 72
1
 73
0
 74
0
  7

 75
0
147
1.0
148
0.0
149
0.0
100
AcDbLayout
  1
Layout1
 70
0
 71
1
 10
0.0
 20
0.0
 11
210.0
 21
297.0
 12
0.0
 22
0.0
 32
0.0
 14
0.0
 24
0.0
 34
0.0
 15
0.0
 25
0.0
 35
0.0
146
0.0
 13
0.0
 23
0.0
 33
0.0
 16
1.0
 26
0.0
 36
0.0
 17
0.0
 27
1.0
 37
0.0
 76
0
330
211
345
0
346
0
  0
ENDSEC
  0
EOF
