999
DXF file: C:\Users\sesa63760\Dev\_Creo\CAD\MCADID0004244_3D-CAD\drw0001_3.dxf
999
Pro/ENGINEER 2019471 by Parametric Technology Corporation
  0
SECTION
  2
HEADER
  9
$ACADVER
  1
AC1024
  9
$DWGCODEPAGE
  3
ANSI_1252
  9
$EXTMAX
 10
262.7207597007
 20
371.562217291
 30
0.0
  9
$EXTMIN
 10
0.0
 20
0.0
 30
0.0
  9
$LIMMIN
 10
0.0
 20
0.0
  9
$LIMMAX
 10
262.7207597007
 20
371.562217291
  9
$VIEWCTR
 10
131.3603798504
 20
185.7811086455
  9
$VIEWSIZE
 40
371.562217291
  9
$CLAYER
  8
0
  9
$LTSCALE
 40
24.2203519419
  9
$CELTYPE
  6
BYLAYER
  9
$DIMSCALE
 40
1.0
  9
$DIMASZ
 40
3.1276280917
  9
$DIMEXO
 40
1.0
  9
$DIMDLI
 40
16.7340613417
  9
$DIMEXE
 40
1.0
  9
$DIMCEN
 40
3.9633303178
  9
$DIMLFAC
 40
1.0
  9
$DIMBLK
  1
_FILLED
  9
$DIMALT
 70
0
  9
$DIMALTF
 40
0.0393700787
  9
$DIMTXT
 40
4.3786793283
  9
$DIMTOL
 70
1
  9
$DIMLIM
 70
0
  9
$DIMTFAC
 40
1.0
  9
$DIMTP
 40
0.01
  9
$DIMTM
 40
0.01
  9
$DIMGAP
 40
0.625
  9
$DIMDSEP
 70
46
  9
$AUNITS
 70
0
  9
$PDMODE
 70
3
  9
$PDSIZE
 40
0.3125
  9
$HANDSEED
  5
542
  9
$TILEMODE
 70
1
  9
$MEASUREMENT
 70
1
  9
$INSUNITS
 70
4
  0
ENDSEC
  0
SECTION
  2
CLASSES
  0
CLASS
  1
ACDBDICTIONARYWDFLT
  2
AcDbDictionaryWithDefault
  3
AutoCAD 2000
 90
0
 91
1
280
0
281
0
  0
CLASS
  1
ACDBPLACEHOLDER
  2
AcDbPlaceHolder
  3
AutoCAD 2000
 90
0
 91
1
280
0
281
0
  0
CLASS
  1
LAYOUT
  2
AcDbLayout
  3
AutoCAD 2000
 90
0
 91
0
280
0
281
0
  0
ENDSEC
  0
SECTION
  2
TABLES
  0
TABLE
  2
VPORT
  5
8
100
AcDbSymbolTable
 70
2
  0
VPORT
  5
1F4
100
AcDbSymbolTableRecord
100
AcDbViewportTableRecord
  2
*ACTIVE
 70
0
 10
0.0
 20
0.0
 11
1.0
 21
1.0
 12
131.3603798504
 22
185.7811086455
 13
0.0
 23
0.0
 14
1.0
 24
1.0
 15
0.0
 25
0.0
 16
0.0
 26
0.0
 36
1.0
 17
0.0
 27
0.0
 37
0.0
 40
371.562217291
 41
0.7070707071
 42
50.0
 43
0.0
 44
0.0
 50
0.0
 51
0.0
 71
0
 72
100
 73
1
 74
1
 75
0
 76
0
 77
0
 78
0
  0
ENDTAB
  0
TABLE
  2
LTYPE
  5
5
100
AcDbSymbolTable
 70
6
  0
LTYPE
  5
14
100
AcDbSymbolTableRecord
100
AcDbLinetypeTableRecord
  2
BYBLOCK
 70
0
  3

 72
65
 73
0
 40
0.0
  0
LTYPE
  5
15
100
AcDbSymbolTableRecord
100
AcDbLinetypeTableRecord
  2
BYLAYER
 70
0
  3

 72
65
 73
0
 40
0.0
  0
LTYPE
  5
16
100
AcDbSymbolTableRecord
100
AcDbLinetypeTableRecord
  2
CONTINUOUS
 70
64
  3
Solid line
 72
65
 73
0
 40
0.0
  0
LTYPE
  5
1F5
100
AcDbSymbolTableRecord
100
AcDbLinetypeTableRecord
  2
CENTER
 70
64
  3
____ _ ____ _ ____ _ ____ _ ____ _ ____ _ ____
 72
65
 73
4
 40
0.6
 49
0.375
 74
0
 49
-0.075
 74
0
 49
0.075
 74
0
 49
-0.075
 74
0
  0
LTYPE
  5
1F6
100
AcDbSymbolTableRecord
100
AcDbLinetypeTableRecord
  2
HIDDEN
 70
64
  3
- - - - - - - - - - - - - - - - - - - -
 72
65
 73
2
 40
0.2
 49
0.1
 74
0
 49
-0.1
 74
0
  0
LTYPE
  5
1F7
100
AcDbSymbolTableRecord
100
AcDbLinetypeTableRecord
  2
PHANTOM
 70
64
  3
_____ _ _ _____ _ _ _____ _ _ _____
 72
65
 73
6
 40
0.8
 49
0.45
 74
0
 49
-0.05
 74
0
 49
0.1
 74
0
 49
-0.05
 74
0
 49
0.1
 74
0
 49
-0.05
 74
0
  0
LTYPE
  5
1F8
100
AcDbSymbolTableRecord
100
AcDbLinetypeTableRecord
  2
DOT
 70
64
  3
. . . . . . . . . . . . . . . . . . . .
 72
65
 73
2
 40
0.2
 49
0.1
 74
0
 49
-0.1
 74
0
  0
LTYPE
  5
1F9
100
AcDbSymbolTableRecord
100
AcDbLinetypeTableRecord
  2
DASHED
 70
64
  3
- - - - - - - - - - - - - - - - - - - -
 72
65
 73
2
 40
0.2
 49
0.1
 74
0
 49
-0.1
 74
0
  0
ENDTAB
  0
TABLE
  2
LAYER
  5
2
100
AcDbSymbolTable
 70
36
  0
LAYER
  5
10
100
AcDbSymbolTableRecord
100
AcDbLayerTableRecord
  2
0
 70
0
 62
7
  6
CONTINUOUS
370
-3
390
F
  0
LAYER
  5
1FA
100
AcDbSymbolTableRecord
100
AcDbLayerTableRecord
  2
DEFAULT_1
 70
0
 62
7
  6
CENTER
370
-3
390
F
  0
LAYER
  5
1FB
100
AcDbSymbolTableRecord
100
AcDbLayerTableRecord
  2
DEFAULT_2
 70
0
 62
7
  6
HIDDEN
370
-3
390
F
  0
LAYER
  5
1FC
100
AcDbSymbolTableRecord
100
AcDbLayerTableRecord
  2
DEFAULT_3
 70
0
 62
7
  6
PHANTOM
370
-3
390
F
  0
LAYER
  5
1FD
100
AcDbSymbolTableRecord
100
AcDbLayerTableRecord
  2
00_COMPONENTS
 70
0
 62
7
  6
CONTINUOUS
370
-3
390
F
  0
LAYER
  5
1FE
100
AcDbSymbolTableRecord
100
AcDbLayerTableRecord
  2
01_1_DEFAULT_DATUMS
 70
0
 62
7
  6
CONTINUOUS
370
-3
390
F
  0
LAYER
  5
1FF
100
AcDbSymbolTableRecord
100
AcDbLayerTableRecord
  2
01_PLANES
 70
0
 62
7
  6
CONTINUOUS
370
-3
390
F
  0
LAYER
  5
200
100
AcDbSymbolTableRecord
100
AcDbLayerTableRecord
  2
02_COORD_SYS
 70
0
 62
7
  6
CONTINUOUS
370
-3
390
F
  0
LAYER
  5
201
100
AcDbSymbolTableRecord
100
AcDbLayerTableRecord
  2
03_AXES
 70
0
 62
7
  6
CONTINUOUS
370
-3
390
F
  0
LAYER
  5
202
100
AcDbSymbolTableRecord
100
AcDbLayerTableRecord
  2
04_POINTS
 70
0
 62
7
  6
CONTINUOUS
370
-3
390
F
  0
LAYER
  5
203
100
AcDbSymbolTableRecord
100
AcDbLayerTableRecord
  2
05_CURVES
 70
0
 62
7
  6
CONTINUOUS
370
-3
390
F
  0
LAYER
  5
204
100
AcDbSymbolTableRecord
100
AcDbLayerTableRecord
  2
06_SURFS
 70
0
 62
7
  6
CONTINUOUS
370
-3
390
F
  0
LAYER
  5
205
100
AcDbSymbolTableRecord
100
AcDbLayerTableRecord
  2
07_COSMETICS
 70
0
 62
7
  6
CONTINUOUS
370
-3
390
F
  0
LAYER
  5
206
100
AcDbSymbolTableRecord
100
AcDbLayerTableRecord
  2
10_NOTES
 70
0
 62
7
  6
CONTINUOUS
370
-3
390
F
  0
LAYER
  5
207
100
AcDbSymbolTableRecord
100
AcDbLayerTableRecord
  2
11_NOTES_PUB
 70
0
 62
7
  6
CONTINUOUS
370
-3
390
F
  0
LAYER
  5
208
100
AcDbSymbolTableRecord
100
AcDbLayerTableRecord
  2
13_REF_GTOL
 70
0
 62
7
  6
CONTINUOUS
370
-3
390
F
  0
LAYER
  5
209
100
AcDbSymbolTableRecord
100
AcDbLayerTableRecord
  2
16_MISC
 70
0
 62
7
  6
CONTINUOUS
370
-3
390
F
  0
LAYER
  5
20A
100
AcDbSymbolTableRecord
100
AcDbLayerTableRecord
  2
17_NO_PRINT
 70
0
 62
7
  6
CONTINUOUS
370
-3
390
F
  0
LAYER
  5
20B
100
AcDbSymbolTableRecord
100
AcDbLayerTableRecord
  2
18_DATUM_CAMS_JOINTS
 70
0
 62
7
  6
CONTINUOUS
370
-3
390
F
  0
LAYER
  5
20C
100
AcDbSymbolTableRecord
100
AcDbLayerTableRecord
  2
19_DATUM_FUNCTIONAL
 70
0
 62
7
  6
CONTINUOUS
370
-3
390
F
  0
LAYER
  5
20D
100
AcDbSymbolTableRecord
100
AcDbLayerTableRecord
  2
20_DATUM_KINEMATIC_SCHEME
 70
0
 62
7
  6
CONTINUOUS
370
-3
390
F
  0
LAYER
  5
20E
100
AcDbSymbolTableRecord
100
AcDbLayerTableRecord
  2
3
 70
0
 62
7
  6
CONTINUOUS
370
-3
390
F
  0
LAYER
  5
20F
100
AcDbSymbolTableRecord
100
AcDbLayerTableRecord
  2
4
 70
0
 62
7
  6
CONTINUOUS
370
-3
390
F
  0
ENDTAB
  0
TABLE
  2
STYLE
  5
3
100
AcDbSymbolTable
 70
1
  0
STYLE
  5
11
100
AcDbSymbolTableRecord
100
AcDbTextStyleTableRecord
  2
STANDARD
 70
0
 40
0.0
 41
1.0
 50
0.0
 71
0
 42
0.2
  3
ARIAL.TTF
  4

  0
STYLE
  5
210
100
AcDbSymbolTableRecord
100
AcDbTextStyleTableRecord
  2
TEXTSTYLE_1
 70
0
 40
0.0
 41
0.8
 50
0.0
 71
0
 42
0.2
  3
gdt
  4

  0
ENDTAB
  0
TABLE
  2
VIEW
  5
6
100
AcDbSymbolTable
 70
0
  0
ENDTAB
  0
TABLE
  2
UCS
  5
7
100
AcDbSymbolTable
 70
0
  0
ENDTAB
  0
TABLE
  2
APPID
  5
9
100
AcDbSymbolTable
 70
1
  0
APPID
  5
211
100
AcDbSymbolTableRecord
100
AcDbRegAppTableRecord
  2
ACAD
 70
0
  0
ENDTAB
  0
TABLE
  2
BLOCK_RECORD
  5
1
100
AcDbSymbolTable
 70
0
  0
BLOCK_RECORD
  5
212
100
AcDbSymbolTableRecord
100
AcDbBlockTableRecord
  2
*Model_Space
  0
BLOCK_RECORD
  5
213
100
AcDbSymbolTableRecord
100
AcDbBlockTableRecord
  2
*Paper_Space
  0
BLOCK_RECORD
  5
214
100
AcDbSymbolTableRecord
100
AcDbBlockTableRecord
  2
_FILLED
  0
ENDTAB
  0
TABLE
  2
DIMSTYLE
  5
A
100
AcDbSymbolTable
 70
1
100
AcDbDimStyleTable
 71
0
  0
DIMSTYLE
105
215
100
AcDbSymbolTableRecord
100
AcDbDimStyleTableRecord
  2
STANDARD
 70
0
  3

  4

 40
1.0
 41
3.1276280917
 42
1.0
 43
0.38
 44
1.0
 45
0.0
 46
0.0
 47
0.01
 48
0.01
140
4.3786793283
141
0.09
142
0.0
143
25.4
144
1.0
145
0.0
146
1.0
147
0.625
 71
1
 72
0
 73
0
 74
0
 75
0
 76
0
 77
1
 78
8
 79
2
170
0
171
1
172
0
173
0
174
0
175
0
176
0
177
0
178
0
270
2
179
2
271
2
272
2
273
2
274
2
275
0
280
0
281
0
282
0
283
1
284
8
285
0
286
0
287
3
288
0
340
11
278
46
341
214
342
214
343
214
344
214
  0
ENDTAB
  0
ENDSEC
  0
SECTION
  2
BLOCKS
  0
BLOCK
  5
20
100
AcDbEntity
  8
0
100
AcDbBlockBegin
  2
*Model_Space
 70
0
 10
0.0
 20
0.0
 30
0.0
  3
*Model_Space
  1

  0
ENDBLK
  5
21
100
AcDbEntity
  8
0
100
AcDbBlockEnd
  0
BLOCK
  5
1C
100
AcDbEntity
  8
0
100
AcDbBlockBegin
  2
*Paper_Space
 70
0
 10
0.0
 20
0.0
 30
0.0
  3
*Paper_Space
  1

  0
ENDBLK
  5
1D
100
AcDbEntity
  8
0
100
AcDbBlockEnd
  0
BLOCK
  5
216
100
AcDbEntity
  8
0
100
AcDbBlockBegin
  2
_FILLED
 70
64
 10
0.0
 20
0.0
  3
_FILLED
  1

  0
SOLID
  5
217
100
AcDbEntity
  8
0
  6
BYBLOCK
 62
0
100
AcDbTrace
 10
0.0
 20
0.0
 11
-1.0
 21
0.25
 12
-1.0
 22
-0.25
 13
-1.0
 23
-0.25
  0
ENDBLK
  5
218
100
AcDbEntity
  8
0
  6
BYBLOCK
 62
0
100
AcDbBlockEnd
  0
ENDSEC
  0
SECTION
  2
ENTITIES
  0
LINE
  5
219
100
AcDbEntity
  8
0
100
AcDbLine
 62
7
  6
BYLAYER
 10
31.6180204798
 20
234.1955517633
 11
31.6248475232
 21
234.2198143091
  0
LINE
  5
21A
100
AcDbEntity
  8
0
100
AcDbLine
 62
7
  6
BYLAYER
 10
32.6650671182
 20
237.8605885769
 11
31.4642727116
 21
233.6578081537
  0
LINE
  5
21B
100
AcDbEntity
  8
0
100
AcDbLine
 62
7
  6
BYLAYER
 10
33.6265910659
 20
237.585867449
 11
32.5873451905
 21
233.9485068851
  0
LWPOLYLINE
  5
21C
100
AcDbEntity
  8
0
100
AcDbPolyline
 62
7
  6
BYLAYER
 90
4
 70
0
 10
31.0795123361
 20
216.3115311906
 10
31.0805498403
 20
216.278594787
 10
31.0891907377
 20
216.2120222146
 10
31.1445806288
 20
216.0644997343
  0
LINE
  5
21D
100
AcDbEntity
  8
0
100
AcDbLine
 62
7
  6
BYLAYER
 10
31.079512188
 20
207.3111463211
 11
31.079512188
 21
188.3111463211
  0
LINE
  5
21E
100
AcDbEntity
  8
0
100
AcDbLine
 62
7
  6
BYLAYER
 10
31.079512188
 20
216.3111463211
 11
31.079512188
 21
230.9105968747
  0
LINE
  5
21F
100
AcDbEntity
  8
3
100
AcDbLine
 62
7
  6
BYLAYER
 10
31.0799872311
 20
224.3111463211
 11
31.0799872311
 21
225.8111463211
  0
LINE
  5
220
100
AcDbEntity
  8
0
100
AcDbLine
 62
7
  6
BYLAYER
 10
31.579512188
 20
188.3111463211
 11
31.579512188
 21
191.8111463211
  0
LINE
  5
221
100
AcDbEntity
  8
0
100
AcDbLine
 62
7
  6
BYLAYER
 10
31.579512188
 20
225.8111463211
 11
31.579512188
 21
227.4796024363
  0
LINE
  5
222
100
AcDbEntity
  8
0
100
AcDbLine
 62
7
  6
BYLAYER
 10
31.579512188
 20
230.1718959619
 11
31.579512188
 21
230.9105968747
  0
LINE
  5
223
100
AcDbEntity
  8
0
100
AcDbLine
 62
7
  6
BYLAYER
 10
32.079512188
 20
192.3111463211
 11
32.079512188
 21
206.8111463173
  0
LINE
  5
224
100
AcDbEntity
  8
0
100
AcDbLine
 62
7
  6
BYLAYER
 10
32.079512188
 20
216.8111463211
 11
32.079512188
 21
225.3111463211
  0
LINE
  5
225
100
AcDbEntity
  8
0
100
AcDbLine
 62
7
  6
BYLAYER
 10
32.579512188
 20
219.3111463211
 11
32.579512188
 21
215.8111463211
  0
LINE
  5
226
100
AcDbEntity
  8
0
100
AcDbLine
 62
7
  6
BYLAYER
 10
32.579512188
 20
207.8111463173
 11
32.579512188
 21
204.3111463211
  0
LINE
  5
227
100
AcDbEntity
  8
0
100
AcDbLine
 62
7
  6
BYLAYER
 10
33.0681071643
 20
231.8111463211
 11
33.0681071643
 21
233.3111463211
  0
LINE
  5
228
100
AcDbEntity
  8
0
100
AcDbLine
 62
7
  6
BYLAYER
 10
33.079512188
 20
204.3111463211
 11
33.079512188
 21
207.3111463211
  0
LINE
  5
229
100
AcDbEntity
  8
0
100
AcDbLine
 62
7
  6
BYLAYER
 10
33.079512188
 20
216.3111463211
 11
33.079512188
 21
219.3111463211
  0
LINE
  5
22A
100
AcDbEntity
  8
0
100
AcDbLine
 62
7
  6
BYLAYER
 10
33.079987231
 20
228.4116451103
 11
33.079987231
 21
229.2116451103
  0
LINE
  5
22B
100
AcDbEntity
  8
0
100
AcDbLine
 62
7
  6
BYLAYER
 10
33.579512188
 20
203.3111463211
 11
33.579512188
 21
203.8111463211
  0
LINE
  5
22C
100
AcDbEntity
  8
0
100
AcDbLine
 62
7
  6
BYLAYER
 10
33.579512188
 20
219.8111463211
 11
33.579512188
 21
220.3111463211
  0
LINE
  5
22D
100
AcDbEntity
  8
0
100
AcDbLine
 62
7
  6
BYLAYER
 10
34.0795121909
 20
188.4116332372
 11
34.0795121909
 21
189.2116332372
  0
LINE
  5
22E
100
AcDbEntity
  8
0
100
AcDbLine
 62
7
  6
BYLAYER
 10
34.179987231
 20
227.3116451103
 11
34.179987231
 21
228.4116451103
  0
LINE
  5
22F
100
AcDbEntity
  8
0
100
AcDbLine
 62
7
  6
BYLAYER
 10
34.179987231
 20
229.2116451103
 11
34.179987231
 21
230.3116451103
  0
LINE
  5
230
100
AcDbEntity
  8
0
100
AcDbLine
 62
7
  6
BYLAYER
 10
34.579512188
 20
233.3111463211
 11
34.579512188
 21
232.1029262981
  0
LINE
  5
231
100
AcDbEntity
  8
0
100
AcDbLine
 62
7
  6
BYLAYER
 10
34.579512188
 20
225.5201902122
 11
34.579512188
 21
224.3111463211
  0
LINE
  5
232
100
AcDbEntity
  8
0
100
AcDbLine
 62
7
  6
BYLAYER
 10
34.5881150135
 20
238.3111463211
 11
34.5881150135
 21
239.3111463211
  0
LINE
  5
233
100
AcDbEntity
  8
0
100
AcDbLine
 62
7
  6
BYLAYER
 10
34.8434442105
 20
239.3111463211
 11
34.8434442105
 21
238.3111463211
  0
LINE
  5
234
100
AcDbEntity
  8
0
100
AcDbLine
 62
7
  6
BYLAYER
 10
34.979987231
 20
230.3116451103
 11
34.979987231
 21
229.2116451103
  0
LINE
  5
235
100
AcDbEntity
  8
0
100
AcDbLine
 62
7
  6
BYLAYER
 10
34.979987231
 20
228.4116451103
 11
34.979987231
 21
227.3116451103
  0
LINE
  5
236
100
AcDbEntity
  8
0
100
AcDbLine
 62
7
  6
BYLAYER
 10
35.079512188
 20
220.3111463211
 11
35.079512188
 21
219.8111463211
  0
LINE
  5
237
100
AcDbEntity
  8
0
100
AcDbLine
 62
7
  6
BYLAYER
 10
35.079512188
 20
203.8111463211
 11
35.079512188
 21
203.3111463211
  0
LINE
  5
238
100
AcDbEntity
  8
0
100
AcDbLine
 62
7
  6
BYLAYER
 10
35.079512188
 20
184.3111463211
 11
35.079512188
 21
184.8111463211
  0
LINE
  5
239
100
AcDbEntity
  8
0
100
AcDbLine
 62
7
  6
BYLAYER
 10
31.0795554862
 20
207.3177263146
 11
31.079512188
 21
207.3111463211
  0
LWPOLYLINE
  5
23A
100
AcDbEntity
  8
0
100
AcDbPolyline
 62
7
  6
BYLAYER
 90
4
 70
0
 10
31.1447892443
 20
207.5581604144
 10
31.1147527781
 20
207.4961100108
 10
31.0817043499
 20
207.3583998011
 10
31.0795554862
 20
207.3177263146
  0
LINE
  5
23B
100
AcDbEntity
  8
0
100
AcDbLine
 62
7
  6
BYLAYER
 10
31.6908689731
 20
232.3608998025
 11
32.0351785209
 21
232.7234614322
  0
LINE
  5
23C
100
AcDbEntity
  8
0
100
AcDbLine
 62
7
  6
BYLAYER
 10
36.079512188
 20
235.9611463211
 11
37.079512188
 21
236.9611463211
  0
LINE
  5
23D
100
AcDbEntity
  8
0
100
AcDbLine
 62
7
  6
BYLAYER
 10
35.1795121909
 20
187.3116332372
 11
35.1795121909
 21
188.4116332372
  0
LINE
  5
23E
100
AcDbEntity
  8
0
100
AcDbLine
 62
7
  6
BYLAYER
 10
35.1795121909
 20
189.2116332372
 11
35.1795121909
 21
190.3116332372
  0
LINE
  5
23F
100
AcDbEntity
  8
0
100
AcDbLine
 62
7
  6
BYLAYER
 10
35.579512188
 20
219.3111463211
 11
35.579512188
 21
204.3111463211
  0
LINE
  5
240
100
AcDbEntity
  8
0
100
AcDbLine
 62
7
  6
BYLAYER
 10
35.579512188
 20
193.3111463211
 11
35.579512188
 21
192.1030012795
  0
LINE
  5
241
100
AcDbEntity
  8
0
100
AcDbLine
 62
7
  6
BYLAYER
 10
35.9795121909
 20
190.3116332372
 11
35.9795121909
 21
189.2116332372
  0
LINE
  5
242
100
AcDbEntity
  8
0
100
AcDbLine
 62
7
  6
BYLAYER
 10
35.9795121909
 20
188.4116332372
 11
35.9795121909
 21
187.3116332372
  0
LINE
  5
243
100
AcDbEntity
  8
0
100
AcDbLine
 62
7
  6
BYLAYER
 10
36.079512188
 20
237.075041447
 11
36.079512188
 21
235.9611463211
  0
LINE
  5
244
100
AcDbEntity
  8
0
100
AcDbLine
 62
7
  6
BYLAYER
 10
36.079512188
 20
204.3111463211
 11
36.079512188
 21
219.3111463211
  0
LINE
  5
245
100
AcDbEntity
  8
0
100
AcDbLine
 62
7
  6
BYLAYER
 10
36.079987231
 20
229.2116451103
 11
36.079987231
 21
228.4116451103
  0
LINE
  5
246
100
AcDbEntity
  8
0
100
AcDbLine
 62
7
  6
BYLAYER
 10
37.0795121909
 20
189.2116332372
 11
37.0795121909
 21
188.4116332372
  0
LINE
  5
247
100
AcDbEntity
  8
0
100
AcDbLine
 62
7
  6
BYLAYER
 10
37.079512188
 20
236.9611463211
 11
37.079512188
 21
237.1931123324
  0
LINE
  5
248
100
AcDbEntity
  8
0
100
AcDbLine
 62
7
  6
BYLAYER
 10
38.579512188
 20
187.4507047973
 11
38.5795121152
 21
184.3111463211
  0
LINE
  5
249
100
AcDbEntity
  8
0
100
AcDbLine
 62
7
  6
BYLAYER
 10
39.079512188
 20
188.8111463211
 11
39.079512188
 21
185.3111463211
  0
LINE
  5
24A
100
AcDbEntity
  8
0
100
AcDbLine
 62
7
  6
BYLAYER
 10
40.079512188
 20
184.3111463211
 11
40.079512188
 21
188.8111463211
  0
LINE
  5
24B
100
AcDbEntity
  8
3
100
AcDbLine
 62
7
  6
BYLAYER
 10
41.2687329145
 20
184.0697262433
 11
41.2687329145
 21
181.0697262433
  0
LINE
  5
24C
100
AcDbEntity
  8
3
100
AcDbLine
 62
7
  6
BYLAYER
 10
46.2687329145
 20
181.0697262433
 11
46.2687329145
 21
184.0697262433
  0
LINE
  5
24D
100
AcDbEntity
  8
0
100
AcDbLine
 62
7
  6
BYLAYER
 10
47.579512188
 20
188.3111463211
 11
47.579512188
 21
186.8111463211
  0
LINE
  5
24E
100
AcDbEntity
  8
0
100
AcDbLine
 62
7
  6
BYLAYER
 10
48.079512188
 20
186.8111463211
 11
48.079512188
 21
188.3111463211
  0
LINE
  5
24F
100
AcDbEntity
  8
0
100
AcDbLine
 62
7
  6
BYLAYER
 10
48.579512188
 20
185.8111463211
 11
48.579512188
 21
186.3111463211
  0
LINE
  5
250
100
AcDbEntity
  8
3
100
AcDbLine
 62
7
  6
BYLAYER
 10
48.5795121895
 20
186.359071218
 11
48.5795121895
 21
188.359071218
  0
LINE
  5
251
100
AcDbEntity
  8
0
100
AcDbLine
 62
7
  6
BYLAYER
 10
48.579512188
 20
188.8111463211
 11
48.579512188
 21
189.3111463211
  0
LINE
  5
252
100
AcDbEntity
  8
3
100
AcDbLine
 62
7
  6
BYLAYER
 10
49.7270121895
 20
179.7330115594
 11
49.7270121895
 21
180.9776108212
  0
LINE
  5
253
100
AcDbEntity
  8
0
100
AcDbLine
 62
7
  6
BYLAYER
 10
31.3348742791
 20
207.7472108731
 11
31.1447892443
 21
207.5581604144
  0
LINE
  5
254
100
AcDbEntity
  8
0
100
AcDbLine
 62
7
  6
BYLAYER
 10
35.7378714015
 20
237.7583599166
 11
36.6322985925
 21
238.2055735121
  0
LINE
  5
255
100
AcDbEntity
  8
3
100
AcDbLine
 62
7
  6
BYLAYER
 10
50.6795121895
 20
179.6295266255
 11
50.6795121895
 21
176.6295266255
  0
LINE
  5
256
100
AcDbEntity
  8
0
100
AcDbLine
 62
7
  6
BYLAYER
 10
51.079512188
 20
186.3111463211
 11
51.079512188
 21
185.3111463211
  0
LINE
  5
257
100
AcDbEntity
  8
3
100
AcDbLine
 62
7
  6
BYLAYER
 10
53.0795121895
 20
186.359071218
 11
53.0795121895
 21
184.0697262433
  0
LINE
  5
258
100
AcDbEntity
  8
3
100
AcDbLine
 62
7
  6
BYLAYER
 10
53.0795121895
 20
181.0697262433
 11
53.0795121895
 21
180.9776108212
  0
LINE
  5
259
100
AcDbEntity
  8
3
100
AcDbLine
 62
7
  6
BYLAYER
 10
53.0795121895
 20
179.7330115594
 11
53.0795121895
 21
179.6295266255
  0
LINE
  5
25A
100
AcDbEntity
  8
3
100
AcDbLine
 62
7
  6
BYLAYER
 10
53.0795121895
 20
176.6295266255
 11
53.0795121895
 21
172.359071218
  0
LINE
  5
25B
100
AcDbEntity
  8
3
100
AcDbLine
 62
7
  6
BYLAYER
 10
53.3795121895
 20
179.6295266255
 11
53.3795121895
 21
176.6295266255
  0
LINE
  5
25C
100
AcDbEntity
  8
0
100
AcDbLine
 62
7
  6
BYLAYER
 10
52.0795088993
 20
184.8093328553
 11
52.079512188
 21
185.8111463211
  0
LWPOLYLINE
  5
25D
100
AcDbEntity
  8
0
100
AcDbPolyline
 62
7
  6
BYLAYER
 90
4
 70
0
 10
52.0129472675
 20
184.5618793321
 10
52.0687702106
 20
184.7068305319
 10
52.0780693768
 20
184.7727407535
 10
52.0795088993
 20
184.8093328553
  0
LWPOLYLINE
  5
25E
100
AcDbEntity
  8
0
100
AcDbPolyline
 62
7
  6
BYLAYER
 90
4
 70
0
 10
60.0795138326
 20
184.8098639055
 10
60.0809194779
 20
184.7732642941
 10
60.1127394867
 20
184.6312844662
 10
60.1434557233
 20
184.5664939972
  0
LINE
  5
25F
100
AcDbEntity
  8
3
100
AcDbLine
 62
7
  6
BYLAYER
 10
58.7795121895
 20
179.6295266255
 11
58.7795121895
 21
176.6295266255
  0
LINE
  5
260
100
AcDbEntity
  8
3
100
AcDbLine
 62
7
  6
BYLAYER
 10
59.0795121895
 20
172.359071218
 11
59.0795121895
 21
176.6295266255
  0
LINE
  5
261
100
AcDbEntity
  8
3
100
AcDbLine
 62
7
  6
BYLAYER
 10
59.0795121895
 20
179.6295266255
 11
59.0795121895
 21
179.7330115594
  0
LINE
  5
262
100
AcDbEntity
  8
3
100
AcDbLine
 62
7
  6
BYLAYER
 10
59.0795121895
 20
180.9776108212
 11
59.0795121895
 21
181.0697262433
  0
LINE
  5
263
100
AcDbEntity
  8
3
100
AcDbLine
 62
7
  6
BYLAYER
 10
59.0795121895
 20
184.0697262433
 11
59.0795121895
 21
186.359071218
  0
LINE
  5
264
100
AcDbEntity
  8
0
100
AcDbLine
 62
7
  6
BYLAYER
 10
60.079512188
 20
185.8111463185
 11
60.0795138326
 21
184.8098639055
  0
LINE
  5
265
100
AcDbEntity
  8
0
100
AcDbLine
 62
7
  6
BYLAYER
 10
61.0795121813
 20
185.3111463211
 11
61.0795121879
 21
186.3111463211
  0
LINE
  5
266
100
AcDbEntity
  8
3
100
AcDbLine
 62
7
  6
BYLAYER
 10
61.4795121895
 20
179.6295266255
 11
61.4795121895
 21
176.6295266255
  0
LINE
  5
267
100
AcDbEntity
  8
3
100
AcDbLine
 62
7
  6
BYLAYER
 10
62.4320121895
 20
179.7330115594
 11
62.4320121895
 21
180.9776108212
  0
LINE
  5
268
100
AcDbEntity
  8
0
100
AcDbLine
 62
7
  6
BYLAYER
 10
63.579512188
 20
189.3111463211
 11
63.579512188
 21
188.8111463211
  0
LINE
  5
269
100
AcDbEntity
  8
0
100
AcDbLine
 62
7
  6
BYLAYER
 10
63.579512188
 20
186.3111463211
 11
63.579512188
 21
185.8111463211
  0
LINE
  5
26A
100
AcDbEntity
  8
3
100
AcDbLine
 62
7
  6
BYLAYER
 10
63.5795121895
 20
186.359071218
 11
63.5795121895
 21
188.359071218
  0
LINE
  5
26B
100
AcDbEntity
  8
0
100
AcDbLine
 62
7
  6
BYLAYER
 10
64.079512188
 20
188.3111463211
 11
64.079512188
 21
186.8111463211
  0
LINE
  5
26C
100
AcDbEntity
  8
0
100
AcDbLine
 62
7
  6
BYLAYER
 10
64.579512188
 20
186.8111463211
 11
64.579512188
 21
188.3111463211
  0
LINE
  5
26D
100
AcDbEntity
  8
0
100
AcDbLine
 62
7
  6
BYLAYER
 10
75.5267257835
 20
238.2055735121
 11
75.1322985925
 21
237.4167191301
  0
LINE
  5
26E
100
AcDbEntity
  8
0
100
AcDbLine
 62
7
  6
BYLAYER
 10
76.4211529745
 20
237.7583599166
 11
76.079512188
 21
237.0750419032
  0
LINE
  5
26F
100
AcDbEntity
  8
0
100
AcDbLine
 62
7
  6
BYLAYER
 10
72.079512188
 20
188.8111463211
 11
72.079512188
 21
184.3111463211
  0
LINE
  5
270
100
AcDbEntity
  8
0
100
AcDbLine
 62
7
  6
BYLAYER
 10
73.079512188
 20
185.3111463211
 11
73.079512188
 21
188.8111463211
  0
LINE
  5
271
100
AcDbEntity
  8
0
100
AcDbLine
 62
7
  6
BYLAYER
 10
73.5795122605
 20
184.3111463211
 11
73.579512188
 21
187.4783846757
  0
LWPOLYLINE
  5
272
100
AcDbEntity
  8
0
100
AcDbPolyline
 62
7
  6
BYLAYER
 90
4
 70
0
 10
81.0142351323
 20
216.0641322291
 10
81.0442716023
 20
216.1261826425
 10
81.0773200277
 20
216.2638928588
 10
81.0794688898
 20
216.3045663295
  0
LINE
  5
273
100
AcDbEntity
  8
0
100
AcDbLine
 62
7
  6
BYLAYER
 10
78.5324333101
 20
237.5858674491
 11
79.4939572578
 21
237.8605885769
  0
LINE
  5
274
100
AcDbEntity
  8
0
100
AcDbLine
 62
7
  6
BYLAYER
 10
36.079512188
 20
237.075041447
 11
35.7378714015
 21
237.7583599166
  0
LINE
  5
275
100
AcDbEntity
  8
0
100
AcDbLine
 62
7
  6
BYLAYER
 10
37.0267257835
 20
237.4167191301
 11
36.6322985925
 21
238.2055735121
  0
LINE
  5
276
100
AcDbEntity
  8
0
100
AcDbLine
 62
7
  6
BYLAYER
 10
75.079512188
 20
237.1931123324
 11
75.079512188
 21
236.9611463211
  0
LINE
  5
277
100
AcDbEntity
  8
0
100
AcDbLine
 62
7
  6
BYLAYER
 10
75.079512188
 20
188.4111463211
 11
75.079512188
 21
189.2111463211
  0
LINE
  5
278
100
AcDbEntity
  8
0
100
AcDbLine
 62
7
  6
BYLAYER
 10
76.079512188
 20
219.3111463211
 11
76.079512188
 21
204.3111463211
  0
LINE
  5
279
100
AcDbEntity
  8
0
100
AcDbLine
 62
7
  6
BYLAYER
 10
76.079512188
 20
235.9611463211
 11
76.079512188
 21
237.0750419032
  0
LINE
  5
27A
100
AcDbEntity
  8
0
100
AcDbLine
 62
7
  6
BYLAYER
 10
76.079987228
 20
228.4111344423
 11
76.079987228
 21
229.2111344423
  0
LINE
  5
27B
100
AcDbEntity
  8
0
100
AcDbLine
 62
7
  6
BYLAYER
 10
76.179512188
 20
187.3111463211
 11
76.179512188
 21
188.4111463211
  0
LINE
  5
27C
100
AcDbEntity
  8
0
100
AcDbLine
 62
7
  6
BYLAYER
 10
76.179512188
 20
189.2111463211
 11
76.179512188
 21
190.3111463211
  0
LINE
  5
27D
100
AcDbEntity
  8
0
100
AcDbLine
 62
7
  6
BYLAYER
 10
76.579512188
 20
192.102514364
 11
76.579512188
 21
193.3111463211
  0
LINE
  5
27E
100
AcDbEntity
  8
0
100
AcDbLine
 62
7
  6
BYLAYER
 10
76.579512188
 20
204.3111463211
 11
76.579512188
 21
219.3111463211
  0
LINE
  5
27F
100
AcDbEntity
  8
0
100
AcDbLine
 62
7
  6
BYLAYER
 10
76.979512188
 20
190.3111463211
 11
76.979512188
 21
189.2111463211
  0
LINE
  5
280
100
AcDbEntity
  8
0
100
AcDbLine
 62
7
  6
BYLAYER
 10
76.979512188
 20
188.4111463211
 11
76.979512188
 21
187.3111463211
  0
LINE
  5
281
100
AcDbEntity
  8
0
100
AcDbLine
 62
7
  6
BYLAYER
 10
77.079512188
 20
184.8111463211
 11
77.079512188
 21
184.3111463211
  0
LINE
  5
282
100
AcDbEntity
  8
0
100
AcDbLine
 62
7
  6
BYLAYER
 10
77.079512188
 20
203.3111463211
 11
77.079512188
 21
203.8111463211
  0
LINE
  5
283
100
AcDbEntity
  8
0
100
AcDbLine
 62
7
  6
BYLAYER
 10
77.079512188
 20
219.8111463211
 11
77.079512188
 21
220.3111463211
  0
LINE
  5
284
100
AcDbEntity
  8
0
100
AcDbLine
 62
7
  6
BYLAYER
 10
77.179987228
 20
227.3111344423
 11
77.179987228
 21
228.4111344423
  0
LINE
  5
285
100
AcDbEntity
  8
0
100
AcDbLine
 62
7
  6
BYLAYER
 10
77.179987228
 20
229.2111344423
 11
77.179987228
 21
230.3111344423
  0
LINE
  5
286
100
AcDbEntity
  8
0
100
AcDbLine
 62
7
  6
BYLAYER
 10
77.3155801655
 20
238.3111463211
 11
77.3155801655
 21
239.3111463211
  0
LINE
  5
287
100
AcDbEntity
  8
0
100
AcDbLine
 62
7
  6
BYLAYER
 10
77.5709093625
 20
239.3111463211
 11
77.5709093625
 21
238.3111463211
  0
LINE
  5
288
100
AcDbEntity
  8
0
100
AcDbLine
 62
7
  6
BYLAYER
 10
77.579512188
 20
224.3111463211
 11
77.579512188
 21
225.5196795447
  0
LINE
  5
289
100
AcDbEntity
  8
0
100
AcDbLine
 62
7
  6
BYLAYER
 10
77.579512188
 20
232.1024156306
 11
77.579512188
 21
233.3111463211
  0
LINE
  5
28A
100
AcDbEntity
  8
0
100
AcDbLine
 62
7
  6
BYLAYER
 10
77.979987228
 20
230.3111344423
 11
77.979987228
 21
229.2111344423
  0
LINE
  5
28B
100
AcDbEntity
  8
0
100
AcDbLine
 62
7
  6
BYLAYER
 10
77.979987228
 20
228.4111344423
 11
77.979987228
 21
227.3111344423
  0
LINE
  5
28C
100
AcDbEntity
  8
0
100
AcDbLine
 62
7
  6
BYLAYER
 10
78.079512188
 20
189.2111463211
 11
78.079512188
 21
188.4111463211
  0
LINE
  5
28D
100
AcDbEntity
  8
0
100
AcDbLine
 62
7
  6
BYLAYER
 10
78.579512188
 20
220.3111463211
 11
78.579512188
 21
219.8111463211
  0
LINE
  5
28E
100
AcDbEntity
  8
0
100
AcDbLine
 62
7
  6
BYLAYER
 10
78.579512188
 20
203.8111463211
 11
78.579512188
 21
203.3111463211
  0
LINE
  5
28F
100
AcDbEntity
  8
0
100
AcDbLine
 62
7
  6
BYLAYER
 10
79.079512188
 20
204.3111463211
 11
79.079512188
 21
207.3111463211
  0
LINE
  5
290
100
AcDbEntity
  8
0
100
AcDbLine
 62
7
  6
BYLAYER
 10
79.079512188
 20
216.3111463211
 11
79.079512188
 21
219.3111463211
  0
LINE
  5
291
100
AcDbEntity
  8
0
100
AcDbLine
 62
7
  6
BYLAYER
 10
79.079987228
 20
229.2111344423
 11
79.079987228
 21
228.4111344423
  0
LINE
  5
292
100
AcDbEntity
  8
0
100
AcDbLine
 62
7
  6
BYLAYER
 10
79.0909172117
 20
233.3111463211
 11
79.0909172117
 21
231.8111463211
  0
LINE
  5
293
100
AcDbEntity
  8
0
100
AcDbLine
 62
7
  6
BYLAYER
 10
79.579512188
 20
204.3111463211
 11
79.579512188
 21
207.8111463173
  0
LINE
  5
294
100
AcDbEntity
  8
0
100
AcDbLine
 62
7
  6
BYLAYER
 10
79.579512188
 20
215.8111463211
 11
79.579512188
 21
219.3111463211
  0
LINE
  5
295
100
AcDbEntity
  8
0
100
AcDbLine
 62
7
  6
BYLAYER
 10
80.079512188
 20
225.3111463211
 11
80.079512188
 21
216.8111463211
  0
LINE
  5
296
100
AcDbEntity
  8
0
100
AcDbLine
 62
7
  6
BYLAYER
 10
80.079512188
 20
206.8111463173
 11
80.079512188
 21
192.3111463211
  0
LINE
  5
297
100
AcDbEntity
  8
0
100
AcDbLine
 62
7
  6
BYLAYER
 10
80.579512188
 20
230.9105968747
 11
80.579512188
 21
230.1446150545
  0
LINE
  5
298
100
AcDbEntity
  8
0
100
AcDbLine
 62
7
  6
BYLAYER
 10
80.579512188
 20
227.4495284266
 11
80.579512188
 21
225.8111463211
  0
LINE
  5
299
100
AcDbEntity
  8
0
100
AcDbLine
 62
7
  6
BYLAYER
 10
80.579512188
 20
191.8111463211
 11
80.579512188
 21
188.3111463211
  0
LINE
  5
29A
100
AcDbEntity
  8
0
100
AcDbLine
 62
7
  6
BYLAYER
 10
81.079512188
 20
188.3111463211
 11
81.079512188
 21
207.3111463211
  0
LINE
  5
29B
100
AcDbEntity
  8
0
100
AcDbLine
 62
7
  6
BYLAYER
 10
81.079512188
 20
216.3111463211
 11
81.079512188
 21
230.9105968747
  0
LINE
  5
29C
100
AcDbEntity
  8
3
100
AcDbLine
 62
7
  6
BYLAYER
 10
81.0799872311
 20
225.8111463211
 11
81.0799872311
 21
224.3111463211
  0
LINE
  5
29D
100
AcDbEntity
  8
3
100
AcDbLine
 62
7
  6
BYLAYER
 10
81.0799872311
 20
193.3111463211
 11
81.0799872311
 21
191.8111463211
  0
LINE
  5
29E
100
AcDbEntity
  8
0
100
AcDbLine
 62
7
  6
BYLAYER
 10
81.0794688898
 20
216.3045663295
 11
81.079512188
 21
216.3111463211
  0
LINE
  5
29F
100
AcDbEntity
  8
0
100
AcDbLine
 62
7
  6
BYLAYER
 10
80.8241501043
 20
215.8750817732
 11
81.0142351323
 21
216.0641322291
  0
LINE
  5
2A0
100
AcDbEntity
  8
0
100
AcDbLine
 62
7
  6
BYLAYER
 10
51.8261589692
 20
184.3762148721
 11
52.0129472675
 21
184.5618793321
  0
LINE
  5
2A1
100
AcDbEntity
  8
0
100
AcDbLine
 62
7
  6
BYLAYER
 10
80.5332031332
 20
234.2232280129
 11
79.5716791855
 21
233.9485068851
  0
LINE
  5
2A2
100
AcDbEntity
  8
0
100
AcDbLine
 62
7
  6
BYLAYER
 10
80.6947516644
 20
233.6578081537
 11
80.6522507837
 21
233.6456650449
  0
LINE
  5
2A3
100
AcDbEntity
  8
0
100
AcDbLine
 62
7
  6
BYLAYER
 10
60.1434557233
 20
184.5664939972
 11
60.3324981932
 21
184.3764233216
  0
LWPOLYLINE
  5
2A4
100
AcDbEntity
  8
0
100
AcDbPolyline
 62
7
  6
BYLAYER
 90
4
 70
0
 10
81.0795120361
 20
207.310756564
 10
81.0784737972
 20
207.3437094974
 10
81.0698303517
 20
207.4102870207
 10
81.0144437208
 20
207.5577929545
  0
LINE
  5
2A5
100
AcDbEntity
  8
3
100
AcDbLine
 62
7
  6
BYLAYER
 10
88.2687329145
 20
134.0697262433
 11
88.2687329145
 21
177.0697262433
  0
LINE
  5
2A6
100
AcDbEntity
  8
3
100
AcDbLine
 62
7
  6
BYLAYER
 10
88.2687329145
 20
134.0697262433
 11
91.2687329145
 21
134.0697262433
  0
LINE
  5
2A7
100
AcDbEntity
  8
4
100
AcDbLine
 62
7
  6
BYLAYER
 10
235.917863803
 20
134.0697262433
 11
238.917863803
 21
134.0697262433
  0
LINE
  5
2A8
100
AcDbEntity
  8
4
100
AcDbLine
 62
7
  6
BYLAYER
 10
238.917863803
 20
139.0697262433
 11
235.917863803
 21
139.0697262433
  0
LINE
  5
2A9
100
AcDbEntity
  8
3
100
AcDbLine
 62
7
  6
BYLAYER
 10
91.2687329145
 20
139.0697262433
 11
88.2687329145
 21
139.0697262433
  0
LINE
  5
2AA
100
AcDbEntity
  8
0
100
AcDbLine
 62
7
  6
BYLAYER
 10
31.1445806288
 20
216.0644997343
 11
31.3302414004
 21
215.8777134262
  0
LINE
  5
2AB
100
AcDbEntity
  8
3
100
AcDbLine
 62
7
  6
BYLAYER
 10
91.2687329145
 20
134.0697262433
 11
91.2687329145
 21
177.0697262433
  0
LINE
  5
2AC
100
AcDbEntity
  8
0
100
AcDbLine
 62
7
  6
BYLAYER
 10
79.5718298842
 20
233.9479794397
 11
78.5324333101
 21
237.585867449
  0
LINE
  5
2AD
100
AcDbEntity
  8
0
100
AcDbLine
 62
7
  6
BYLAYER
 10
80.6947516644
 20
233.6578081537
 11
79.4939572578
 21
237.8605885769
  0
LWPOLYLINE
  5
2AE
100
AcDbEntity
  8
0
100
AcDbPolyline
 62
7
  6
BYLAYER
 90
4
 70
0
 10
60.3324981932
 20
184.3764233216
 10
60.3944907197
 20
184.3464101353
 10
60.5321830075
 20
184.3133454947
 10
60.5729180851
 20
184.3111898052
  0
LINE
  5
2AF
100
AcDbEntity
  8
0
100
AcDbLine
 62
7
  6
BYLAYER
 10
183.38700229
 20
237.7583599166
 11
184.281429481
 21
238.2055735121
  0
LINE
  5
2B0
100
AcDbEntity
  8
0
100
AcDbLine
 62
7
  6
BYLAYER
 10
226.1815641986
 20
237.5858674491
 11
227.1430881463
 21
237.8605885769
  0
LINE
  5
2B1
100
AcDbEntity
  8
0
100
AcDbLine
 62
7
  6
BYLAYER
 10
81.0144437208
 20
207.5577929545
 11
80.8287828745
 21
207.7445792742
  0
LINE
  5
2B2
100
AcDbEntity
  8
0
100
AcDbLine
 62
7
  6
BYLAYER
 10
228.1823340217
 20
234.2232280129
 11
227.2208100741
 21
233.9485068851
  0
LINE
  5
2B3
100
AcDbEntity
  8
0
100
AcDbLine
 62
7
  6
BYLAYER
 10
228.3438825529
 20
233.6578081537
 11
228.3013816722
 21
233.6456650449
  0
LINE
  5
2B4
100
AcDbEntity
  8
4
100
AcDbLine
 62
7
  6
BYLAYER
 10
206.728643078
 20
172.359071218
 11
200.728643078
 21
172.359071218
  0
LINE
  5
2B5
100
AcDbEntity
  8
3
100
AcDbLine
 62
7
  6
BYLAYER
 10
59.0795121895
 20
172.359071218
 11
53.0795121895
 21
172.359071218
  0
LINE
  5
2B6
100
AcDbEntity
  8
3
100
AcDbLine
 62
7
  6
BYLAYER
 10
50.6795121895
 20
176.6295266255
 11
61.4795121895
 21
176.6295266255
  0
LINE
  5
2B7
100
AcDbEntity
  8
4
100
AcDbLine
 62
7
  6
BYLAYER
 10
198.328643078
 20
176.6295266255
 11
209.128643078
 21
176.6295266255
  0
LINE
  5
2B8
100
AcDbEntity
  8
3
100
AcDbLine
 62
7
  6
BYLAYER
 10
50.6795121895
 20
179.6295266255
 11
61.4795121895
 21
179.6295266255
  0
LINE
  5
2B9
100
AcDbEntity
  8
4
100
AcDbLine
 62
7
  6
BYLAYER
 10
198.328643078
 20
179.6295266255
 11
209.128643078
 21
179.6295266255
  0
LINE
  5
2BA
100
AcDbEntity
  8
4
100
AcDbLine
 62
7
  6
BYLAYER
 10
210.0810905599
 20
179.7330115594
 11
197.376195596
 21
179.7330115594
  0
LINE
  5
2BB
100
AcDbEntity
  8
3
100
AcDbLine
 62
7
  6
BYLAYER
 10
62.4319596714
 20
179.7330115594
 11
49.7270647075
 21
179.7330115594
  0
LWPOLYLINE
  5
2BC
100
AcDbEntity
  8
0
100
AcDbPolyline
 62
7
  6
BYLAYER
 90
4
 70
0
 10
31.3302414004
 20
215.8777134262
 10
31.4755142314
 20
215.821821626
 10
31.5409310029
 20
215.812602311
 10
31.5773051129
 20
215.8111511923
  0
LINE
  5
2BD
100
AcDbEntity
  8
0
100
AcDbLine
 62
7
  6
BYLAYER
 10
76.079512188
 20
235.9611463211
 11
75.079512188
 21
236.9611463211
  0
LINE
  5
2BE
100
AcDbEntity
  8
0
100
AcDbLine
 62
7
  6
BYLAYER
 10
80.1238458551
 20
232.7234614322
 11
80.4681554029
 21
232.3608998025
  0
LINE
  5
2BF
100
AcDbEntity
  8
0
100
AcDbLine
 62
7
  6
BYLAYER
 10
179.3399998616
 20
232.3608998025
 11
179.6843094094
 21
232.7234614322
  0
LINE
  5
2C0
100
AcDbEntity
  8
0
100
AcDbLine
 62
7
  6
BYLAYER
 10
183.7286430765
 20
235.9611463211
 11
184.7286430765
 21
236.9611463211
  0
LWPOLYLINE
  5
2C1
100
AcDbEntity
  8
0
100
AcDbPolyline
 62
7
  6
BYLAYER
 90
4
 70
0
 10
199.2282636653
 20
184.3111464651
 10
199.2612098076
 20
184.3121849371
 10
199.3278203937
 20
184.3208354412
 10
199.4752898568
 20
184.3762148716
  0
LWPOLYLINE
  5
2C2
100
AcDbEntity
  8
0
100
AcDbPolyline
 62
7
  6
BYLAYER
 90
4
 70
0
 10
51.57913273
 20
184.3111464651
 10
51.6120789191
 20
184.3121849371
 10
51.6786895052
 20
184.3208354412
 10
51.8261589692
 20
184.3762148721
  0
LINE
  5
2C3
100
AcDbEntity
  8
3
100
AcDbLine
 62
7
  6
BYLAYER
 10
49.7270647075
 20
180.9776108212
 11
62.4319596714
 21
180.9776108212
  0
LINE
  5
2C4
100
AcDbEntity
  8
4
100
AcDbLine
 62
7
  6
BYLAYER
 10
197.376195596
 20
180.9776108212
 11
210.0810905599
 21
180.9776108212
  0
LINE
  5
2C5
100
AcDbEntity
  8
3
100
AcDbLine
 62
7
  6
BYLAYER
 10
41.2687329145
 20
181.0697262433
 11
84.2687329145
 21
181.0697262433
  0
LINE
  5
2C6
100
AcDbEntity
  8
4
100
AcDbLine
 62
7
  6
BYLAYER
 10
188.917863803
 20
181.0697262433
 11
231.917863803
 21
181.0697262433
  0
LINE
  5
2C7
100
AcDbEntity
  8
3
100
AcDbLine
 62
7
  6
BYLAYER
 10
41.2687329145
 20
184.0697262433
 11
84.2687329145
 21
184.0697262433
  0
LINE
  5
2C8
100
AcDbEntity
  8
4
100
AcDbLine
 62
7
  6
BYLAYER
 10
188.917863803
 20
184.0697262433
 11
231.917863803
 21
184.0697262433
  0
LINE
  5
2C9
100
AcDbEntity
  8
0
100
AcDbLine
 62
7
  6
BYLAYER
 10
35.079512188
 20
184.3111463211
 11
51.579512188
 21
184.3111463211
  0
LINE
  5
2CA
100
AcDbEntity
  8
0
100
AcDbLine
 62
7
  6
BYLAYER
 10
60.579512188
 20
184.3111463211
 11
77.079512188
 21
184.3111463211
  0
LINE
  5
2CB
100
AcDbEntity
  8
0
100
AcDbLine
 62
7
  6
BYLAYER
 10
182.7286430765
 20
184.3111463211
 11
199.2286430765
 21
184.3111463211
  0
LINE
  5
2CC
100
AcDbEntity
  8
0
100
AcDbLine
 62
7
  6
BYLAYER
 10
208.2286430765
 20
184.3111463211
 11
224.7286430765
 21
184.3111463211
  0
LINE
  5
2CD
100
AcDbEntity
  8
3
100
AcDbLine
 62
7
  6
BYLAYER
 10
187.7286430765
 20
184.3116277955
 11
186.2286430765
 21
184.3116277955
  0
LINE
  5
2CE
100
AcDbEntity
  8
3
100
AcDbLine
 62
7
  6
BYLAYER
 10
40.079512188
 20
184.3116277955
 11
38.579512188
 21
184.3116277955
  0
LINE
  5
2CF
100
AcDbEntity
  8
0
100
AcDbLine
 62
7
  6
BYLAYER
 10
224.7286430765
 20
184.8111463211
 11
221.2286430765
 21
184.8111463211
  0
LINE
  5
2D0
100
AcDbEntity
  8
0
100
AcDbLine
 62
7
  6
BYLAYER
 10
186.2286430765
 20
184.8111463211
 11
182.7286430765
 21
184.8111463211
  0
LINE
  5
2D1
100
AcDbEntity
  8
0
100
AcDbLine
 62
7
  6
BYLAYER
 10
77.079512188
 20
184.8111463211
 11
73.579512188
 21
184.8111463211
  0
LINE
  5
2D2
100
AcDbEntity
  8
0
100
AcDbLine
 62
7
  6
BYLAYER
 10
38.579512188
 20
184.8111463211
 11
35.079512188
 21
184.8111463211
  0
LINE
  5
2D3
100
AcDbEntity
  8
0
100
AcDbLine
 62
7
  6
BYLAYER
 10
220.7286430765
 20
185.3111463211
 11
208.7286430722
 21
185.3111463211
  0
LINE
  5
2D4
100
AcDbEntity
  8
0
100
AcDbLine
 62
7
  6
BYLAYER
 10
198.7286430765
 20
185.3111463211
 11
186.7286430765
 21
185.3111463211
  0
LINE
  5
2D5
100
AcDbEntity
  8
0
100
AcDbLine
 62
7
  6
BYLAYER
 10
73.079512188
 20
185.3111463211
 11
61.0795121813
 21
185.3111463211
  0
LINE
  5
2D6
100
AcDbEntity
  8
0
100
AcDbLine
 62
7
  6
BYLAYER
 10
51.079512188
 20
185.3111463211
 11
39.079512188
 21
185.3111463211
  0
LINE
  5
2D7
100
AcDbEntity
  8
0
100
AcDbLine
 62
7
  6
BYLAYER
 10
48.579512188
 20
185.8111463211
 11
52.079512188
 21
185.8111463211
  0
LINE
  5
2D8
100
AcDbEntity
  8
0
100
AcDbLine
 62
7
  6
BYLAYER
 10
60.0795121813
 20
185.8111463211
 11
63.579512188
 21
185.8111463211
  0
LINE
  5
2D9
100
AcDbEntity
  8
0
100
AcDbLine
 62
7
  6
BYLAYER
 10
196.2286430765
 20
185.8111463211
 11
199.7286430765
 21
185.8111463211
  0
LINE
  5
2DA
100
AcDbEntity
  8
0
100
AcDbLine
 62
7
  6
BYLAYER
 10
207.7286430722
 20
185.8111463211
 11
211.2286430765
 21
185.8111463211
  0
LINE
  5
2DB
100
AcDbEntity
  8
0
100
AcDbLine
 62
7
  6
BYLAYER
 10
48.579512188
 20
186.3111463211
 11
51.579512188
 21
186.3111463211
  0
LINE
  5
2DC
100
AcDbEntity
  8
0
100
AcDbLine
 62
7
  6
BYLAYER
 10
60.579512188
 20
186.3111463211
 11
63.579512188
 21
186.3111463211
  0
LINE
  5
2DD
100
AcDbEntity
  8
0
100
AcDbLine
 62
7
  6
BYLAYER
 10
196.2286430765
 20
186.3111463211
 11
199.2286430765
 21
186.3111463211
  0
LINE
  5
2DE
100
AcDbEntity
  8
0
100
AcDbLine
 62
7
  6
BYLAYER
 10
208.2286430765
 20
186.3111463211
 11
211.2286430765
 21
186.3111463211
  0
LINE
  5
2DF
100
AcDbEntity
  8
3
100
AcDbLine
 62
7
  6
BYLAYER
 10
51.5799872311
 20
186.359071218
 11
60.5799872311
 21
186.359071218
  0
LINE
  5
2E0
100
AcDbEntity
  8
4
100
AcDbLine
 62
7
  6
BYLAYER
 10
199.2291181196
 20
186.359071218
 11
208.2291181196
 21
186.359071218
  0
LINE
  5
2E1
100
AcDbEntity
  8
0
100
AcDbLine
 62
7
  6
BYLAYER
 10
212.2286430765
 20
186.8111463211
 11
211.7286430765
 21
186.8111463211
  0
LINE
  5
2E2
100
AcDbEntity
  8
0
100
AcDbLine
 62
7
  6
BYLAYER
 10
195.7286430765
 20
186.8111463211
 11
195.2286430765
 21
186.8111463211
  0
LINE
  5
2E3
100
AcDbEntity
  8
0
100
AcDbLine
 62
7
  6
BYLAYER
 10
64.579512188
 20
186.8111463211
 11
64.079512188
 21
186.8111463211
  0
LINE
  5
2E4
100
AcDbEntity
  8
0
100
AcDbLine
 62
7
  6
BYLAYER
 10
48.079512188
 20
186.8111463211
 11
47.579512188
 21
186.8111463211
  0
LINE
  5
2E5
100
AcDbEntity
  8
0
100
AcDbLine
 62
7
  6
BYLAYER
 10
224.6286430765
 20
187.3111463211
 11
223.8286430765
 21
187.3111463211
  0
LINE
  5
2E6
100
AcDbEntity
  8
0
100
AcDbLine
 62
7
  6
BYLAYER
 10
76.979512188
 20
187.3111463211
 11
76.179512188
 21
187.3111463211
  0
LINE
  5
2E7
100
AcDbEntity
  8
0
100
AcDbLine
 62
7
  6
BYLAYER
 10
183.6286430794
 20
187.3116332372
 11
182.8286430794
 21
187.3116332372
  0
LINE
  5
2E8
100
AcDbEntity
  8
0
100
AcDbLine
 62
7
  6
BYLAYER
 10
35.9795121909
 20
187.3116332372
 11
35.1795121909
 21
187.3116332372
  0
LINE
  5
2E9
100
AcDbEntity
  8
0
100
AcDbLine
 62
7
  6
BYLAYER
 10
60.5729180851
 20
184.3111898052
 11
60.579512188
 21
184.3111463211
  0
LINE
  5
2EA
100
AcDbEntity
  8
0
100
AcDbLine
 62
7
  6
BYLAYER
 10
208.2220489738
 20
184.3111898052
 11
208.2286430765
 21
184.3111463211
  0
LWPOLYLINE
  5
2EB
100
AcDbEntity
  8
0
100
AcDbPolyline
 62
7
  6
BYLAYER
 90
4
 70
0
 10
80.8287828745
 20
207.7445792742
 10
80.683526732
 20
207.8004675528
 10
80.6181018097
 20
207.8096896956
 10
80.5817635548
 20
207.8111412524
  0
LINE
  5
2EC
100
AcDbEntity
  8
0
100
AcDbLine
 62
7
  6
BYLAYER
 10
228.7286430765
 20
188.3111463211
 11
228.2286430765
 21
188.3111463211
  0
LINE
  5
2ED
100
AcDbEntity
  8
0
100
AcDbLine
 62
7
  6
BYLAYER
 10
179.2286430765
 20
188.3111463211
 11
178.7286430765
 21
188.3111463211
  0
LINE
  5
2EE
100
AcDbEntity
  8
0
100
AcDbLine
 62
7
  6
BYLAYER
 10
81.079512188
 20
188.3111463211
 11
80.579512188
 21
188.3111463211
  0
LINE
  5
2EF
100
AcDbEntity
  8
0
100
AcDbLine
 62
7
  6
BYLAYER
 10
31.579512188
 20
188.3111463211
 11
31.079512188
 21
188.3111463211
  0
LINE
  5
2F0
100
AcDbEntity
  8
0
100
AcDbLine
 62
7
  6
BYLAYER
 10
47.579512188
 20
188.3111463211
 11
48.079512188
 21
188.3111463211
  0
LINE
  5
2F1
100
AcDbEntity
  8
0
100
AcDbLine
 62
7
  6
BYLAYER
 10
64.079512188
 20
188.3111463211
 11
64.579512188
 21
188.3111463211
  0
LINE
  5
2F2
100
AcDbEntity
  8
0
100
AcDbLine
 62
7
  6
BYLAYER
 10
195.2286430765
 20
188.3111463211
 11
195.7286430765
 21
188.3111463211
  0
LINE
  5
2F3
100
AcDbEntity
  8
0
100
AcDbLine
 62
7
  6
BYLAYER
 10
211.7286430765
 20
188.3111463211
 11
212.2286430765
 21
188.3111463211
  0
LINE
  5
2F4
100
AcDbEntity
  8
3
100
AcDbLine
 62
7
  6
BYLAYER
 10
48.5795121895
 20
188.359071218
 11
63.5795121895
 21
188.359071218
  0
LINE
  5
2F5
100
AcDbEntity
  8
4
100
AcDbLine
 62
7
  6
BYLAYER
 10
196.228643078
 20
188.359071218
 11
211.228643078
 21
188.359071218
  0
LINE
  5
2F6
100
AcDbEntity
  8
0
100
AcDbLine
 62
7
  6
BYLAYER
 10
225.7286430765
 20
188.4111463211
 11
224.6286430765
 21
188.4111463211
  0
LINE
  5
2F7
100
AcDbEntity
  8
0
100
AcDbLine
 62
7
  6
BYLAYER
 10
223.8286430765
 20
188.4111463211
 11
222.7286430765
 21
188.4111463211
  0
LINE
  5
2F8
100
AcDbEntity
  8
0
100
AcDbLine
 62
7
  6
BYLAYER
 10
78.079512188
 20
188.4111463211
 11
76.979512188
 21
188.4111463211
  0
LINE
  5
2F9
100
AcDbEntity
  8
0
100
AcDbLine
 62
7
  6
BYLAYER
 10
76.179512188
 20
188.4111463211
 11
75.079512188
 21
188.4111463211
  0
LINE
  5
2FA
100
AcDbEntity
  8
0
100
AcDbLine
 62
7
  6
BYLAYER
 10
184.7286430794
 20
188.4116332372
 11
183.6286430794
 21
188.4116332372
  0
LINE
  5
2FB
100
AcDbEntity
  8
0
100
AcDbLine
 62
7
  6
BYLAYER
 10
182.8286430794
 20
188.4116332372
 11
181.7286430794
 21
188.4116332372
  0
LINE
  5
2FC
100
AcDbEntity
  8
0
100
AcDbLine
 62
7
  6
BYLAYER
 10
37.0795121909
 20
188.4116332372
 11
35.9795121909
 21
188.4116332372
  0
LINE
  5
2FD
100
AcDbEntity
  8
0
100
AcDbLine
 62
7
  6
BYLAYER
 10
35.1795121909
 20
188.4116332372
 11
34.0795121909
 21
188.4116332372
  0
LINE
  5
2FE
100
AcDbEntity
  8
0
100
AcDbLine
 62
7
  6
BYLAYER
 10
38.8795099532
 20
188.8111463211
 11
40.079512188
 21
188.8111463211
  0
LINE
  5
2FF
100
AcDbEntity
  8
0
100
AcDbLine
 62
7
  6
BYLAYER
 10
48.579512188
 20
188.8111463211
 11
63.579512188
 21
188.8111463211
  0
LINE
  5
300
100
AcDbEntity
  8
0
100
AcDbLine
 62
7
  6
BYLAYER
 10
72.079512188
 20
188.8111463211
 11
73.279512188
 21
188.8111463211
  0
LINE
  5
301
100
AcDbEntity
  8
0
100
AcDbLine
 62
7
  6
BYLAYER
 10
186.5286408417
 20
188.8111463211
 11
187.7286430765
 21
188.8111463211
  0
LINE
  5
302
100
AcDbEntity
  8
0
100
AcDbLine
 62
7
  6
BYLAYER
 10
196.2286430765
 20
188.8111463211
 11
211.2286430765
 21
188.8111463211
  0
LINE
  5
303
100
AcDbEntity
  8
0
100
AcDbLine
 62
7
  6
BYLAYER
 10
219.7286430765
 20
188.8111463211
 11
220.9286430765
 21
188.8111463211
  0
LINE
  5
304
100
AcDbEntity
  8
0
100
AcDbLine
 62
7
  6
BYLAYER
 10
75.079512188
 20
189.2111463211
 11
76.179512188
 21
189.2111463211
  0
LINE
  5
305
100
AcDbEntity
  8
0
100
AcDbLine
 62
7
  6
BYLAYER
 10
76.979512188
 20
189.2111463211
 11
78.079512188
 21
189.2111463211
  0
LINE
  5
306
100
AcDbEntity
  8
0
100
AcDbLine
 62
7
  6
BYLAYER
 10
222.7286430765
 20
189.2111463211
 11
223.8286430765
 21
189.2111463211
  0
LINE
  5
307
100
AcDbEntity
  8
0
100
AcDbLine
 62
7
  6
BYLAYER
 10
224.6286430765
 20
189.2111463211
 11
225.7286430765
 21
189.2111463211
  0
LINE
  5
308
100
AcDbEntity
  8
0
100
AcDbLine
 62
7
  6
BYLAYER
 10
34.0795121909
 20
189.2116332372
 11
35.1795121909
 21
189.2116332372
  0
LINE
  5
309
100
AcDbEntity
  8
0
100
AcDbLine
 62
7
  6
BYLAYER
 10
35.9795121909
 20
189.2116332372
 11
37.0795121909
 21
189.2116332372
  0
LINE
  5
30A
100
AcDbEntity
  8
0
100
AcDbLine
 62
7
  6
BYLAYER
 10
181.7286430794
 20
189.2116332372
 11
182.8286430794
 21
189.2116332372
  0
LINE
  5
30B
100
AcDbEntity
  8
0
100
AcDbLine
 62
7
  6
BYLAYER
 10
183.6286430794
 20
189.2116332372
 11
184.7286430794
 21
189.2116332372
  0
LINE
  5
30C
100
AcDbEntity
  8
0
100
AcDbLine
 62
7
  6
BYLAYER
 10
211.2286430765
 20
189.3111463211
 11
196.2286430765
 21
189.3111463211
  0
LINE
  5
30D
100
AcDbEntity
  8
0
100
AcDbLine
 62
7
  6
BYLAYER
 10
63.579512188
 20
189.3111463211
 11
48.579512188
 21
189.3111463211
  0
LINE
  5
30E
100
AcDbEntity
  8
0
100
AcDbLine
 62
7
  6
BYLAYER
 10
76.179512188
 20
190.3111463211
 11
76.979512188
 21
190.3111463211
  0
LINE
  5
30F
100
AcDbEntity
  8
0
100
AcDbLine
 62
7
  6
BYLAYER
 10
223.8286430765
 20
190.3111463211
 11
224.6286430765
 21
190.3111463211
  0
LINE
  5
310
100
AcDbEntity
  8
0
100
AcDbLine
 62
7
  6
BYLAYER
 10
35.1795121909
 20
190.3116332372
 11
35.9795121909
 21
190.3116332372
  0
LINE
  5
311
100
AcDbEntity
  8
0
100
AcDbLine
 62
7
  6
BYLAYER
 10
182.8286430794
 20
190.3116332372
 11
183.6286430794
 21
190.3116332372
  0
LINE
  5
312
100
AcDbEntity
  8
0
100
AcDbLine
 62
7
  6
BYLAYER
 10
31.079512188
 20
191.8111462486
 11
34.2592616782
 21
191.8111463211
  0
LINE
  5
313
100
AcDbEntity
  8
0
100
AcDbLine
 62
7
  6
BYLAYER
 10
77.9260956019
 20
191.8111463211
 11
81.079512188
 21
191.8111462483
  0
LINE
  5
314
100
AcDbEntity
  8
0
100
AcDbLine
 62
7
  6
BYLAYER
 10
178.7286430765
 20
191.8111462486
 11
181.9083925667
 21
191.8111463211
  0
LINE
  5
315
100
AcDbEntity
  8
0
100
AcDbLine
 62
7
  6
BYLAYER
 10
225.5752264904
 20
191.8111463211
 11
228.7286430765
 21
191.8111462483
  0
LINE
  5
316
100
AcDbEntity
  8
0
100
AcDbLine
 62
7
  6
BYLAYER
 10
32.079512188
 20
192.3111463211
 11
35.579512188
 21
192.3111463211
  0
LINE
  5
317
100
AcDbEntity
  8
0
100
AcDbLine
 62
7
  6
BYLAYER
 10
76.579512188
 20
192.3111463211
 11
80.079512188
 21
192.3111463211
  0
LINE
  5
318
100
AcDbEntity
  8
0
100
AcDbLine
 62
7
  6
BYLAYER
 10
179.7286430765
 20
192.3111463211
 11
183.2286430765
 21
192.3111463211
  0
LINE
  5
319
100
AcDbEntity
  8
0
100
AcDbLine
 62
7
  6
BYLAYER
 10
224.2286430765
 20
192.3111463211
 11
227.7286430765
 21
192.3111463211
  0
LINE
  5
31A
100
AcDbEntity
  8
0
100
AcDbLine
 62
7
  6
BYLAYER
 10
228.7286430765
 20
193.3111463211
 11
224.2286430765
 21
193.3111463211
  0
LINE
  5
31B
100
AcDbEntity
  8
0
100
AcDbLine
 62
7
  6
BYLAYER
 10
183.2286430765
 20
193.3111463211
 11
178.7286430765
 21
193.3111463211
  0
LINE
  5
31C
100
AcDbEntity
  8
0
100
AcDbLine
 62
7
  6
BYLAYER
 10
81.079512188
 20
193.3111463211
 11
76.579512188
 21
193.3111463211
  0
LINE
  5
31D
100
AcDbEntity
  8
0
100
AcDbLine
 62
7
  6
BYLAYER
 10
35.579512188
 20
193.3111463211
 11
31.079512188
 21
193.3111463211
  0
LINE
  5
31E
100
AcDbEntity
  8
0
100
AcDbLine
 62
7
  6
BYLAYER
 10
178.984005169
 20
207.7472108739
 11
178.7939201334
 21
207.5581604153
  0
LWPOLYLINE
  5
31F
100
AcDbEntity
  8
0
100
AcDbPolyline
 62
7
  6
BYLAYER
 90
4
 70
0
 10
179.2270116329
 20
207.8111436595
 10
179.1907588816
 20
207.8097388658
 10
179.0490332008
 20
207.7780169671
 10
178.984005169
 20
207.7472108739
  0
LINE
  5
320
100
AcDbEntity
  8
0
100
AcDbLine
 62
7
  6
BYLAYER
 10
33.579512188
 20
203.3111463211
 11
35.079512188
 21
203.3111463211
  0
LINE
  5
321
100
AcDbEntity
  8
0
100
AcDbLine
 62
7
  6
BYLAYER
 10
77.079512188
 20
203.3111463211
 11
78.579512188
 21
203.3111463211
  0
LINE
  5
322
100
AcDbEntity
  8
0
100
AcDbLine
 62
7
  6
BYLAYER
 10
181.2286430765
 20
203.3111463211
 11
182.7286430765
 21
203.3111463211
  0
LINE
  5
323
100
AcDbEntity
  8
0
100
AcDbLine
 62
7
  6
BYLAYER
 10
224.7286430765
 20
203.3111463211
 11
226.2286430765
 21
203.3111463211
  0
LINE
  5
324
100
AcDbEntity
  8
0
100
AcDbLine
 62
7
  6
BYLAYER
 10
226.2286430765
 20
203.8111463211
 11
224.7286430765
 21
203.8111463211
  0
LINE
  5
325
100
AcDbEntity
  8
0
100
AcDbLine
 62
7
  6
BYLAYER
 10
182.7286430765
 20
203.8111463211
 11
181.2286430765
 21
203.8111463211
  0
LINE
  5
326
100
AcDbEntity
  8
0
100
AcDbLine
 62
7
  6
BYLAYER
 10
78.579512188
 20
203.8111463211
 11
77.079512188
 21
203.8111463211
  0
LINE
  5
327
100
AcDbEntity
  8
0
100
AcDbLine
 62
7
  6
BYLAYER
 10
35.079512188
 20
203.8111463211
 11
33.579512188
 21
203.8111463211
  0
LINE
  5
328
100
AcDbEntity
  8
0
100
AcDbLine
 62
7
  6
BYLAYER
 10
227.2286430765
 20
204.3111463211
 11
226.7286430765
 21
204.3111463211
  0
LINE
  5
329
100
AcDbEntity
  8
0
100
AcDbLine
 62
7
  6
BYLAYER
 10
224.2286430765
 20
204.3111463211
 11
223.7286430765
 21
204.3111463211
  0
LINE
  5
32A
100
AcDbEntity
  8
0
100
AcDbLine
 62
7
  6
BYLAYER
 10
183.7286430765
 20
204.3111463211
 11
183.2286430765
 21
204.3111463211
  0
LINE
  5
32B
100
AcDbEntity
  8
0
100
AcDbLine
 62
7
  6
BYLAYER
 10
180.7286430765
 20
204.3111463211
 11
180.2286430765
 21
204.3111463211
  0
LINE
  5
32C
100
AcDbEntity
  8
0
100
AcDbLine
 62
7
  6
BYLAYER
 10
79.579512188
 20
204.3111463211
 11
79.079512188
 21
204.3111463211
  0
LINE
  5
32D
100
AcDbEntity
  8
0
100
AcDbLine
 62
7
  6
BYLAYER
 10
76.579512188
 20
204.3111463211
 11
76.079512188
 21
204.3111463211
  0
LINE
  5
32E
100
AcDbEntity
  8
0
100
AcDbLine
 62
7
  6
BYLAYER
 10
36.079512188
 20
204.3111463211
 11
35.579512188
 21
204.3111463211
  0
LINE
  5
32F
100
AcDbEntity
  8
0
100
AcDbLine
 62
7
  6
BYLAYER
 10
33.079512188
 20
204.3111463211
 11
32.579512188
 21
204.3111463211
  0
LINE
  5
330
100
AcDbEntity
  8
0
100
AcDbLine
 62
7
  6
BYLAYER
 10
32.079512188
 20
206.8111463173
 11
33.079512188
 21
206.8111463211
  0
LINE
  5
331
100
AcDbEntity
  8
0
100
AcDbLine
 62
7
  6
BYLAYER
 10
79.079512188
 20
206.8111463195
 11
80.079512188
 21
206.8111463173
  0
LINE
  5
332
100
AcDbEntity
  8
0
100
AcDbLine
 62
7
  6
BYLAYER
 10
179.7286430765
 20
206.8111463167
 11
180.7286430765
 21
206.8111463211
  0
LINE
  5
333
100
AcDbEntity
  8
0
100
AcDbLine
 62
7
  6
BYLAYER
 10
226.7286430765
 20
206.8111463193
 11
227.7286430765
 21
206.8111463167
  0
LINE
  5
334
100
AcDbEntity
  8
0
100
AcDbLine
 62
7
  6
BYLAYER
 10
180.2286430777
 20
207.8111463211
 11
179.2270116329
 21
207.8111436595
  0
LINE
  5
335
100
AcDbEntity
  8
0
100
AcDbLine
 62
7
  6
BYLAYER
 10
32.5795121891
 20
207.8111463211
 11
31.5778922099
 21
207.8111436968
  0
LINE
  5
336
100
AcDbEntity
  8
0
100
AcDbLine
 62
7
  6
BYLAYER
 10
80.5817635548
 20
207.8111412524
 11
79.57951219
 21
207.8111463211
  0
LINE
  5
337
100
AcDbEntity
  8
0
100
AcDbLine
 62
7
  6
BYLAYER
 10
228.2309013351
 20
207.8111412214
 11
227.228643078
 21
207.8111463211
  0
LINE
  5
338
100
AcDbEntity
  8
0
100
AcDbLine
 62
7
  6
BYLAYER
 10
31.5067735923
 20
233.6456650449
 11
31.4642727116
 21
233.6578081537
  0
LINE
  5
339
100
AcDbEntity
  8
0
100
AcDbLine
 62
7
  6
BYLAYER
 10
32.5873451905
 20
233.9485068851
 11
31.6258212428
 21
234.223228013
  0
LINE
  5
33A
100
AcDbEntity
  8
0
100
AcDbLine
 62
7
  6
BYLAYER
 10
32.6650671182
 20
237.8605885769
 11
33.6265910659
 21
237.585867449
  0
LINE
  5
33B
100
AcDbEntity
  8
0
100
AcDbLine
 62
7
  6
BYLAYER
 10
75.5267257835
 20
238.2055735121
 11
76.4211529745
 21
237.7583599166
  0
LINE
  5
33C
100
AcDbEntity
  8
0
100
AcDbLine
 62
7
  6
BYLAYER
 10
180.3141980067
 20
237.8605885769
 11
179.1134036001
 21
233.6578081537
  0
LINE
  5
33D
100
AcDbEntity
  8
0
100
AcDbLine
 62
7
  6
BYLAYER
 10
181.2757219544
 20
237.585867449
 11
180.236476079
 21
233.9485068851
  0
LWPOLYLINE
  5
33E
100
AcDbEntity
  8
0
100
AcDbPolyline
 62
7
  6
BYLAYER
 90
4
 70
0
 10
178.7939201334
 20
207.5581604153
 10
178.763883667
 20
207.4961100118
 10
178.7308352386
 20
207.3583998026
 10
178.7286863747
 20
207.3177263134
  0
LWPOLYLINE
  5
33F
100
AcDbEntity
  8
0
100
AcDbPolyline
 62
7
  6
BYLAYER
 90
4
 70
0
 10
31.5778922099
 20
207.8111436968
 10
31.5416279881
 20
207.8097388657
 10
31.3999023083
 20
207.7780169656
 10
31.3348742791
 20
207.7472108731
  0
LWPOLYLINE
  5
340
100
AcDbEntity
  8
0
100
AcDbPolyline
 62
7
  6
BYLAYER
 90
4
 70
0
 10
228.2301879778
 20
215.8111487079
 10
228.2665273106
 20
215.8125537773
 10
228.4082529834
 20
215.8442756868
 10
228.4732809921
 20
215.8750817728
  0
LWPOLYLINE
  5
341
100
AcDbEntity
  8
0
100
AcDbPolyline
 62
7
  6
BYLAYER
 90
4
 70
0
 10
80.5810570848
 20
215.8111487078
 10
80.6173964221
 20
215.8125537773
 10
80.759122095
 20
215.8442756869
 10
80.8241501043
 20
215.8750817732
  0
LINE
  5
342
100
AcDbEntity
  8
0
100
AcDbLine
 62
7
  6
BYLAYER
 10
79.5795121864
 20
215.8111463211
 11
80.5810570848
 21
215.8111487078
  0
LINE
  5
343
100
AcDbEntity
  8
0
100
AcDbLine
 62
7
  6
BYLAYER
 10
227.228643074
 20
215.8111463211
 11
228.2301879778
 21
215.8111487079
  0
LINE
  5
344
100
AcDbEntity
  8
0
100
AcDbLine
 62
7
  6
BYLAYER
 10
227.7286430765
 20
216.8111463211
 11
226.7286430765
 21
216.8111463211
  0
LINE
  5
345
100
AcDbEntity
  8
0
100
AcDbLine
 62
7
  6
BYLAYER
 10
180.7286430765
 20
216.8111463211
 11
179.7286430765
 21
216.8111463211
  0
LINE
  5
346
100
AcDbEntity
  8
0
100
AcDbLine
 62
7
  6
BYLAYER
 10
80.079512188
 20
216.8111463211
 11
79.079512188
 21
216.8111463211
  0
LINE
  5
347
100
AcDbEntity
  8
0
100
AcDbLine
 62
7
  6
BYLAYER
 10
33.079512188
 20
216.8111463211
 11
32.079512188
 21
216.8111463211
  0
LINE
  5
348
100
AcDbEntity
  8
0
100
AcDbLine
 62
7
  6
BYLAYER
 10
31.5773051129
 20
215.8111511923
 11
32.5795121872
 21
215.8111463211
  0
LINE
  5
349
100
AcDbEntity
  8
0
100
AcDbLine
 62
7
  6
BYLAYER
 10
179.2264361835
 20
215.8111511915
 11
180.2286430765
 21
215.8111463211
  0
LWPOLYLINE
  5
34A
100
AcDbEntity
  8
0
100
AcDbPolyline
 62
7
  6
BYLAYER
 90
4
 70
0
 10
207.9816290792
 20
184.376423323
 10
208.0436216003
 20
184.3464101384
 10
208.1813138842
 20
184.3133454958
 10
208.2220489738
 20
184.3111898052
  0
LINE
  5
34B
100
AcDbEntity
  8
0
100
AcDbLine
 62
7
  6
BYLAYER
 10
32.579512188
 20
219.3111463211
 11
33.079512188
 21
219.3111463211
  0
LINE
  5
34C
100
AcDbEntity
  8
0
100
AcDbLine
 62
7
  6
BYLAYER
 10
35.579512188
 20
219.3111463211
 11
36.079512188
 21
219.3111463211
  0
LINE
  5
34D
100
AcDbEntity
  8
0
100
AcDbLine
 62
7
  6
BYLAYER
 10
76.079512188
 20
219.3111463211
 11
76.579512188
 21
219.3111463211
  0
LINE
  5
34E
100
AcDbEntity
  8
0
100
AcDbLine
 62
7
  6
BYLAYER
 10
79.079512188
 20
219.3111463211
 11
79.579512188
 21
219.3111463211
  0
LINE
  5
34F
100
AcDbEntity
  8
0
100
AcDbLine
 62
7
  6
BYLAYER
 10
180.2286430765
 20
219.3111463211
 11
180.7286430765
 21
219.3111463211
  0
LINE
  5
350
100
AcDbEntity
  8
0
100
AcDbLine
 62
7
  6
BYLAYER
 10
183.2286430765
 20
219.3111463211
 11
183.7286430765
 21
219.3111463211
  0
LINE
  5
351
100
AcDbEntity
  8
0
100
AcDbLine
 62
7
  6
BYLAYER
 10
223.7286430765
 20
219.3111463211
 11
224.2286430765
 21
219.3111463211
  0
LINE
  5
352
100
AcDbEntity
  8
0
100
AcDbLine
 62
7
  6
BYLAYER
 10
226.7286430765
 20
219.3111463211
 11
227.2286430765
 21
219.3111463211
  0
LINE
  5
353
100
AcDbEntity
  8
0
100
AcDbLine
 62
7
  6
BYLAYER
 10
33.579512188
 20
219.8111463211
 11
35.079512188
 21
219.8111463211
  0
LINE
  5
354
100
AcDbEntity
  8
0
100
AcDbLine
 62
7
  6
BYLAYER
 10
77.079512188
 20
219.8111463211
 11
78.579512188
 21
219.8111463211
  0
LINE
  5
355
100
AcDbEntity
  8
0
100
AcDbLine
 62
7
  6
BYLAYER
 10
181.2286430765
 20
219.8111463211
 11
182.7286430765
 21
219.8111463211
  0
LINE
  5
356
100
AcDbEntity
  8
0
100
AcDbLine
 62
7
  6
BYLAYER
 10
224.7286430765
 20
219.8111463211
 11
226.2286430765
 21
219.8111463211
  0
LINE
  5
357
100
AcDbEntity
  8
0
100
AcDbLine
 62
7
  6
BYLAYER
 10
226.2286430765
 20
220.3111463211
 11
224.7286430765
 21
220.3111463211
  0
LINE
  5
358
100
AcDbEntity
  8
0
100
AcDbLine
 62
7
  6
BYLAYER
 10
182.7286430765
 20
220.3111463211
 11
181.2286430765
 21
220.3111463211
  0
LINE
  5
359
100
AcDbEntity
  8
0
100
AcDbLine
 62
7
  6
BYLAYER
 10
78.579512188
 20
220.3111463211
 11
77.079512188
 21
220.3111463211
  0
LINE
  5
35A
100
AcDbEntity
  8
0
100
AcDbLine
 62
7
  6
BYLAYER
 10
35.079512188
 20
220.3111463211
 11
33.579512188
 21
220.3111463211
  0
LINE
  5
35B
100
AcDbEntity
  8
0
100
AcDbLine
 62
7
  6
BYLAYER
 10
31.079512188
 20
224.3111463211
 11
34.579512188
 21
224.3111463211
  0
LINE
  5
35C
100
AcDbEntity
  8
0
100
AcDbLine
 62
7
  6
BYLAYER
 10
77.579512188
 20
224.3111463211
 11
81.079512188
 21
224.3111463211
  0
LINE
  5
35D
100
AcDbEntity
  8
0
100
AcDbLine
 62
7
  6
BYLAYER
 10
178.7286430765
 20
224.3111463211
 11
182.2286430765
 21
224.3111463211
  0
LINE
  5
35E
100
AcDbEntity
  8
0
100
AcDbLine
 62
7
  6
BYLAYER
 10
225.2286430765
 20
224.3111463211
 11
228.7286430765
 21
224.3111463211
  0
LINE
  5
35F
100
AcDbEntity
  8
0
100
AcDbLine
 62
7
  6
BYLAYER
 10
227.7286430765
 20
225.3111463211
 11
225.2286430765
 21
225.3111463211
  0
LINE
  5
360
100
AcDbEntity
  8
0
100
AcDbLine
 62
7
  6
BYLAYER
 10
182.2286430765
 20
225.3111463211
 11
179.7286430765
 21
225.3111463211
  0
LINE
  5
361
100
AcDbEntity
  8
0
100
AcDbLine
 62
7
  6
BYLAYER
 10
80.079512188
 20
225.3111463211
 11
77.579512188
 21
225.3111463211
  0
LINE
  5
362
100
AcDbEntity
  8
0
100
AcDbLine
 62
7
  6
BYLAYER
 10
34.579512188
 20
225.3111463211
 11
32.079512188
 21
225.3111463211
  0
LINE
  5
363
100
AcDbEntity
  8
0
100
AcDbLine
 62
7
  6
BYLAYER
 10
228.7286430765
 20
225.8111463886
 11
226.5486276542
 21
225.8111463211
  0
LINE
  5
364
100
AcDbEntity
  8
0
100
AcDbLine
 62
7
  6
BYLAYER
 10
180.8832674485
 20
225.8111463211
 11
178.7286430765
 21
225.811146394
  0
LINE
  5
365
100
AcDbEntity
  8
0
100
AcDbLine
 62
7
  6
BYLAYER
 10
81.079512188
 20
225.8111463886
 11
78.8994967657
 21
225.8111463211
  0
LINE
  5
366
100
AcDbEntity
  8
0
100
AcDbLine
 62
7
  6
BYLAYER
 10
33.23413656
 20
225.8111463211
 11
31.079512188
 21
225.811146394
  0
LWPOLYLINE
  5
367
100
AcDbEntity
  8
0
100
AcDbPolyline
 62
7
  6
BYLAYER
 90
4
 70
0
 10
178.7286432284
 20
216.3115360707
 10
178.7296814667
 20
216.2785831553
 10
178.7383249116
 20
216.2120056276
 10
178.7937115433
 20
216.0644996884
  0
LINE
  5
368
100
AcDbEntity
  8
0
100
AcDbLine
 62
7
  6
BYLAYER
 10
178.7286430765
 20
207.3111463211
 11
178.7286430765
 21
188.3111463211
  0
LINE
  5
369
100
AcDbEntity
  8
0
100
AcDbLine
 62
7
  6
BYLAYER
 10
178.7286430765
 20
216.3111463211
 11
178.7286430765
 21
230.9105968747
  0
LINE
  5
36A
100
AcDbEntity
  8
3
100
AcDbLine
 62
7
  6
BYLAYER
 10
178.7291181196
 20
224.3111463211
 11
178.7291181196
 21
225.8111463211
  0
LINE
  5
36B
100
AcDbEntity
  8
0
100
AcDbLine
 62
7
  6
BYLAYER
 10
179.2286430765
 20
188.3111463211
 11
179.2286430765
 21
191.8111463211
  0
LINE
  5
36C
100
AcDbEntity
  8
0
100
AcDbLine
 62
7
  6
BYLAYER
 10
179.2286430765
 20
225.8111463211
 11
179.2286430765
 21
227.4796024363
  0
LINE
  5
36D
100
AcDbEntity
  8
0
100
AcDbLine
 62
7
  6
BYLAYER
 10
179.2286430765
 20
230.1718959619
 11
179.2286430765
 21
230.9105968747
  0
LINE
  5
36E
100
AcDbEntity
  8
0
100
AcDbLine
 62
7
  6
BYLAYER
 10
179.7286430765
 20
192.3111463211
 11
179.7286430765
 21
206.8111463167
  0
LINE
  5
36F
100
AcDbEntity
  8
0
100
AcDbLine
 62
7
  6
BYLAYER
 10
179.7286430765
 20
216.8111463211
 11
179.7286430765
 21
225.3111463211
  0
LINE
  5
370
100
AcDbEntity
  8
0
100
AcDbLine
 62
7
  6
BYLAYER
 10
180.2286430765
 20
219.3111463211
 11
180.2286430765
 21
215.8111463211
  0
LINE
  5
371
100
AcDbEntity
  8
0
100
AcDbLine
 62
7
  6
BYLAYER
 10
180.2286430765
 20
207.8111463167
 11
180.2286430765
 21
204.3111463211
  0
LINE
  5
372
100
AcDbEntity
  8
0
100
AcDbLine
 62
7
  6
BYLAYER
 10
180.7172380528
 20
231.8111463211
 11
180.7172380528
 21
233.3111463211
  0
LINE
  5
373
100
AcDbEntity
  8
0
100
AcDbLine
 62
7
  6
BYLAYER
 10
180.7286430765
 20
204.3111463211
 11
180.7286430765
 21
207.3111463211
  0
LINE
  5
374
100
AcDbEntity
  8
0
100
AcDbLine
 62
7
  6
BYLAYER
 10
180.7286430765
 20
216.3111463211
 11
180.7286430765
 21
219.3111463211
  0
LINE
  5
375
100
AcDbEntity
  8
0
100
AcDbLine
 62
7
  6
BYLAYER
 10
180.7291181195
 20
228.4116451103
 11
180.7291181195
 21
229.2116451103
  0
LINE
  5
376
100
AcDbEntity
  8
0
100
AcDbLine
 62
7
  6
BYLAYER
 10
181.2286430765
 20
203.3111463211
 11
181.2286430765
 21
203.8111463211
  0
LINE
  5
377
100
AcDbEntity
  8
0
100
AcDbLine
 62
7
  6
BYLAYER
 10
181.2286430765
 20
219.8111463211
 11
181.2286430765
 21
220.3111463211
  0
LINE
  5
378
100
AcDbEntity
  8
0
100
AcDbLine
 62
7
  6
BYLAYER
 10
181.7286430794
 20
188.4116332372
 11
181.7286430794
 21
189.2116332372
  0
LINE
  5
379
100
AcDbEntity
  8
0
100
AcDbLine
 62
7
  6
BYLAYER
 10
181.8291181195
 20
227.3116451103
 11
181.8291181195
 21
228.4116451103
  0
LINE
  5
37A
100
AcDbEntity
  8
0
100
AcDbLine
 62
7
  6
BYLAYER
 10
181.8291181195
 20
229.2116451103
 11
181.8291181195
 21
230.3116451103
  0
LINE
  5
37B
100
AcDbEntity
  8
0
100
AcDbLine
 62
7
  6
BYLAYER
 10
182.2286430765
 20
233.3111463211
 11
182.2286430765
 21
232.1029262981
  0
LINE
  5
37C
100
AcDbEntity
  8
0
100
AcDbLine
 62
7
  6
BYLAYER
 10
182.2286430765
 20
225.5201902122
 11
182.2286430765
 21
224.3111463211
  0
LINE
  5
37D
100
AcDbEntity
  8
0
100
AcDbLine
 62
7
  6
BYLAYER
 10
182.237245902
 20
238.3111463211
 11
182.237245902
 21
239.3111463211
  0
LINE
  5
37E
100
AcDbEntity
  8
0
100
AcDbLine
 62
7
  6
BYLAYER
 10
182.492575099
 20
239.3111463211
 11
182.492575099
 21
238.3111463211
  0
LINE
  5
37F
100
AcDbEntity
  8
0
100
AcDbLine
 62
7
  6
BYLAYER
 10
182.6291181195
 20
230.3116451103
 11
182.6291181195
 21
229.2116451103
  0
LINE
  5
380
100
AcDbEntity
  8
0
100
AcDbLine
 62
7
  6
BYLAYER
 10
182.6291181195
 20
228.4116451103
 11
182.6291181195
 21
227.3116451103
  0
LINE
  5
381
100
AcDbEntity
  8
0
100
AcDbLine
 62
7
  6
BYLAYER
 10
178.7286863747
 20
207.3177263134
 11
178.7286430765
 21
207.3111463211
  0
LINE
  5
382
100
AcDbEntity
  8
0
100
AcDbLine
 62
7
  6
BYLAYER
 10
228.4732809921
 20
215.8750817728
 11
228.6633660205
 21
216.0641322285
  0
LINE
  5
383
100
AcDbEntity
  8
0
100
AcDbLine
 62
7
  6
BYLAYER
 10
199.4752898568
 20
184.3762148716
 11
199.6620781549
 21
184.56187933
  0
LINE
  5
384
100
AcDbEntity
  8
0
100
AcDbLine
 62
7
  6
BYLAYER
 10
184.7286430765
 20
237.1931123324
 11
183.7286430765
 21
237.075078344
  0
LINE
  5
385
100
AcDbEntity
  8
0
100
AcDbLine
 62
7
  6
BYLAYER
 10
184.7286430741
 20
237.1930630477
 11
183.7286430765
 21
237.075078344
  0
LINE
  5
386
100
AcDbEntity
  8
0
100
AcDbLine
 62
7
  6
BYLAYER
 10
225.6291181165
 20
227.3111344423
 11
224.8291181165
 21
227.3111344423
  0
LINE
  5
387
100
AcDbEntity
  8
0
100
AcDbLine
 62
7
  6
BYLAYER
 10
77.979987228
 20
227.3111344423
 11
77.179987228
 21
227.3111344423
  0
LINE
  5
388
100
AcDbEntity
  8
0
100
AcDbLine
 62
7
  6
BYLAYER
 10
182.6291181195
 20
227.3116451103
 11
181.8291181195
 21
227.3116451103
  0
LINE
  5
389
100
AcDbEntity
  8
0
100
AcDbLine
 62
7
  6
BYLAYER
 10
34.979987231
 20
227.3116451103
 11
34.179987231
 21
227.3116451103
  0
LINE
  5
38A
100
AcDbEntity
  8
0
100
AcDbLine
 62
7
  6
BYLAYER
 10
226.7291181165
 20
228.4111344423
 11
225.6291181165
 21
228.4111344423
  0
LINE
  5
38B
100
AcDbEntity
  8
0
100
AcDbLine
 62
7
  6
BYLAYER
 10
224.8291181165
 20
228.4111344423
 11
223.7291181165
 21
228.4111344423
  0
LINE
  5
38C
100
AcDbEntity
  8
0
100
AcDbLine
 62
7
  6
BYLAYER
 10
79.079987228
 20
228.4111344423
 11
77.979987228
 21
228.4111344423
  0
LINE
  5
38D
100
AcDbEntity
  8
0
100
AcDbLine
 62
7
  6
BYLAYER
 10
77.179987228
 20
228.4111344423
 11
76.079987228
 21
228.4111344423
  0
LINE
  5
38E
100
AcDbEntity
  8
0
100
AcDbLine
 62
7
  6
BYLAYER
 10
183.7291181195
 20
228.4116451103
 11
182.6291181195
 21
228.4116451103
  0
LINE
  5
38F
100
AcDbEntity
  8
0
100
AcDbLine
 62
7
  6
BYLAYER
 10
181.8291181195
 20
228.4116451103
 11
180.7291181195
 21
228.4116451103
  0
LINE
  5
390
100
AcDbEntity
  8
0
100
AcDbLine
 62
7
  6
BYLAYER
 10
36.079987231
 20
228.4116451103
 11
34.979987231
 21
228.4116451103
  0
LINE
  5
391
100
AcDbEntity
  8
0
100
AcDbLine
 62
7
  6
BYLAYER
 10
34.179987231
 20
228.4116451103
 11
33.079987231
 21
228.4116451103
  0
LINE
  5
392
100
AcDbEntity
  8
0
100
AcDbLine
 62
7
  6
BYLAYER
 10
76.079987228
 20
229.2111344423
 11
77.179987228
 21
229.2111344423
  0
LINE
  5
393
100
AcDbEntity
  8
0
100
AcDbLine
 62
7
  6
BYLAYER
 10
77.979987228
 20
229.2111344423
 11
79.079987228
 21
229.2111344423
  0
LINE
  5
394
100
AcDbEntity
  8
0
100
AcDbLine
 62
7
  6
BYLAYER
 10
223.7291181165
 20
229.2111344423
 11
224.8291181165
 21
229.2111344423
  0
LINE
  5
395
100
AcDbEntity
  8
0
100
AcDbLine
 62
7
  6
BYLAYER
 10
225.6291181165
 20
229.2111344423
 11
226.7291181165
 21
229.2111344423
  0
LINE
  5
396
100
AcDbEntity
  8
0
100
AcDbLine
 62
7
  6
BYLAYER
 10
33.079987231
 20
229.2116451103
 11
34.179987231
 21
229.2116451103
  0
LINE
  5
397
100
AcDbEntity
  8
0
100
AcDbLine
 62
7
  6
BYLAYER
 10
34.979987231
 20
229.2116451103
 11
36.079987231
 21
229.2116451103
  0
LINE
  5
398
100
AcDbEntity
  8
0
100
AcDbLine
 62
7
  6
BYLAYER
 10
180.7291181195
 20
229.2116451103
 11
181.8291181195
 21
229.2116451103
  0
LINE
  5
399
100
AcDbEntity
  8
0
100
AcDbLine
 62
7
  6
BYLAYER
 10
182.6291181195
 20
229.2116451103
 11
183.7291181195
 21
229.2116451103
  0
LINE
  5
39A
100
AcDbEntity
  8
0
100
AcDbLine
 62
7
  6
BYLAYER
 10
77.179987228
 20
230.3111344423
 11
77.979987228
 21
230.3111344423
  0
LINE
  5
39B
100
AcDbEntity
  8
0
100
AcDbLine
 62
7
  6
BYLAYER
 10
224.8291181165
 20
230.3111344423
 11
225.6291181165
 21
230.3111344423
  0
LINE
  5
39C
100
AcDbEntity
  8
0
100
AcDbLine
 62
7
  6
BYLAYER
 10
34.179987231
 20
230.3116451103
 11
34.979987231
 21
230.3116451103
  0
LINE
  5
39D
100
AcDbEntity
  8
0
100
AcDbLine
 62
7
  6
BYLAYER
 10
181.8291181195
 20
230.3116451103
 11
182.6291181195
 21
230.3116451103
  0
LINE
  5
39E
100
AcDbEntity
  8
0
100
AcDbLine
 62
7
  6
BYLAYER
 10
31.079512188
 20
230.9105968747
 11
31.579512188
 21
230.9105968747
  0
LINE
  5
39F
100
AcDbEntity
  8
0
100
AcDbLine
 62
7
  6
BYLAYER
 10
80.579512188
 20
230.9105968747
 11
81.079512188
 21
230.9105968747
  0
LINE
  5
3A0
100
AcDbEntity
  8
0
100
AcDbLine
 62
7
  6
BYLAYER
 10
178.7286430765
 20
230.9105968747
 11
179.2286430765
 21
230.9105968747
  0
LINE
  5
3A1
100
AcDbEntity
  8
0
100
AcDbLine
 62
7
  6
BYLAYER
 10
228.2286430765
 20
230.9105968747
 11
228.7286430765
 21
230.9105968747
  0
LINE
  5
3A2
100
AcDbEntity
  8
0
100
AcDbLine
 62
7
  6
BYLAYER
 10
33.0681071643
 20
231.8111463211
 11
33.2597181982
 21
231.8111463211
  0
LINE
  5
3A3
100
AcDbEntity
  8
0
100
AcDbLine
 62
7
  6
BYLAYER
 10
78.9265531914
 20
231.8111463211
 11
79.0909172117
 21
231.8111463211
  0
LINE
  5
3A4
100
AcDbEntity
  8
0
100
AcDbLine
 62
7
  6
BYLAYER
 10
180.7172380528
 20
231.8111463211
 11
180.9088490867
 21
231.8111463211
  0
LINE
  5
3A5
100
AcDbEntity
  8
0
100
AcDbLine
 62
7
  6
BYLAYER
 10
226.5756840799
 20
231.8111463211
 11
226.7400481002
 21
231.8111463211
  0
LINE
  5
3A6
100
AcDbEntity
  8
0
100
AcDbLine
 62
7
  6
BYLAYER
 10
33.0681071643
 20
232.3111463211
 11
34.579512188
 21
232.3111463211
  0
LINE
  5
3A7
100
AcDbEntity
  8
0
100
AcDbLine
 62
7
  6
BYLAYER
 10
77.579512188
 20
232.3111463211
 11
79.0909172117
 21
232.3111463211
  0
LINE
  5
3A8
100
AcDbEntity
  8
0
100
AcDbLine
 62
7
  6
BYLAYER
 10
180.7172380528
 20
232.3111463211
 11
182.2286430765
 21
232.3111463211
  0
LINE
  5
3A9
100
AcDbEntity
  8
0
100
AcDbLine
 62
7
  6
BYLAYER
 10
225.2286430765
 20
232.3111463211
 11
226.7400481002
 21
232.3111463211
  0
LINE
  5
3AA
100
AcDbEntity
  8
0
100
AcDbLine
 62
7
  6
BYLAYER
 10
226.7400481002
 20
233.3111463211
 11
225.2286430765
 21
233.3111463211
  0
LINE
  5
3AB
100
AcDbEntity
  8
0
100
AcDbLine
 62
7
  6
BYLAYER
 10
182.2286430765
 20
233.3111463211
 11
180.7166895013
 21
233.3111463211
  0
LINE
  5
3AC
100
AcDbEntity
  8
0
100
AcDbLine
 62
7
  6
BYLAYER
 10
79.0909172117
 20
233.3111463211
 11
77.579512188
 21
233.3111463211
  0
LINE
  5
3AD
100
AcDbEntity
  8
0
100
AcDbLine
 62
7
  6
BYLAYER
 10
34.579512188
 20
233.3111463211
 11
33.0675586128
 21
233.3111463211
  0
LINE
  5
3AE
100
AcDbEntity
  8
0
100
AcDbLine
 62
7
  6
BYLAYER
 10
76.079512188
 20
237.0750783439
 11
75.079512188
 21
237.1931123324
  0
LINE
  5
3AF
100
AcDbEntity
  8
0
100
AcDbLine
 62
7
  6
BYLAYER
 10
76.079512188
 20
237.0750783439
 11
75.0795121913
 21
237.19305466
  0
LWPOLYLINE
  5
3B0
100
AcDbEntity
  8
0
100
AcDbPolyline
 62
7
  6
BYLAYER
 90
4
 70
0
 10
178.9793723944
 20
215.8777133655
 10
179.1246284732
 20
215.8218251006
 10
179.1900534061
 20
215.8126029485
 10
179.2264361835
 20
215.8111511915
  0
LINE
  5
3B1
100
AcDbEntity
  8
0
100
AcDbLine
 62
7
  6
BYLAYER
 10
182.7286430765
 20
220.3111463211
 11
182.7286430765
 21
219.8111463211
  0
LINE
  5
3B2
100
AcDbEntity
  8
0
100
AcDbLine
 62
7
  6
BYLAYER
 10
182.7286430765
 20
203.8111463211
 11
182.7286430765
 21
203.3111463211
  0
LINE
  5
3B3
100
AcDbEntity
  8
0
100
AcDbLine
 62
7
  6
BYLAYER
 10
182.7286430765
 20
184.3111463211
 11
182.7286430765
 21
184.8111463211
  0
LINE
  5
3B4
100
AcDbEntity
  8
0
100
AcDbLine
 62
7
  6
BYLAYER
 10
182.8286430794
 20
187.3116332372
 11
182.8286430794
 21
188.4116332372
  0
LINE
  5
3B5
100
AcDbEntity
  8
0
100
AcDbLine
 62
7
  6
BYLAYER
 10
182.8286430794
 20
189.2116332372
 11
182.8286430794
 21
190.3116332372
  0
LINE
  5
3B6
100
AcDbEntity
  8
0
100
AcDbLine
 62
7
  6
BYLAYER
 10
183.2286430765
 20
219.3111463211
 11
183.2286430765
 21
204.3111463211
  0
LINE
  5
3B7
100
AcDbEntity
  8
0
100
AcDbLine
 62
7
  6
BYLAYER
 10
183.2286430765
 20
193.3111463211
 11
183.2286430765
 21
192.1030012795
  0
LINE
  5
3B8
100
AcDbEntity
  8
0
100
AcDbLine
 62
7
  6
BYLAYER
 10
183.6286430794
 20
190.3116332372
 11
183.6286430794
 21
189.2116332372
  0
LINE
  5
3B9
100
AcDbEntity
  8
0
100
AcDbLine
 62
7
  6
BYLAYER
 10
183.6286430794
 20
188.4116332372
 11
183.6286430794
 21
187.3116332372
  0
LINE
  5
3BA
100
AcDbEntity
  8
0
100
AcDbLine
 62
7
  6
BYLAYER
 10
183.7286430765
 20
237.075041447
 11
183.7286430765
 21
235.9611463211
  0
LINE
  5
3BB
100
AcDbEntity
  8
0
100
AcDbLine
 62
7
  6
BYLAYER
 10
183.7286430765
 20
204.3111463211
 11
183.7286430765
 21
219.3111463211
  0
LINE
  5
3BC
100
AcDbEntity
  8
0
100
AcDbLine
 62
7
  6
BYLAYER
 10
183.7291181195
 20
229.2116451103
 11
183.7291181195
 21
228.4116451103
  0
LINE
  5
3BD
100
AcDbEntity
  8
0
100
AcDbLine
 62
7
  6
BYLAYER
 10
184.7286430794
 20
189.2116332372
 11
184.7286430794
 21
188.4116332372
  0
LINE
  5
3BE
100
AcDbEntity
  8
0
100
AcDbLine
 62
7
  6
BYLAYER
 10
184.7286430765
 20
236.9611463211
 11
184.7286430765
 21
237.1931123324
  0
LINE
  5
3BF
100
AcDbEntity
  8
0
100
AcDbLine
 62
7
  6
BYLAYER
 10
186.2286430765
 20
187.4507047973
 11
186.2286430037
 21
184.3111463211
  0
LINE
  5
3C0
100
AcDbEntity
  8
0
100
AcDbLine
 62
7
  6
BYLAYER
 10
186.7286430765
 20
188.8111463211
 11
186.7286430765
 21
185.3111463211
  0
LINE
  5
3C1
100
AcDbEntity
  8
0
100
AcDbLine
 62
7
  6
BYLAYER
 10
187.7286430765
 20
184.3111463211
 11
187.7286430765
 21
188.8111463211
  0
LINE
  5
3C2
100
AcDbEntity
  8
4
100
AcDbLine
 62
7
  6
BYLAYER
 10
188.917863803
 20
184.0697262433
 11
188.917863803
 21
181.0697262433
  0
LINE
  5
3C3
100
AcDbEntity
  8
0
100
AcDbLine
 62
7
  6
BYLAYER
 10
36.079512188
 20
235.9611463211
 11
76.079512188
 21
235.9611463211
  0
LINE
  5
3C4
100
AcDbEntity
  8
0
100
AcDbLine
 62
7
  6
BYLAYER
 10
183.7286430765
 20
235.9611463211
 11
223.7286430765
 21
235.9611463211
  0
LINE
  5
3C5
100
AcDbEntity
  8
0
100
AcDbLine
 62
7
  6
BYLAYER
 10
222.7286430765
 20
236.9611463211
 11
184.7286430765
 21
236.9611463211
  0
LINE
  5
3C6
100
AcDbEntity
  8
0
100
AcDbLine
 62
7
  6
BYLAYER
 10
75.079512188
 20
236.9611463211
 11
37.079512188
 21
236.9611463211
  0
LINE
  5
3C7
100
AcDbEntity
  8
0
100
AcDbLine
 62
7
  6
BYLAYER
 10
34.5881150135
 20
238.3111463211
 11
34.8434442105
 21
238.3111463211
  0
LINE
  5
3C8
100
AcDbEntity
  8
0
100
AcDbLine
 62
7
  6
BYLAYER
 10
77.3155801655
 20
238.3111463211
 11
77.5709093625
 21
238.3111463211
  0
LINE
  5
3C9
100
AcDbEntity
  8
0
100
AcDbLine
 62
7
  6
BYLAYER
 10
182.237245902
 20
238.3111463211
 11
182.492575099
 21
238.3111463211
  0
LINE
  5
3CA
100
AcDbEntity
  8
0
100
AcDbLine
 62
7
  6
BYLAYER
 10
224.964711054
 20
238.3111463211
 11
225.220040251
 21
238.3111463211
  0
LINE
  5
3CB
100
AcDbEntity
  8
0
100
AcDbLine
 62
7
  6
BYLAYER
 10
225.220040251
 20
239.3111463211
 11
224.964711054
 21
239.3111463211
  0
LINE
  5
3CC
100
AcDbEntity
  8
0
100
AcDbLine
 62
7
  6
BYLAYER
 10
182.492575099
 20
239.3111463211
 11
182.237245902
 21
239.3111463211
  0
LINE
  5
3CD
100
AcDbEntity
  8
0
100
AcDbLine
 62
7
  6
BYLAYER
 10
77.5709093625
 20
239.3111463211
 11
77.3155801655
 21
239.3111463211
  0
LINE
  5
3CE
100
AcDbEntity
  8
0
100
AcDbLine
 62
7
  6
BYLAYER
 10
34.8434442105
 20
239.3111463211
 11
34.5881150135
 21
239.3111463211
  0
LWPOLYLINE
  5
3CF
100
AcDbEntity
  8
0
100
AcDbPolyline
 62
7
  6
BYLAYER
 90
4
 70
0
 10
228.4779137627
 20
207.7445792744
 10
228.3326576118
 20
207.8004675545
 10
228.2672326911
 20
207.8096896959
 10
228.2309013351
 20
207.8111412214
  0
LINE
  5
3D0
100
AcDbEntity
  8
0
100
AcDbLine
 62
7
  6
BYLAYER
 10
207.792586613
 20
184.5664939951
 11
207.9816290792
 21
184.376423323
  0
LINE
  5
3D1
100
AcDbEntity
  8
0
100
AcDbLine
 62
7
  6
BYLAYER
 10
178.7937115433
 20
216.0644996884
 11
178.9793723944
 21
215.8777133655
  0
LINE
  5
3D2
100
AcDbEntity
  8
4
100
AcDbLine
 62
7
  6
BYLAYER
 10
193.917863803
 20
181.0697262433
 11
193.917863803
 21
184.0697262433
  0
LINE
  5
3D3
100
AcDbEntity
  8
0
100
AcDbLine
 62
7
  6
BYLAYER
 10
195.2286430765
 20
188.3111463211
 11
195.2286430765
 21
186.8111463211
  0
LINE
  5
3D4
100
AcDbEntity
  8
0
100
AcDbLine
 62
7
  6
BYLAYER
 10
195.7286430765
 20
186.8111463211
 11
195.7286430765
 21
188.3111463211
  0
LINE
  5
3D5
100
AcDbEntity
  8
0
100
AcDbLine
 62
7
  6
BYLAYER
 10
196.2286430765
 20
185.8111463211
 11
196.2286430765
 21
186.3111463211
  0
LINE
  5
3D6
100
AcDbEntity
  8
4
100
AcDbLine
 62
7
  6
BYLAYER
 10
196.228643078
 20
186.359071218
 11
196.228643078
 21
188.359071218
  0
LINE
  5
3D7
100
AcDbEntity
  8
0
100
AcDbLine
 62
7
  6
BYLAYER
 10
196.2286430765
 20
188.8111463211
 11
196.2286430765
 21
189.3111463211
  0
LINE
  5
3D8
100
AcDbEntity
  8
4
100
AcDbLine
 62
7
  6
BYLAYER
 10
197.376143078
 20
179.7330115594
 11
197.376143078
 21
180.9776108212
  0
LWPOLYLINE
  5
3D9
100
AcDbEntity
  8
0
100
AcDbPolyline
 62
7
  6
BYLAYER
 90
4
 70
0
 10
199.6620781549
 20
184.56187933
 10
199.7179010991
 20
184.7068305318
 10
199.7272002653
 20
184.7727407534
 10
199.7286397879
 20
184.8093328591
  0
LINE
  5
3DA
100
AcDbEntity
  8
0
100
AcDbLine
 62
7
  6
BYLAYER
 10
223.175856672
 20
238.2055735121
 11
222.781429481
 21
237.4167191301
  0
LINE
  5
3DB
100
AcDbEntity
  8
0
100
AcDbLine
 62
7
  6
BYLAYER
 10
224.070283863
 20
237.7583599166
 11
223.7286430765
 21
237.0750419032
  0
LINE
  5
3DC
100
AcDbEntity
  8
0
100
AcDbLine
 62
7
  6
BYLAYER
 10
37.0795121856
 20
237.1930630477
 11
36.079512188
 21
237.0750783441
  0
LINE
  5
3DD
100
AcDbEntity
  8
0
100
AcDbLine
 62
7
  6
BYLAYER
 10
37.079512188
 20
237.1931123324
 11
36.079512188
 21
237.0750783441
  0
LINE
  5
3DE
100
AcDbEntity
  8
0
100
AcDbLine
 62
7
  6
BYLAYER
 10
223.7286430765
 20
237.0750783441
 11
222.7286430798
 21
237.1930546603
  0
LINE
  5
3DF
100
AcDbEntity
  8
0
100
AcDbLine
 62
7
  6
BYLAYER
 10
223.7286430765
 20
237.0750783441
 11
222.7286430765
 21
237.1931123324
  0
LINE
  5
3E0
100
AcDbEntity
  8
0
100
AcDbLine
 62
7
  6
BYLAYER
 10
179.1559044808
 20
233.6456650449
 11
179.1134036001
 21
233.6578081537
  0
LINE
  5
3E1
100
AcDbEntity
  8
0
100
AcDbLine
 62
7
  6
BYLAYER
 10
180.236476079
 20
233.9485068851
 11
179.2749521313
 21
234.2232280129
  0
LINE
  5
3E2
100
AcDbEntity
  8
0
100
AcDbLine
 62
7
  6
BYLAYER
 10
180.3141980067
 20
237.8605885769
 11
181.2757219544
 21
237.5858674491
  0
LINE
  5
3E3
100
AcDbEntity
  8
4
100
AcDbLine
 62
7
  6
BYLAYER
 10
198.328643078
 20
179.6295266255
 11
198.328643078
 21
176.6295266255
  0
LINE
  5
3E4
100
AcDbEntity
  8
0
100
AcDbLine
 62
7
  6
BYLAYER
 10
198.7286430765
 20
186.3111463211
 11
198.7286430765
 21
185.3111463211
  0
LINE
  5
3E5
100
AcDbEntity
  8
4
100
AcDbLine
 62
7
  6
BYLAYER
 10
200.728643078
 20
186.359071218
 11
200.728643078
 21
184.0697262433
  0
LINE
  5
3E6
100
AcDbEntity
  8
4
100
AcDbLine
 62
7
  6
BYLAYER
 10
200.728643078
 20
181.0697262433
 11
200.728643078
 21
180.9776108212
  0
LINE
  5
3E7
100
AcDbEntity
  8
4
100
AcDbLine
 62
7
  6
BYLAYER
 10
200.728643078
 20
179.7330115594
 11
200.728643078
 21
179.6295266255
  0
LINE
  5
3E8
100
AcDbEntity
  8
4
100
AcDbLine
 62
7
  6
BYLAYER
 10
200.728643078
 20
176.6295266255
 11
200.728643078
 21
172.359071218
  0
LINE
  5
3E9
100
AcDbEntity
  8
4
100
AcDbLine
 62
7
  6
BYLAYER
 10
201.028643078
 20
179.6295266255
 11
201.028643078
 21
176.6295266255
  0
LINE
  5
3EA
100
AcDbEntity
  8
0
100
AcDbLine
 62
7
  6
BYLAYER
 10
199.7286397879
 20
184.8093328591
 11
199.7286430765
 21
185.8111463211
  0
LINE
  5
3EB
100
AcDbEntity
  8
0
100
AcDbLine
 62
7
  6
BYLAYER
 10
183.7286430765
 20
237.075041447
 11
183.38700229
 21
237.7583599166
  0
LINE
  5
3EC
100
AcDbEntity
  8
0
100
AcDbLine
 62
7
  6
BYLAYER
 10
184.675856672
 20
237.4167191301
 11
184.281429481
 21
238.2055735121
  0
LWPOLYLINE
  5
3ED
100
AcDbEntity
  8
0
100
AcDbPolyline
 62
7
  6
BYLAYER
 90
4
 70
0
 10
207.7286448733
 20
184.8098058989
 10
207.730050367
 20
184.7732643014
 10
207.7618703735
 20
184.6312844712
 10
207.792586613
 20
184.5664939951
  0
LINE
  5
3EE
100
AcDbEntity
  8
4
100
AcDbLine
 62
7
  6
BYLAYER
 10
206.428643078
 20
179.6295266255
 11
206.428643078
 21
176.6295266255
  0
LINE
  5
3EF
100
AcDbEntity
  8
4
100
AcDbLine
 62
7
  6
BYLAYER
 10
206.728643078
 20
172.359071218
 11
206.728643078
 21
176.6295266255
  0
LINE
  5
3F0
100
AcDbEntity
  8
4
100
AcDbLine
 62
7
  6
BYLAYER
 10
206.728643078
 20
179.6295266255
 11
206.728643078
 21
179.7330115594
  0
LINE
  5
3F1
100
AcDbEntity
  8
4
100
AcDbLine
 62
7
  6
BYLAYER
 10
206.728643078
 20
180.9776108212
 11
206.728643078
 21
181.0697262433
  0
LINE
  5
3F2
100
AcDbEntity
  8
4
100
AcDbLine
 62
7
  6
BYLAYER
 10
206.728643078
 20
184.0697262433
 11
206.728643078
 21
186.359071218
  0
LINE
  5
3F3
100
AcDbEntity
  8
0
100
AcDbLine
 62
7
  6
BYLAYER
 10
207.7286430765
 20
185.8111463194
 11
207.7286448733
 21
184.8098058989
  0
LINE
  5
3F4
100
AcDbEntity
  8
0
100
AcDbLine
 62
7
  6
BYLAYER
 10
208.7286430722
 20
185.3111463211
 11
208.7286430765
 21
186.3111463211
  0
LINE
  5
3F5
100
AcDbEntity
  8
4
100
AcDbLine
 62
7
  6
BYLAYER
 10
209.128643078
 20
179.6295266255
 11
209.128643078
 21
176.6295266255
  0
LINE
  5
3F6
100
AcDbEntity
  8
4
100
AcDbLine
 62
7
  6
BYLAYER
 10
210.081143078
 20
179.7330115594
 11
210.081143078
 21
180.9776108212
  0
LINE
  5
3F7
100
AcDbEntity
  8
0
100
AcDbLine
 62
7
  6
BYLAYER
 10
211.2286430765
 20
189.3111463211
 11
211.2286430765
 21
188.8111463211
  0
LINE
  5
3F8
100
AcDbEntity
  8
0
100
AcDbLine
 62
7
  6
BYLAYER
 10
211.2286430765
 20
186.3111463211
 11
211.2286430765
 21
185.8111463211
  0
LINE
  5
3F9
100
AcDbEntity
  8
4
100
AcDbLine
 62
7
  6
BYLAYER
 10
211.228643078
 20
186.359071218
 11
211.228643078
 21
188.359071218
  0
LINE
  5
3FA
100
AcDbEntity
  8
0
100
AcDbLine
 62
7
  6
BYLAYER
 10
211.7286430765
 20
188.3111463211
 11
211.7286430765
 21
186.8111463211
  0
LINE
  5
3FB
100
AcDbEntity
  8
0
100
AcDbLine
 62
7
  6
BYLAYER
 10
212.2286430765
 20
186.8111463211
 11
212.2286430765
 21
188.3111463211
  0
LWPOLYLINE
  5
3FC
100
AcDbEntity
  8
0
100
AcDbPolyline
 62
7
  6
BYLAYER
 90
4
 70
0
 10
228.6633660205
 20
216.0641322285
 10
228.6934024909
 20
216.1261826425
 10
228.7264509162
 20
216.2638928588
 10
228.7285997784
 20
216.3045663297
  0
LINE
  5
3FD
100
AcDbEntity
  8
0
100
AcDbLine
 62
7
  6
BYLAYER
 10
219.7286430765
 20
188.8111463211
 11
219.7286430765
 21
184.3111463211
  0
LINE
  5
3FE
100
AcDbEntity
  8
0
100
AcDbLine
 62
7
  6
BYLAYER
 10
220.7286430765
 20
185.3111463211
 11
220.7286430765
 21
188.8111463211
  0
LINE
  5
3FF
100
AcDbEntity
  8
0
100
AcDbLine
 62
7
  6
BYLAYER
 10
221.228643149
 20
184.3111463211
 11
221.2286430765
 21
187.4783846757
  0
LINE
  5
400
100
AcDbEntity
  8
0
100
AcDbLine
 62
7
  6
BYLAYER
 10
223.175856672
 20
238.2055735121
 11
224.070283863
 21
237.7583599166
  0
LINE
  5
401
100
AcDbEntity
  8
0
100
AcDbLine
 62
7
  6
BYLAYER
 10
228.6635746095
 20
207.5577929543
 11
228.4779137627
 21
207.7445792744
  0
LINE
  5
402
100
AcDbEntity
  8
0
100
AcDbLine
 62
7
  6
BYLAYER
 10
222.7286430765
 20
237.1931123324
 11
222.7286430765
 21
236.9611463211
  0
LINE
  5
403
100
AcDbEntity
  8
0
100
AcDbLine
 62
7
  6
BYLAYER
 10
222.7286430765
 20
188.4111463211
 11
222.7286430765
 21
189.2111463211
  0
LINE
  5
404
100
AcDbEntity
  8
0
100
AcDbLine
 62
7
  6
BYLAYER
 10
223.7286430765
 20
219.3111463211
 11
223.7286430765
 21
204.3111463211
  0
LINE
  5
405
100
AcDbEntity
  8
0
100
AcDbLine
 62
7
  6
BYLAYER
 10
223.7286430765
 20
235.9611463211
 11
223.7286430765
 21
237.0750419032
  0
LINE
  5
406
100
AcDbEntity
  8
0
100
AcDbLine
 62
7
  6
BYLAYER
 10
223.7291181165
 20
228.4111344423
 11
223.7291181165
 21
229.2111344423
  0
LINE
  5
407
100
AcDbEntity
  8
0
100
AcDbLine
 62
7
  6
BYLAYER
 10
223.8286430765
 20
187.3111463211
 11
223.8286430765
 21
188.4111463211
  0
LINE
  5
408
100
AcDbEntity
  8
0
100
AcDbLine
 62
7
  6
BYLAYER
 10
223.8286430765
 20
189.2111463211
 11
223.8286430765
 21
190.3111463211
  0
LINE
  5
409
100
AcDbEntity
  8
0
100
AcDbLine
 62
7
  6
BYLAYER
 10
224.2286430765
 20
192.102514364
 11
224.2286430765
 21
193.3111463211
  0
LINE
  5
40A
100
AcDbEntity
  8
0
100
AcDbLine
 62
7
  6
BYLAYER
 10
224.2286430765
 20
204.3111463211
 11
224.2286430765
 21
219.3111463211
  0
LINE
  5
40B
100
AcDbEntity
  8
0
100
AcDbLine
 62
7
  6
BYLAYER
 10
224.6286430765
 20
190.3111463211
 11
224.6286430765
 21
189.2111463211
  0
LINE
  5
40C
100
AcDbEntity
  8
0
100
AcDbLine
 62
7
  6
BYLAYER
 10
224.6286430765
 20
188.4111463211
 11
224.6286430765
 21
187.3111463211
  0
LINE
  5
40D
100
AcDbEntity
  8
0
100
AcDbLine
 62
7
  6
BYLAYER
 10
224.7286430765
 20
184.8111463211
 11
224.7286430765
 21
184.3111463211
  0
LINE
  5
40E
100
AcDbEntity
  8
0
100
AcDbLine
 62
7
  6
BYLAYER
 10
224.7286430765
 20
203.3111463211
 11
224.7286430765
 21
203.8111463211
  0
LINE
  5
40F
100
AcDbEntity
  8
0
100
AcDbLine
 62
7
  6
BYLAYER
 10
224.7286430765
 20
219.8111463211
 11
224.7286430765
 21
220.3111463211
  0
LINE
  5
410
100
AcDbEntity
  8
0
100
AcDbLine
 62
7
  6
BYLAYER
 10
224.8291181165
 20
227.3111344423
 11
224.8291181165
 21
228.4111344423
  0
LINE
  5
411
100
AcDbEntity
  8
0
100
AcDbLine
 62
7
  6
BYLAYER
 10
224.8291181165
 20
229.2111344423
 11
224.8291181165
 21
230.3111344423
  0
LINE
  5
412
100
AcDbEntity
  8
0
100
AcDbLine
 62
7
  6
BYLAYER
 10
224.964711054
 20
238.3111463211
 11
224.964711054
 21
239.3111463211
  0
LINE
  5
413
100
AcDbEntity
  8
0
100
AcDbLine
 62
7
  6
BYLAYER
 10
225.220040251
 20
239.3111463211
 11
225.220040251
 21
238.3111463211
  0
LINE
  5
414
100
AcDbEntity
  8
0
100
AcDbLine
 62
7
  6
BYLAYER
 10
225.2286430765
 20
224.3111463211
 11
225.2286430765
 21
225.5196795447
  0
LINE
  5
415
100
AcDbEntity
  8
0
100
AcDbLine
 62
7
  6
BYLAYER
 10
225.2286430765
 20
232.1024156306
 11
225.2286430765
 21
233.3111463211
  0
LINE
  5
416
100
AcDbEntity
  8
0
100
AcDbLine
 62
7
  6
BYLAYER
 10
225.6291181165
 20
230.3111344423
 11
225.6291181165
 21
229.2111344423
  0
LINE
  5
417
100
AcDbEntity
  8
0
100
AcDbLine
 62
7
  6
BYLAYER
 10
225.6291181165
 20
228.4111344423
 11
225.6291181165
 21
227.3111344423
  0
LINE
  5
418
100
AcDbEntity
  8
0
100
AcDbLine
 62
7
  6
BYLAYER
 10
225.7286430765
 20
189.2111463211
 11
225.7286430765
 21
188.4111463211
  0
LINE
  5
419
100
AcDbEntity
  8
0
100
AcDbLine
 62
7
  6
BYLAYER
 10
226.2286430765
 20
220.3111463211
 11
226.2286430765
 21
219.8111463211
  0
LINE
  5
41A
100
AcDbEntity
  8
0
100
AcDbLine
 62
7
  6
BYLAYER
 10
226.2286430765
 20
203.8111463211
 11
226.2286430765
 21
203.3111463211
  0
LINE
  5
41B
100
AcDbEntity
  8
0
100
AcDbLine
 62
7
  6
BYLAYER
 10
226.7286430765
 20
204.3111463211
 11
226.7286430765
 21
207.3111463211
  0
LINE
  5
41C
100
AcDbEntity
  8
0
100
AcDbLine
 62
7
  6
BYLAYER
 10
226.7286430765
 20
216.3111463211
 11
226.7286430765
 21
219.3111463211
  0
LINE
  5
41D
100
AcDbEntity
  8
0
100
AcDbLine
 62
7
  6
BYLAYER
 10
226.7291181165
 20
229.2111344423
 11
226.7291181165
 21
228.4111344423
  0
LINE
  5
41E
100
AcDbEntity
  8
0
100
AcDbLine
 62
7
  6
BYLAYER
 10
226.7400481002
 20
233.3111463211
 11
226.7400481002
 21
231.8111463211
  0
LINE
  5
41F
100
AcDbEntity
  8
0
100
AcDbLine
 62
7
  6
BYLAYER
 10
227.2286430765
 20
204.3111463211
 11
227.2286430765
 21
207.8111463167
  0
LINE
  5
420
100
AcDbEntity
  8
0
100
AcDbLine
 62
7
  6
BYLAYER
 10
227.2286430765
 20
215.8111463211
 11
227.2286430765
 21
219.3111463211
  0
LINE
  5
421
100
AcDbEntity
  8
0
100
AcDbLine
 62
7
  6
BYLAYER
 10
227.7286430765
 20
225.3111463211
 11
227.7286430765
 21
216.8111463211
  0
LINE
  5
422
100
AcDbEntity
  8
0
100
AcDbLine
 62
7
  6
BYLAYER
 10
227.7286430765
 20
206.8111463167
 11
227.7286430765
 21
192.3111463211
  0
LINE
  5
423
100
AcDbEntity
  8
0
100
AcDbLine
 62
7
  6
BYLAYER
 10
228.2286430765
 20
230.9105968747
 11
228.2286430765
 21
230.1446150545
  0
LINE
  5
424
100
AcDbEntity
  8
0
100
AcDbLine
 62
7
  6
BYLAYER
 10
228.2286430765
 20
227.4495284266
 11
228.2286430765
 21
225.8111463211
  0
LINE
  5
425
100
AcDbEntity
  8
0
100
AcDbLine
 62
7
  6
BYLAYER
 10
228.2286430765
 20
191.8111463211
 11
228.2286430765
 21
188.3111463211
  0
LINE
  5
426
100
AcDbEntity
  8
0
100
AcDbLine
 62
7
  6
BYLAYER
 10
228.7286430765
 20
188.3111463211
 11
228.7286430765
 21
207.3111463211
  0
LINE
  5
427
100
AcDbEntity
  8
0
100
AcDbLine
 62
7
  6
BYLAYER
 10
228.7286430765
 20
216.3111463211
 11
228.7286430765
 21
230.9105968747
  0
LINE
  5
428
100
AcDbEntity
  8
3
100
AcDbLine
 62
7
  6
BYLAYER
 10
228.7291181196
 20
225.8111463211
 11
228.7291181196
 21
224.3111463211
  0
LINE
  5
429
100
AcDbEntity
  8
3
100
AcDbLine
 62
7
  6
BYLAYER
 10
228.7291181196
 20
193.3111463211
 11
228.7291181196
 21
191.8111463211
  0
LINE
  5
42A
100
AcDbEntity
  8
0
100
AcDbLine
 62
7
  6
BYLAYER
 10
228.7285997784
 20
216.3045663297
 11
228.7286430765
 21
216.3111463211
  0
LWPOLYLINE
  5
42B
100
AcDbEntity
  8
0
100
AcDbPolyline
 62
7
  6
BYLAYER
 90
4
 70
0
 10
228.7286429246
 20
207.3107565602
 10
228.7276046857
 20
207.3437094979
 10
228.7189612402
 20
207.4102870207
 10
228.6635746095
 20
207.5577929543
  0
LINE
  5
42C
100
AcDbEntity
  8
4
100
AcDbLine
 62
7
  6
BYLAYER
 10
235.917863803
 20
134.0697262433
 11
235.917863803
 21
177.0697262433
  0
LINE
  5
42D
100
AcDbEntity
  8
0
100
AcDbLine
 62
7
  6
BYLAYER
 10
223.7286430765
 20
235.9611463211
 11
222.7286430765
 21
236.9611463211
  0
LINE
  5
42E
100
AcDbEntity
  8
0
100
AcDbLine
 62
7
  6
BYLAYER
 10
227.7729767437
 20
232.7234614322
 11
228.1172862915
 21
232.3608998025
  0
LINE
  5
42F
100
AcDbEntity
  8
0
100
AcDbLine
 62
7
  6
BYLAYER
 10
227.2209607728
 20
233.9479794397
 11
226.1815641987
 21
237.585867449
  0
LINE
  5
430
100
AcDbEntity
  8
4
100
AcDbLine
 62
7
  6
BYLAYER
 10
238.917863803
 20
134.0697262433
 11
238.917863803
 21
177.0697262433
  0
LINE
  5
431
100
AcDbEntity
  8
0
100
AcDbLine
 62
7
  6
BYLAYER
 10
228.3438825529
 20
233.6578081537
 11
227.1430881463
 21
237.8605885769
  0
ARC
  5
432
100
AcDbEntity
  8
0
100
AcDbCircle
 62
7
  6
BYLAYER
 10
35.579512188
 20
188.8111463211
 40
4.5
100
AcDbArc
 50
0.0
 51
90.0
  0
ARC
  5
433
100
AcDbEntity
  8
0
100
AcDbCircle
 62
7
  6
BYLAYER
 10
35.079512188
 20
188.3111463211
 40
4.0
100
AcDbArc
 50
180.0
 51
270.0
  0
ARC
  5
434
100
AcDbEntity
  8
0
100
AcDbCircle
 62
7
  6
BYLAYER
 10
35.579512188
 20
188.8111463211
 40
3.5
100
AcDbArc
 50
0.0
 51
90.0
  0
ARC
  5
435
100
AcDbEntity
  8
0
100
AcDbCircle
 62
7
  6
BYLAYER
 10
35.079512188
 20
188.3111463211
 40
3.5
100
AcDbArc
 50
180.0
 51
270.0
  0
CIRCLE
  5
436
100
AcDbEntity
  8
0
100
AcDbCircle
 62
7
  6
BYLAYER
 10
35.5795121909
 20
188.8116332372
 40
3.3
  0
CIRCLE
  5
437
100
AcDbEntity
  8
0
100
AcDbCircle
 62
7
  6
BYLAYER
 10
35.5795121909
 20
188.8116332372
 40
2.2999997533
  0
ARC
  5
438
100
AcDbEntity
  8
0
100
AcDbCircle
 62
7
  6
BYLAYER
 10
40.079512188
 20
185.3111463211
 40
1.0
100
AcDbArc
 50
180.0
 51
270.0
  0
ARC
  5
439
100
AcDbEntity
  8
0
100
AcDbCircle
 62
7
  6
BYLAYER
 10
48.579512188
 20
188.3111463211
 40
1.0
100
AcDbArc
 50
90.0
 51
180.0
  0
ARC
  5
43A
100
AcDbEntity
  8
0
100
AcDbCircle
 62
7
  6
BYLAYER
 10
48.579512188
 20
186.8111463211
 40
1.0
100
AcDbArc
 50
180.0
 51
270.0
  0
ARC
  5
43B
100
AcDbEntity
  8
0
100
AcDbCircle
 62
7
  6
BYLAYER
 10
51.579512188
 20
185.8111463211
 40
0.5
100
AcDbArc
 50
0.0
 51
90.0
  0
ARC
  5
43C
100
AcDbEntity
  8
0
100
AcDbCircle
 62
7
  6
BYLAYER
 10
48.579512188
 20
186.8111463211
 40
0.5
100
AcDbArc
 50
180.0
 51
270.0
  0
ARC
  5
43D
100
AcDbEntity
  8
0
100
AcDbCircle
 62
7
  6
BYLAYER
 10
48.579512188
 20
188.3111463211
 40
0.5
100
AcDbArc
 50
90.0
 51
180.0
  0
ARC
  5
43E
100
AcDbEntity
  8
3
100
AcDbCircle
 62
7
  6
BYLAYER
 10
48.5799872311
 20
188.3116277955
 40
0.5
100
AcDbArc
 50
90.0
 51
124.3081861033
  0
ARC
  5
43F
100
AcDbEntity
  8
3
100
AcDbCircle
 62
7
  6
BYLAYER
 10
48.5799872311
 20
186.8116277955
 40
0.5
100
AcDbArc
 50
179.9999999999
 51
214.0846257129
  0
ARC
  5
440
100
AcDbEntity
  8
3
100
AcDbCircle
 62
7
  6
BYLAYER
 10
51.5799872311
 20
185.8116277955
 40
0.5
100
AcDbArc
 50
33.2365844971
 51
55.6198031172
  0
ARC
  5
441
100
AcDbEntity
  8
3
100
AcDbCircle
 62
7
  6
BYLAYER
 10
51.5799872311
 20
184.8116277955
 40
0.5
100
AcDbArc
 50
304.0656153119
 51
328.2289727909
  0
ARC
  5
442
100
AcDbEntity
  8
0
100
AcDbCircle
 62
7
  6
BYLAYER
 10
32.079512188
 20
193.3111463211
 40
1.0
100
AcDbArc
 50
180.0
 51
270.0
  0
ARC
  5
443
100
AcDbEntity
  8
0
100
AcDbCircle
 62
7
  6
BYLAYER
 10
33.579512188
 20
204.3111463211
 40
1.0
100
AcDbArc
 50
180.0
 51
270.0
  0
ARC
  5
444
100
AcDbEntity
  8
0
100
AcDbCircle
 62
7
  6
BYLAYER
 10
35.079512188
 20
204.3111463211
 40
1.0
100
AcDbArc
 50
270.0
 51
360.0
  0
ARC
  5
445
100
AcDbEntity
  8
0
100
AcDbCircle
 62
7
  6
BYLAYER
 10
33.579512188
 20
204.3111463211
 40
0.5
100
AcDbArc
 50
180.0
 51
270.0
  0
ARC
  5
446
100
AcDbEntity
  8
0
100
AcDbCircle
 62
7
  6
BYLAYER
 10
35.079512188
 20
204.3111463211
 40
0.5
100
AcDbArc
 50
270.0
 51
360.0
  0
ARC
  5
447
100
AcDbEntity
  8
3
100
AcDbCircle
 62
7
  6
BYLAYER
 10
33.5799872311
 20
204.3116451104
 40
0.5
100
AcDbArc
 50
180.0000000003
 51
214.0833139039
  0
ARC
  5
448
100
AcDbEntity
  8
3
100
AcDbCircle
 62
7
  6
BYLAYER
 10
35.0799872311
 20
204.3116451104
 40
0.5
100
AcDbArc
 50
269.9999999999
 51
304.1515600625
  0
ARC
  5
449
100
AcDbEntity
  8
3
100
AcDbCircle
 62
7
  6
BYLAYER
 10
84.2687329145
 20
177.0697262433
 40
7.0
100
AcDbArc
 50
0.0
 51
90.0
  0
ARC
  5
44A
100
AcDbEntity
  8
0
100
AcDbCircle
 62
7
  6
BYLAYER
 10
76.579512188
 20
188.8111463211
 40
4.5
100
AcDbArc
 50
90.0
 51
180.0
  0
ARC
  5
44B
100
AcDbEntity
  8
3
100
AcDbCircle
 62
7
  6
BYLAYER
 10
84.2687329145
 20
177.0697262433
 40
4.0
100
AcDbArc
 50
0.0
 51
90.0
  0
ARC
  5
44C
100
AcDbEntity
  8
0
100
AcDbCircle
 62
7
  6
BYLAYER
 10
77.079512188
 20
188.3111463211
 40
4.0
100
AcDbArc
 50
270.0
 51
360.0
  0
ARC
  5
44D
100
AcDbEntity
  8
0
100
AcDbCircle
 62
7
  6
BYLAYER
 10
76.579512188
 20
188.8111463211
 40
3.5
100
AcDbArc
 50
90.0
 51
180.0
  0
ARC
  5
44E
100
AcDbEntity
  8
0
100
AcDbCircle
 62
7
  6
BYLAYER
 10
77.079512188
 20
188.3111463211
 40
3.5
100
AcDbArc
 50
270.0
 51
360.0
  0
CIRCLE
  5
44F
100
AcDbEntity
  8
0
100
AcDbCircle
 62
7
  6
BYLAYER
 10
76.579512188
 20
188.8111463211
 40
3.3
  0
CIRCLE
  5
450
100
AcDbEntity
  8
0
100
AcDbCircle
 62
7
  6
BYLAYER
 10
76.579512188
 20
188.8111463211
 40
2.2999997533
  0
ARC
  5
451
100
AcDbEntity
  8
0
100
AcDbCircle
 62
7
  6
BYLAYER
 10
72.079512188
 20
185.3111463211
 40
1.0
100
AcDbArc
 50
270.0
 51
360.0
  0
ARC
  5
452
100
AcDbEntity
  8
0
100
AcDbCircle
 62
7
  6
BYLAYER
 10
63.579512188
 20
186.8111463211
 40
1.0
100
AcDbArc
 50
270.0
 51
360.0
  0
ARC
  5
453
100
AcDbEntity
  8
0
100
AcDbCircle
 62
7
  6
BYLAYER
 10
63.579512188
 20
188.3111463211
 40
1.0
100
AcDbArc
 50
0.0
 51
90.0
  0
ARC
  5
454
100
AcDbEntity
  8
0
100
AcDbCircle
 62
7
  6
BYLAYER
 10
60.5795121879
 20
185.8111463212
 40
0.5
100
AcDbArc
 50
89.999999994
 51
180.0000003093
  0
ARC
  5
455
100
AcDbEntity
  8
0
100
AcDbCircle
 62
7
  6
BYLAYER
 10
63.579512188
 20
186.8111463211
 40
0.5
100
AcDbArc
 50
270.0
 51
360.0
  0
ARC
  5
456
100
AcDbEntity
  8
0
100
AcDbCircle
 62
7
  6
BYLAYER
 10
63.579512188
 20
188.3111463211
 40
0.5
100
AcDbArc
 50
0.0
 51
90.0
  0
ARC
  5
457
100
AcDbEntity
  8
3
100
AcDbCircle
 62
7
  6
BYLAYER
 10
63.5799872311
 20
186.8116277955
 40
0.5
100
AcDbArc
 50
270.0000000002
 51
304.155597855
  0
ARC
  5
458
100
AcDbEntity
  8
3
100
AcDbCircle
 62
7
  6
BYLAYER
 10
63.5799872311
 20
188.3116277955
 40
0.5
100
AcDbArc
 50
0.0
 51
34.3791840535
  0
ARC
  5
459
100
AcDbEntity
  8
0
100
AcDbCircle
 62
7
  6
BYLAYER
 10
80.079512188
 20
193.3111463211
 40
1.0
100
AcDbArc
 50
270.0
 51
360.0
  0
ARC
  5
45A
100
AcDbEntity
  8
0
100
AcDbCircle
 62
7
  6
BYLAYER
 10
77.079512188
 20
204.3111463211
 40
1.0
100
AcDbArc
 50
180.0
 51
270.0
  0
ARC
  5
45B
100
AcDbEntity
  8
0
100
AcDbCircle
 62
7
  6
BYLAYER
 10
78.579512188
 20
204.3111463211
 40
1.0
100
AcDbArc
 50
270.0
 51
360.0
  0
ARC
  5
45C
100
AcDbEntity
  8
0
100
AcDbCircle
 62
7
  6
BYLAYER
 10
77.079512188
 20
204.3111463211
 40
0.5
100
AcDbArc
 50
180.0
 51
270.0
  0
ARC
  5
45D
100
AcDbEntity
  8
0
100
AcDbCircle
 62
7
  6
BYLAYER
 10
78.579512188
 20
204.3111463211
 40
0.5
100
AcDbArc
 50
270.0
 51
360.0
  0
ARC
  5
45E
100
AcDbEntity
  8
3
100
AcDbCircle
 62
7
  6
BYLAYER
 10
77.0799872311
 20
204.3116451104
 40
0.5
100
AcDbArc
 50
180.0
 51
214.0833139038
  0
ARC
  5
45F
100
AcDbEntity
  8
3
100
AcDbCircle
 62
7
  6
BYLAYER
 10
78.5799872311
 20
204.3116451104
 40
0.5
100
AcDbArc
 50
270.0
 51
304.1515600626
  0
CIRCLE
  5
460
100
AcDbEntity
  8
0
100
AcDbCircle
 62
7
  6
BYLAYER
 10
56.079512188
 20
211.7611463211
 40
17.0
  0
CIRCLE
  5
461
100
AcDbEntity
  8
0
100
AcDbCircle
 62
7
  6
BYLAYER
 10
56.079512188
 20
211.7611463211
 40
16.5
  0
CIRCLE
  5
462
100
AcDbEntity
  8
0
100
AcDbCircle
 62
7
  6
BYLAYER
 10
56.079512188
 20
211.7611463211
 40
15.0
  0
CIRCLE
  5
463
100
AcDbEntity
  8
0
100
AcDbCircle
 62
7
  6
BYLAYER
 10
56.079512188
 20
211.7611463211
 40
14.5
  0
ARC
  5
464
100
AcDbEntity
  8
0
100
AcDbCircle
 62
7
  6
BYLAYER
 10
35.079512188
 20
219.3111463211
 40
1.0
100
AcDbArc
 50
0.0
 51
90.0
  0
ARC
  5
465
100
AcDbEntity
  8
0
100
AcDbCircle
 62
7
  6
BYLAYER
 10
33.579512188
 20
219.3111463211
 40
1.0
100
AcDbArc
 50
90.0
 51
180.0
  0
ARC
  5
466
100
AcDbEntity
  8
0
100
AcDbCircle
 62
7
  6
BYLAYER
 10
32.579512188
 20
207.3111463211
 40
0.5
100
AcDbArc
 50
0.0
 51
89.9999998758
  0
ARC
  5
467
100
AcDbEntity
  8
0
100
AcDbCircle
 62
7
  6
BYLAYER
 10
35.079512188
 20
219.3111463211
 40
0.5
100
AcDbArc
 50
0.0
 51
90.0
  0
ARC
  5
468
100
AcDbEntity
  8
0
100
AcDbCircle
 62
7
  6
BYLAYER
 10
33.579512188
 20
219.3111463211
 40
0.5
100
AcDbArc
 50
90.0
 51
180.0
  0
ARC
  5
469
100
AcDbEntity
  8
0
100
AcDbCircle
 62
7
  6
BYLAYER
 10
32.579512188
 20
216.3111463211
 40
0.5
100
AcDbArc
 50
269.9999999096
 51
360.0
  0
ARC
  5
46A
100
AcDbEntity
  8
3
100
AcDbCircle
 62
7
  6
BYLAYER
 10
31.5799872311
 20
207.3116451104
 40
0.5
100
AcDbArc
 50
120.2909783228
 51
148.228972791
  0
ARC
  5
46B
100
AcDbEntity
  8
3
100
AcDbCircle
 62
7
  6
BYLAYER
 10
32.5799872311
 20
207.3116451104
 40
0.5
100
AcDbArc
 50
33.2379877016
 51
55.6157639695
  0
ARC
  5
46C
100
AcDbEntity
  8
3
100
AcDbCircle
 62
7
  6
BYLAYER
 10
35.0799872311
 20
219.3116451104
 40
0.5
100
AcDbArc
 50
0.0
 51
34.3804964938
  0
ARC
  5
46D
100
AcDbEntity
  8
3
100
AcDbCircle
 62
7
  6
BYLAYER
 10
33.5799872311
 20
219.3116451104
 40
0.5
100
AcDbArc
 50
90.0000000001
 51
124.3122249242
  0
ARC
  5
46E
100
AcDbEntity
  8
0
100
AcDbCircle
 62
7
  6
BYLAYER
 10
34.579512188
 20
228.8111463211
 40
4.5
100
AcDbArc
 50
270.0
 51
90.0
  0
ARC
  5
46F
100
AcDbEntity
  8
0
100
AcDbCircle
 62
7
  6
BYLAYER
 10
34.579512188
 20
228.8111463211
 40
3.5
100
AcDbArc
 50
270.0
 51
90.0
  0
CIRCLE
  5
470
100
AcDbEntity
  8
0
100
AcDbCircle
 62
7
  6
BYLAYER
 10
34.579987231
 20
228.8116451103
 40
3.3
  0
CIRCLE
  5
471
100
AcDbEntity
  8
0
100
AcDbCircle
 62
7
  6
BYLAYER
 10
34.579987231
 20
228.8116451103
 40
2.2999997533
  0
ARC
  5
472
100
AcDbEntity
  8
0
100
AcDbCircle
 62
7
  6
BYLAYER
 10
32.079512188
 20
224.3111463211
 40
1.0
100
AcDbArc
 50
90.0
 51
180.0
  0
ARC
  5
473
100
AcDbEntity
  8
0
100
AcDbCircle
 62
7
  6
BYLAYER
 10
35.4187658197
 20
233.1380586723
 40
3.9451176956
100
AcDbArc
 50
164.4515264619
 51
169.8358678829
  0
ARC
  5
474
100
AcDbEntity
  8
0
100
AcDbCircle
 62
7
  6
BYLAYER
 10
35.1930150759
 20
233.1791831096
 40
3.7156527064
100
AcDbArc
 50
169.8457541307
 51
172.787869186
  0
ARC
  5
475
100
AcDbEntity
  8
0
100
AcDbCircle
 62
7
  6
BYLAYER
 10
34.8434442105
 20
237.3111463211
 40
1.9999999999
100
AcDbArc
 50
26.5650511771
 51
90.0
  0
ARC
  5
476
100
AcDbEntity
  8
0
100
AcDbCircle
 62
7
  6
BYLAYER
 10
34.5881150135
 20
237.3111463211
 40
1.9999999999
100
AcDbArc
 50
90.0
 51
164.0546040991
  0
ARC
  5
477
100
AcDbEntity
  8
0
100
AcDbCircle
 62
7
  6
BYLAYER
 10
33.0681071643
 20
233.8111463211
 40
2.0
100
AcDbArc
 50
226.4791025172
 51
270.0
  0
ARC
  5
478
100
AcDbEntity
  8
3
100
AcDbCircle
 62
7
  6
BYLAYER
 10
34.5885900566
 20
237.3116451103
 40
2.0000000001
100
AcDbArc
 50
112.3053490833
 51
116.3564538856
  0
ARC
  5
479
100
AcDbEntity
  8
3
100
AcDbCircle
 62
7
  6
BYLAYER
 10
34.8448998326
 20
237.3116451104
 40
2.0
100
AcDbArc
 50
26.5650511771
 51
90.0
  0
ARC
  5
47A
100
AcDbEntity
  8
0
100
AcDbCircle
 62
7
  6
BYLAYER
 10
33.0681071643
 20
233.8111463211
 40
1.5
100
AcDbArc
 50
164.0546040991
 51
270.0
  0
ARC
  5
47B
100
AcDbEntity
  8
0
100
AcDbCircle
 62
7
  6
BYLAYER
 10
34.5881150135
 20
237.3111463212
 40
1.0
100
AcDbArc
 50
89.9999999979
 51
164.0546041007
  0
ARC
  5
47C
100
AcDbEntity
  8
0
100
AcDbCircle
 62
7
  6
BYLAYER
 10
34.8434442105
 20
237.311146321
 40
1.0000000001
100
AcDbArc
 50
26.5650511792
 51
89.9999999976
  0
ARC
  5
47D
100
AcDbEntity
  8
0
100
AcDbCircle
 62
7
  6
BYLAYER
 10
33.0681071643
 20
233.8111463212
 40
0.5
100
AcDbArc
 50
164.0546041017
 51
269.9371406544
  0
ARC
  5
47E
100
AcDbEntity
  8
0
100
AcDbCircle
 62
7
  6
BYLAYER
 10
41.079512188
 20
230.9105968747
 40
10.0
100
AcDbArc
 50
164.0546040991
 51
180.0
  0
ARC
  5
47F
100
AcDbEntity
  8
0
100
AcDbCircle
 62
7
  6
BYLAYER
 10
41.079512188
 20
230.9105968747
 40
9.5
100
AcDbArc
 50
171.2186899972
 51
180.0
  0
ARC
  5
480
100
AcDbEntity
  8
0
100
AcDbCircle
 62
7
  6
BYLAYER
 10
36.579512188
 20
237.1931123324
 40
0.5
100
AcDbArc
 50
0.0
 51
26.5650511771
  0
ARC
  5
481
100
AcDbEntity
  8
3
100
AcDbCircle
 62
7
  6
BYLAYER
 10
36.58096781
 20
237.1936111216
 40
0.5000000001
100
AcDbArc
 50
0.0000000002
 51
26.565051177
  0
ARC
  5
482
100
AcDbEntity
  8
0
100
AcDbCircle
 62
7
  6
BYLAYER
 10
78.579512188
 20
219.3111463211
 40
1.0
100
AcDbArc
 50
0.0
 51
90.0
  0
ARC
  5
483
100
AcDbEntity
  8
0
100
AcDbCircle
 62
7
  6
BYLAYER
 10
77.079512188
 20
219.3111463211
 40
1.0
100
AcDbArc
 50
90.0
 51
180.0
  0
ARC
  5
484
100
AcDbEntity
  8
0
100
AcDbCircle
 62
7
  6
BYLAYER
 10
79.579512188
 20
216.3111463211
 40
0.5
100
AcDbArc
 50
180.0
 51
269.9999998161
  0
ARC
  5
485
100
AcDbEntity
  8
0
100
AcDbCircle
 62
7
  6
BYLAYER
 10
78.579512188
 20
219.3111463211
 40
0.5
100
AcDbArc
 50
0.0
 51
90.0
  0
ARC
  5
486
100
AcDbEntity
  8
0
100
AcDbCircle
 62
7
  6
BYLAYER
 10
77.079512188
 20
219.3111463211
 40
0.5
100
AcDbArc
 50
90.0
 51
180.0
  0
ARC
  5
487
100
AcDbEntity
  8
0
100
AcDbCircle
 62
7
  6
BYLAYER
 10
79.579512188
 20
207.3111463195
 40
0.5
100
AcDbArc
 50
89.9999997684
 51
179.9999998184
  0
ARC
  5
488
100
AcDbEntity
  8
3
100
AcDbCircle
 62
7
  6
BYLAYER
 10
77.0799872311
 20
219.3116451104
 40
0.5
100
AcDbArc
 50
90.0
 51
124.3122249241
  0
ARC
  5
489
100
AcDbEntity
  8
3
100
AcDbCircle
 62
7
  6
BYLAYER
 10
80.5799872311
 20
207.3116451104
 40
0.5
100
AcDbArc
 50
29.9719177646
 51
58.228972791
  0
ARC
  5
48A
100
AcDbEntity
  8
3
100
AcDbCircle
 62
7
  6
BYLAYER
 10
80.5799872311
 20
216.3116451104
 40
0.5
100
AcDbArc
 50
300.5056975289
 51
328.228972791
  0
ARC
  5
48B
100
AcDbEntity
  8
0
100
AcDbCircle
 62
7
  6
BYLAYER
 10
71.079512188
 20
230.9105968747
 40
10.0
100
AcDbArc
 50
0.0
 51
15.9453959009
  0
ARC
  5
48C
100
AcDbEntity
  8
3
100
AcDbCircle
 62
7
  6
BYLAYER
 10
71.0799872313
 20
230.9110956639
 40
9.9999999998
100
AcDbArc
 50
0.0
 51
15.9453959018
  0
ARC
  5
48D
100
AcDbEntity
  8
0
100
AcDbCircle
 62
7
  6
BYLAYER
 10
71.079512188
 20
230.9105968747
 40
9.5
100
AcDbArc
 50
0.0
 51
8.7813100028
  0
ARC
  5
48E
100
AcDbEntity
  8
3
100
AcDbCircle
 62
7
  6
BYLAYER
 10
75.579006652
 20
237.1936111216
 40
0.5
100
AcDbArc
 50
153.4349488239
 51
179.9999999991
  0
ARC
  5
48F
100
AcDbEntity
  8
0
100
AcDbCircle
 62
7
  6
BYLAYER
 10
77.579512188
 20
228.8111463211
 40
4.5
100
AcDbArc
 50
90.0
 51
270.0
  0
ARC
  5
490
100
AcDbEntity
  8
0
100
AcDbCircle
 62
7
  6
BYLAYER
 10
77.579512188
 20
228.8111463211
 40
3.5
100
AcDbArc
 50
90.0
 51
270.0
  0
CIRCLE
  5
491
100
AcDbEntity
  8
0
100
AcDbCircle
 62
7
  6
BYLAYER
 10
77.579987228
 20
228.8111344423
 40
3.3
  0
CIRCLE
  5
492
100
AcDbEntity
  8
0
100
AcDbCircle
 62
7
  6
BYLAYER
 10
77.579987228
 20
228.8111344423
 40
2.2999997533
  0
ARC
  5
493
100
AcDbEntity
  8
0
100
AcDbCircle
 62
7
  6
BYLAYER
 10
80.079512188
 20
224.3111463211
 40
1.0
100
AcDbArc
 50
0.0
 51
90.0
  0
ARC
  5
494
100
AcDbEntity
  8
0
100
AcDbCircle
 62
7
  6
BYLAYER
 10
76.7401089542
 20
233.1380273951
 40
3.9452702755
100
AcDbArc
 50
10.1642089632
 51
15.5537866505
  0
ARC
  5
495
100
AcDbEntity
  8
0
100
AcDbCircle
 62
7
  6
BYLAYER
 10
76.9661557313
 20
233.1792097661
 40
3.7155036754
100
AcDbArc
 50
7.2120107036
 51
10.1542532993
  0
ARC
  5
496
100
AcDbEntity
  8
0
100
AcDbCircle
 62
7
  6
BYLAYER
 10
77.3155801655
 20
237.3111463211
 40
1.9999999999
100
AcDbArc
 50
90.0
 51
153.4349488229
  0
ARC
  5
497
100
AcDbEntity
  8
0
100
AcDbCircle
 62
7
  6
BYLAYER
 10
77.5709093625
 20
237.3111463211
 40
1.9999999999
100
AcDbArc
 50
15.9453959009
 51
90.0
  0
ARC
  5
498
100
AcDbEntity
  8
0
100
AcDbCircle
 62
7
  6
BYLAYER
 10
79.0909172117
 20
233.8111463211
 40
2.0
100
AcDbArc
 50
270.0
 51
313.5208974826
  0
ARC
  5
499
100
AcDbEntity
  8
3
100
AcDbCircle
 62
7
  6
BYLAYER
 10
77.3150746295
 20
237.3116451104
 40
2.0
100
AcDbArc
 50
96.6887354304
 51
129.3673613923
  0
ARC
  5
49A
100
AcDbEntity
  8
3
100
AcDbCircle
 62
7
  6
BYLAYER
 10
77.5713844055
 20
237.3116451104
 40
2.0
100
AcDbArc
 50
15.9453959017
 51
43.4700561264
  0
ARC
  5
49B
100
AcDbEntity
  8
3
100
AcDbCircle
 62
7
  6
BYLAYER
 10
77.5713844055
 20
237.3116451104
 40
2.0
100
AcDbArc
 50
62.4768037749
 51
90.0
  0
ARC
  5
49C
100
AcDbEntity
  8
0
100
AcDbCircle
 62
7
  6
BYLAYER
 10
79.0909172117
 20
233.8111463211
 40
1.5
100
AcDbArc
 50
270.0
 51
15.9453959009
  0
ARC
  5
49D
100
AcDbEntity
  8
0
100
AcDbCircle
 62
7
  6
BYLAYER
 10
77.3155801655
 20
237.3111463211
 40
1.0
100
AcDbArc
 50
89.9999999987
 51
153.4349488216
  0
ARC
  5
49E
100
AcDbEntity
  8
0
100
AcDbCircle
 62
7
  6
BYLAYER
 10
77.5709093625
 20
237.3111463212
 40
1.0
100
AcDbArc
 50
15.9453958939
 51
89.9999999987
  0
ARC
  5
49F
100
AcDbEntity
  8
0
100
AcDbCircle
 62
7
  6
BYLAYER
 10
75.579512188
 20
237.1931123324
 40
0.5
100
AcDbArc
 50
153.4349488229
 51
180.0
  0
ARC
  5
4A0
100
AcDbEntity
  8
0
100
AcDbCircle
 62
7
  6
BYLAYER
 10
79.0909172117
 20
233.8111463212
 40
0.5000000001
100
AcDbArc
 50
270.0000000021
 51
15.882536543
  0
ARC
  5
4A1
100
AcDbEntity
  8
0
100
AcDbCircle
 62
7
  6
BYLAYER
 10
183.2286430765
 20
188.8111463211
 40
4.5
100
AcDbArc
 50
0.0
 51
90.0
  0
ARC
  5
4A2
100
AcDbEntity
  8
0
100
AcDbCircle
 62
7
  6
BYLAYER
 10
182.7286430765
 20
188.3111463211
 40
4.0
100
AcDbArc
 50
180.0
 51
270.0
  0
ARC
  5
4A3
100
AcDbEntity
  8
0
100
AcDbCircle
 62
7
  6
BYLAYER
 10
183.2286430765
 20
188.8111463211
 40
3.5
100
AcDbArc
 50
0.0
 51
90.0
  0
ARC
  5
4A4
100
AcDbEntity
  8
0
100
AcDbCircle
 62
7
  6
BYLAYER
 10
182.7286430765
 20
188.3111463211
 40
3.5
100
AcDbArc
 50
180.0
 51
270.0
  0
CIRCLE
  5
4A5
100
AcDbEntity
  8
0
100
AcDbCircle
 62
7
  6
BYLAYER
 10
183.2286430794
 20
188.8116332372
 40
3.3
  0
CIRCLE
  5
4A6
100
AcDbEntity
  8
0
100
AcDbCircle
 62
7
  6
BYLAYER
 10
183.2286430794
 20
188.8116332372
 40
2.2999997533
  0
ARC
  5
4A7
100
AcDbEntity
  8
0
100
AcDbCircle
 62
7
  6
BYLAYER
 10
187.7286430765
 20
185.3111463211
 40
1.0
100
AcDbArc
 50
180.0
 51
270.0
  0
ARC
  5
4A8
100
AcDbEntity
  8
0
100
AcDbCircle
 62
7
  6
BYLAYER
 10
196.2286430765
 20
188.3111463211
 40
1.0
100
AcDbArc
 50
90.0
 51
180.0
  0
ARC
  5
4A9
100
AcDbEntity
  8
0
100
AcDbCircle
 62
7
  6
BYLAYER
 10
196.2286430765
 20
186.8111463211
 40
1.0
100
AcDbArc
 50
180.0
 51
270.0
  0
ARC
  5
4AA
100
AcDbEntity
  8
0
100
AcDbCircle
 62
7
  6
BYLAYER
 10
199.2286430765
 20
185.8111463211
 40
0.5
100
AcDbArc
 50
0.0
 51
90.0
  0
ARC
  5
4AB
100
AcDbEntity
  8
0
100
AcDbCircle
 62
7
  6
BYLAYER
 10
196.2286430765
 20
186.8111463211
 40
0.5
100
AcDbArc
 50
180.0
 51
270.0
  0
ARC
  5
4AC
100
AcDbEntity
  8
0
100
AcDbCircle
 62
7
  6
BYLAYER
 10
196.2286430765
 20
188.3111463211
 40
0.5
100
AcDbArc
 50
90.0
 51
180.0
  0
ARC
  5
4AD
100
AcDbEntity
  8
3
100
AcDbCircle
 62
7
  6
BYLAYER
 10
196.2291181196
 20
188.3116277955
 40
0.5
100
AcDbArc
 50
90.0
 51
124.3081861033
  0
ARC
  5
4AE
100
AcDbEntity
  8
3
100
AcDbCircle
 62
7
  6
BYLAYER
 10
196.2291181196
 20
186.8116277955
 40
0.5
100
AcDbArc
 50
180.0
 51
214.0846257132
  0
ARC
  5
4AF
100
AcDbEntity
  8
3
100
AcDbCircle
 62
7
  6
BYLAYER
 10
199.2291181196
 20
185.8116277955
 40
0.5
100
AcDbArc
 50
33.2365844969
 51
55.6198031173
  0
ARC
  5
4B0
100
AcDbEntity
  8
3
100
AcDbCircle
 62
7
  6
BYLAYER
 10
199.2291181196
 20
184.8116277955
 40
0.5
100
AcDbArc
 50
304.0656144883
 51
328.2289727909
  0
ARC
  5
4B1
100
AcDbEntity
  8
0
100
AcDbCircle
 62
7
  6
BYLAYER
 10
179.7286430765
 20
193.3111463211
 40
1.0
100
AcDbArc
 50
180.0
 51
270.0
  0
ARC
  5
4B2
100
AcDbEntity
  8
0
100
AcDbCircle
 62
7
  6
BYLAYER
 10
181.2286430765
 20
204.3111463211
 40
1.0
100
AcDbArc
 50
180.0
 51
270.0
  0
ARC
  5
4B3
100
AcDbEntity
  8
0
100
AcDbCircle
 62
7
  6
BYLAYER
 10
182.7286430765
 20
204.3111463211
 40
1.0
100
AcDbArc
 50
270.0
 51
360.0
  0
ARC
  5
4B4
100
AcDbEntity
  8
0
100
AcDbCircle
 62
7
  6
BYLAYER
 10
181.2286430765
 20
204.3111463211
 40
0.5
100
AcDbArc
 50
180.0
 51
270.0
  0
ARC
  5
4B5
100
AcDbEntity
  8
0
100
AcDbCircle
 62
7
  6
BYLAYER
 10
182.7286430765
 20
204.3111463211
 40
0.5
100
AcDbArc
 50
270.0
 51
360.0
  0
ARC
  5
4B6
100
AcDbEntity
  8
3
100
AcDbCircle
 62
7
  6
BYLAYER
 10
181.2291181196
 20
204.3116451104
 40
0.5
100
AcDbArc
 50
180.0
 51
214.083313904
  0
ARC
  5
4B7
100
AcDbEntity
  8
3
100
AcDbCircle
 62
7
  6
BYLAYER
 10
182.7291181196
 20
204.3116451104
 40
0.5
100
AcDbArc
 50
270.0
 51
304.1515600625
  0
ARC
  5
4B8
100
AcDbEntity
  8
4
100
AcDbCircle
 62
7
  6
BYLAYER
 10
231.917863803
 20
177.0697262433
 40
7.0
100
AcDbArc
 50
0.0
 51
90.0
  0
ARC
  5
4B9
100
AcDbEntity
  8
0
100
AcDbCircle
 62
7
  6
BYLAYER
 10
224.2286430765
 20
188.8111463211
 40
4.5
100
AcDbArc
 50
90.0
 51
180.0
  0
ARC
  5
4BA
100
AcDbEntity
  8
4
100
AcDbCircle
 62
7
  6
BYLAYER
 10
231.917863803
 20
177.0697262433
 40
4.0
100
AcDbArc
 50
0.0
 51
90.0
  0
ARC
  5
4BB
100
AcDbEntity
  8
0
100
AcDbCircle
 62
7
  6
BYLAYER
 10
224.7286430765
 20
188.3111463211
 40
4.0
100
AcDbArc
 50
270.0
 51
360.0
  0
ARC
  5
4BC
100
AcDbEntity
  8
0
100
AcDbCircle
 62
7
  6
BYLAYER
 10
224.2286430765
 20
188.8111463211
 40
3.5
100
AcDbArc
 50
90.0
 51
180.0
  0
ARC
  5
4BD
100
AcDbEntity
  8
0
100
AcDbCircle
 62
7
  6
BYLAYER
 10
224.7286430765
 20
188.3111463211
 40
3.5
100
AcDbArc
 50
270.0
 51
360.0
  0
CIRCLE
  5
4BE
100
AcDbEntity
  8
0
100
AcDbCircle
 62
7
  6
BYLAYER
 10
224.2286430765
 20
188.8111463211
 40
3.3
  0
CIRCLE
  5
4BF
100
AcDbEntity
  8
0
100
AcDbCircle
 62
7
  6
BYLAYER
 10
224.2286430765
 20
188.8111463211
 40
2.2999997533
  0
ARC
  5
4C0
100
AcDbEntity
  8
0
100
AcDbCircle
 62
7
  6
BYLAYER
 10
219.7286430765
 20
185.3111463211
 40
1.0
100
AcDbArc
 50
270.0
 51
360.0
  0
ARC
  5
4C1
100
AcDbEntity
  8
0
100
AcDbCircle
 62
7
  6
BYLAYER
 10
211.2286430765
 20
186.8111463211
 40
1.0
100
AcDbArc
 50
270.0
 51
360.0
  0
ARC
  5
4C2
100
AcDbEntity
  8
0
100
AcDbCircle
 62
7
  6
BYLAYER
 10
211.2286430765
 20
188.3111463211
 40
1.0
100
AcDbArc
 50
0.0
 51
90.0
  0
ARC
  5
4C3
100
AcDbEntity
  8
0
100
AcDbCircle
 62
7
  6
BYLAYER
 10
208.2286430765
 20
185.8111463212
 40
0.5
100
AcDbArc
 50
89.9999999948
 51
180.0000002028
  0
ARC
  5
4C4
100
AcDbEntity
  8
0
100
AcDbCircle
 62
7
  6
BYLAYER
 10
211.2286430765
 20
186.8111463211
 40
0.5
100
AcDbArc
 50
270.0
 51
360.0
  0
ARC
  5
4C5
100
AcDbEntity
  8
0
100
AcDbCircle
 62
7
  6
BYLAYER
 10
211.2286430765
 20
188.3111463211
 40
0.5
100
AcDbArc
 50
0.0
 51
90.0
  0
ARC
  5
4C6
100
AcDbEntity
  8
3
100
AcDbCircle
 62
7
  6
BYLAYER
 10
211.2291181196
 20
186.8116277955
 40
0.5
100
AcDbArc
 50
269.9999999997
 51
304.1555978549
  0
ARC
  5
4C7
100
AcDbEntity
  8
3
100
AcDbCircle
 62
7
  6
BYLAYER
 10
211.2291181196
 20
188.3116277955
 40
0.5
100
AcDbArc
 50
0.0
 51
34.3791840533
  0
ARC
  5
4C8
100
AcDbEntity
  8
0
100
AcDbCircle
 62
7
  6
BYLAYER
 10
227.7286430765
 20
193.3111463211
 40
1.0
100
AcDbArc
 50
270.0
 51
360.0
  0
ARC
  5
4C9
100
AcDbEntity
  8
0
100
AcDbCircle
 62
7
  6
BYLAYER
 10
224.7286430765
 20
204.3111463211
 40
1.0
100
AcDbArc
 50
180.0
 51
270.0
  0
ARC
  5
4CA
100
AcDbEntity
  8
0
100
AcDbCircle
 62
7
  6
BYLAYER
 10
226.2286430765
 20
204.3111463211
 40
1.0
100
AcDbArc
 50
270.0
 51
360.0
  0
ARC
  5
4CB
100
AcDbEntity
  8
0
100
AcDbCircle
 62
7
  6
BYLAYER
 10
224.7286430765
 20
204.3111463211
 40
0.5
100
AcDbArc
 50
180.0
 51
270.0
  0
ARC
  5
4CC
100
AcDbEntity
  8
0
100
AcDbCircle
 62
7
  6
BYLAYER
 10
226.2286430765
 20
204.3111463211
 40
0.5
100
AcDbArc
 50
270.0
 51
360.0
  0
ARC
  5
4CD
100
AcDbEntity
  8
3
100
AcDbCircle
 62
7
  6
BYLAYER
 10
224.7291181196
 20
204.3116451104
 40
0.5
100
AcDbArc
 50
180.0
 51
214.083313904
  0
ARC
  5
4CE
100
AcDbEntity
  8
3
100
AcDbCircle
 62
7
  6
BYLAYER
 10
226.2291181196
 20
204.3116451104
 40
0.5
100
AcDbArc
 50
270.0
 51
304.1515600626
  0
CIRCLE
  5
4CF
100
AcDbEntity
  8
0
100
AcDbCircle
 62
7
  6
BYLAYER
 10
203.7286430765
 20
211.7611463211
 40
17.0
  0
CIRCLE
  5
4D0
100
AcDbEntity
  8
0
100
AcDbCircle
 62
7
  6
BYLAYER
 10
203.7286430765
 20
211.7611463211
 40
16.5
  0
CIRCLE
  5
4D1
100
AcDbEntity
  8
0
100
AcDbCircle
 62
7
  6
BYLAYER
 10
203.7286430765
 20
211.7611463211
 40
15.0
  0
CIRCLE
  5
4D2
100
AcDbEntity
  8
0
100
AcDbCircle
 62
7
  6
BYLAYER
 10
203.7286430765
 20
211.7611463211
 40
14.5
  0
ARC
  5
4D3
100
AcDbEntity
  8
0
100
AcDbCircle
 62
7
  6
BYLAYER
 10
182.7286430765
 20
219.3111463211
 40
1.0
100
AcDbArc
 50
0.0
 51
90.0
  0
ARC
  5
4D4
100
AcDbEntity
  8
0
100
AcDbCircle
 62
7
  6
BYLAYER
 10
181.2286430765
 20
219.3111463211
 40
1.0
100
AcDbArc
 50
90.0
 51
180.0
  0
ARC
  5
4D5
100
AcDbEntity
  8
0
100
AcDbCircle
 62
7
  6
BYLAYER
 10
180.2286430765
 20
207.3111463211
 40
0.5
100
AcDbArc
 50
0.0000000001
 51
89.9999998589
  0
ARC
  5
4D6
100
AcDbEntity
  8
0
100
AcDbCircle
 62
7
  6
BYLAYER
 10
182.7286430765
 20
219.3111463211
 40
0.5
100
AcDbArc
 50
0.0
 51
90.0
  0
ARC
  5
4D7
100
AcDbEntity
  8
0
100
AcDbCircle
 62
7
  6
BYLAYER
 10
181.2286430765
 20
219.3111463211
 40
0.5
100
AcDbArc
 50
90.0
 51
180.0
  0
ARC
  5
4D8
100
AcDbEntity
  8
0
100
AcDbCircle
 62
7
  6
BYLAYER
 10
180.2286430765
 20
216.3111463211
 40
0.5
100
AcDbArc
 50
269.9999999998
 51
360.0
  0
ARC
  5
4D9
100
AcDbEntity
  8
3
100
AcDbCircle
 62
7
  6
BYLAYER
 10
179.2291181196
 20
207.3116451104
 40
0.5
100
AcDbArc
 50
120.2909759099
 51
148.228972791
  0
ARC
  5
4DA
100
AcDbEntity
  8
3
100
AcDbCircle
 62
7
  6
BYLAYER
 10
180.2291181196
 20
207.3116451104
 40
0.5
100
AcDbArc
 50
33.2379876718
 51
55.615763989
  0
ARC
  5
4DB
100
AcDbEntity
  8
3
100
AcDbCircle
 62
7
  6
BYLAYER
 10
182.7291181196
 20
219.3116451104
 40
0.5
100
AcDbArc
 50
0.0
 51
34.3804964936
  0
ARC
  5
4DC
100
AcDbEntity
  8
3
100
AcDbCircle
 62
7
  6
BYLAYER
 10
181.2291181196
 20
219.3116451104
 40
0.5
100
AcDbArc
 50
90.0
 51
124.3122249242
  0
ARC
  5
4DD
100
AcDbEntity
  8
0
100
AcDbCircle
 62
7
  6
BYLAYER
 10
182.2286430765
 20
228.8111463211
 40
4.5
100
AcDbArc
 50
270.0
 51
90.0
  0
ARC
  5
4DE
100
AcDbEntity
  8
0
100
AcDbCircle
 62
7
  6
BYLAYER
 10
182.2286430765
 20
228.8111463211
 40
3.5
100
AcDbArc
 50
270.0
 51
90.0
  0
CIRCLE
  5
4DF
100
AcDbEntity
  8
0
100
AcDbCircle
 62
7
  6
BYLAYER
 10
182.2291181195
 20
228.8116451103
 40
3.3
  0
CIRCLE
  5
4E0
100
AcDbEntity
  8
0
100
AcDbCircle
 62
7
  6
BYLAYER
 10
182.2291181195
 20
228.8116451103
 40
2.2999997533
  0
ARC
  5
4E1
100
AcDbEntity
  8
0
100
AcDbCircle
 62
7
  6
BYLAYER
 10
179.7286430765
 20
224.3111463211
 40
1.0
100
AcDbArc
 50
90.0
 51
180.0
  0
ARC
  5
4E2
100
AcDbEntity
  8
0
100
AcDbCircle
 62
7
  6
BYLAYER
 10
183.0727224998
 20
233.1370255644
 40
3.9500500669
100
AcDbArc
 50
164.038910952
 51
169.8334702792
  0
ARC
  5
4E3
100
AcDbEntity
  8
0
100
AcDbCircle
 62
7
  6
BYLAYER
 10
182.8421461022
 20
233.1791830996
 40
3.7156528437
100
AcDbArc
 50
169.8457543515
 51
172.7878692921
  0
ARC
  5
4E4
100
AcDbEntity
  8
0
100
AcDbCircle
 62
7
  6
BYLAYER
 10
182.492575099
 20
237.3111463211
 40
1.9999999999
100
AcDbArc
 50
26.5650511771
 51
90.0
  0
ARC
  5
4E5
100
AcDbEntity
  8
0
100
AcDbCircle
 62
7
  6
BYLAYER
 10
182.237245902
 20
237.3111463211
 40
1.9999999999
100
AcDbArc
 50
90.0
 51
164.0546040991
  0
ARC
  5
4E6
100
AcDbEntity
  8
0
100
AcDbCircle
 62
7
  6
BYLAYER
 10
180.7172380528
 20
233.8111463211
 40
2.0
100
AcDbArc
 50
226.4791025172
 51
270.0
  0
ARC
  5
4E7
100
AcDbEntity
  8
3
100
AcDbCircle
 62
7
  6
BYLAYER
 10
182.2377209451
 20
237.3116451103
 40
2.0000000001
100
AcDbArc
 50
112.3053490832
 51
116.3564538856
  0
ARC
  5
4E8
100
AcDbEntity
  8
3
100
AcDbCircle
 62
7
  6
BYLAYER
 10
182.4940307211
 20
237.3116451104
 40
2.0
100
AcDbArc
 50
26.5650511771
 51
90.0
  0
ARC
  5
4E9
100
AcDbEntity
  8
0
100
AcDbCircle
 62
7
  6
BYLAYER
 10
180.7172380528
 20
233.8111463211
 40
1.5
100
AcDbArc
 50
164.0546040991
 51
270.0
  0
ARC
  5
4EA
100
AcDbEntity
  8
0
100
AcDbCircle
 62
7
  6
BYLAYER
 10
182.237245902
 20
237.3111463212
 40
0.9999999999
100
AcDbArc
 50
89.9999999985
 51
164.0546041026
  0
ARC
  5
4EB
100
AcDbEntity
  8
0
100
AcDbCircle
 62
7
  6
BYLAYER
 10
182.492575099
 20
237.3111463211
 40
1.0000000001
100
AcDbArc
 50
26.5650511787
 51
89.9999999981
  0
ARC
  5
4EC
100
AcDbEntity
  8
0
100
AcDbCircle
 62
7
  6
BYLAYER
 10
180.7172380528
 20
233.8111463212
 40
0.5
100
AcDbArc
 50
164.0546041055
 51
269.9371406544
  0
ARC
  5
4ED
100
AcDbEntity
  8
0
100
AcDbCircle
 62
7
  6
BYLAYER
 10
188.7286430765
 20
230.9105968747
 40
10.0
100
AcDbArc
 50
164.0546040991
 51
180.0
  0
ARC
  5
4EE
100
AcDbEntity
  8
0
100
AcDbCircle
 62
7
  6
BYLAYER
 10
188.7286430765
 20
230.9105968747
 40
9.5
100
AcDbArc
 50
171.2186899972
 51
180.0
  0
ARC
  5
4EF
100
AcDbEntity
  8
0
100
AcDbCircle
 62
7
  6
BYLAYER
 10
184.2286430765
 20
237.1931123324
 40
0.5
100
AcDbArc
 50
0.0
 51
26.5650511771
  0
ARC
  5
4F0
100
AcDbEntity
  8
3
100
AcDbCircle
 62
7
  6
BYLAYER
 10
184.2300986985
 20
237.1936111216
 40
0.5000000001
100
AcDbArc
 50
0.0
 51
26.565051178
  0
ARC
  5
4F1
100
AcDbEntity
  8
0
100
AcDbCircle
 62
7
  6
BYLAYER
 10
226.2286430765
 20
219.3111463211
 40
1.0
100
AcDbArc
 50
0.0
 51
90.0
  0
ARC
  5
4F2
100
AcDbEntity
  8
0
100
AcDbCircle
 62
7
  6
BYLAYER
 10
224.7286430765
 20
219.3111463211
 40
1.0
100
AcDbArc
 50
90.0
 51
180.0
  0
ARC
  5
4F3
100
AcDbEntity
  8
0
100
AcDbCircle
 62
7
  6
BYLAYER
 10
227.2286430766
 20
216.3111463211
 40
0.5
100
AcDbArc
 50
180.0
 51
269.9999997047
  0
ARC
  5
4F4
100
AcDbEntity
  8
0
100
AcDbCircle
 62
7
  6
BYLAYER
 10
226.2286430765
 20
219.3111463211
 40
0.5
100
AcDbArc
 50
0.0
 51
90.0
  0
ARC
  5
4F5
100
AcDbEntity
  8
0
100
AcDbCircle
 62
7
  6
BYLAYER
 10
224.7286430765
 20
219.3111463211
 40
0.5
100
AcDbArc
 50
90.0
 51
180.0
  0
ARC
  5
4F6
100
AcDbEntity
  8
0
100
AcDbCircle
 62
7
  6
BYLAYER
 10
227.2286430765
 20
207.3111463193
 40
0.5
100
AcDbArc
 50
89.9999998291
 51
179.9999997895
  0
ARC
  5
4F7
100
AcDbEntity
  8
3
100
AcDbCircle
 62
7
  6
BYLAYER
 10
224.7291181196
 20
219.3116451104
 40
0.5
100
AcDbArc
 50
90.0
 51
124.3122249242
  0
ARC
  5
4F8
100
AcDbEntity
  8
3
100
AcDbCircle
 62
7
  6
BYLAYER
 10
228.2291181196
 20
207.3116451104
 40
0.5
100
AcDbArc
 50
29.971917398
 51
58.228972791
  0
ARC
  5
4F9
100
AcDbEntity
  8
3
100
AcDbCircle
 62
7
  6
BYLAYER
 10
228.2291181196
 20
216.3116451104
 40
0.5
100
AcDbArc
 50
300.505696339
 51
328.2289727909
  0
ARC
  5
4FA
100
AcDbEntity
  8
0
100
AcDbCircle
 62
7
  6
BYLAYER
 10
218.7286430765
 20
230.9105968747
 40
10.0
100
AcDbArc
 50
0.0
 51
15.9453959009
  0
ARC
  5
4FB
100
AcDbEntity
  8
3
100
AcDbCircle
 62
7
  6
BYLAYER
 10
218.7291181198
 20
230.9110956639
 40
9.9999999998
100
AcDbArc
 50
0.0000000001
 51
15.9453959017
  0
ARC
  5
4FC
100
AcDbEntity
  8
0
100
AcDbCircle
 62
7
  6
BYLAYER
 10
218.7286430765
 20
230.9105968747
 40
9.5
100
AcDbArc
 50
0.0
 51
8.7813100028
  0
ARC
  5
4FD
100
AcDbEntity
  8
3
100
AcDbCircle
 62
7
  6
BYLAYER
 10
223.2281375405
 20
237.1936111216
 40
0.5
100
AcDbArc
 50
153.4349488241
 51
180.0000000003
  0
ARC
  5
4FE
100
AcDbEntity
  8
0
100
AcDbCircle
 62
7
  6
BYLAYER
 10
225.2286430765
 20
228.8111463211
 40
4.5
100
AcDbArc
 50
90.0
 51
270.0
  0
ARC
  5
4FF
100
AcDbEntity
  8
0
100
AcDbCircle
 62
7
  6
BYLAYER
 10
225.2286430765
 20
228.8111463211
 40
3.5
100
AcDbArc
 50
90.0
 51
270.0
  0
CIRCLE
  5
500
100
AcDbEntity
  8
0
100
AcDbCircle
 62
7
  6
BYLAYER
 10
225.2291181165
 20
228.8111344423
 40
3.3
  0
CIRCLE
  5
501
100
AcDbEntity
  8
0
100
AcDbCircle
 62
7
  6
BYLAYER
 10
225.2291181165
 20
228.8111344423
 40
2.2999997533
  0
ARC
  5
502
100
AcDbEntity
  8
0
100
AcDbCircle
 62
7
  6
BYLAYER
 10
227.7286430765
 20
224.3111463211
 40
1.0
100
AcDbArc
 50
0.0
 51
90.0
  0
ARC
  5
503
100
AcDbEntity
  8
0
100
AcDbCircle
 62
7
  6
BYLAYER
 10
224.3892398427
 20
233.1380273951
 40
3.9452702756
100
AcDbArc
 50
10.1642089632
 51
15.5537866514
  0
ARC
  5
504
100
AcDbEntity
  8
0
100
AcDbCircle
 62
7
  6
BYLAYER
 10
224.6152866201
 20
233.1792097661
 40
3.715503675
100
AcDbArc
 50
7.2120107034
 51
10.1542532993
  0
ARC
  5
505
100
AcDbEntity
  8
0
100
AcDbCircle
 62
7
  6
BYLAYER
 10
224.964711054
 20
237.3111463211
 40
1.9999999999
100
AcDbArc
 50
90.0
 51
153.4349488229
  0
ARC
  5
506
100
AcDbEntity
  8
0
100
AcDbCircle
 62
7
  6
BYLAYER
 10
225.220040251
 20
237.3111463211
 40
1.9999999999
100
AcDbArc
 50
15.9453959009
 51
90.0
  0
ARC
  5
507
100
AcDbEntity
  8
0
100
AcDbCircle
 62
7
  6
BYLAYER
 10
226.7400481002
 20
233.8111463211
 40
2.0
100
AcDbArc
 50
270.0
 51
313.5208974826
  0
ARC
  5
508
100
AcDbEntity
  8
3
100
AcDbCircle
 62
7
  6
BYLAYER
 10
224.964205518
 20
237.3116451104
 40
2.0
100
AcDbArc
 50
96.6887354304
 51
129.3673613923
  0
ARC
  5
509
100
AcDbEntity
  8
3
100
AcDbCircle
 62
7
  6
BYLAYER
 10
225.220515294
 20
237.3116451104
 40
2.0
100
AcDbArc
 50
15.9453959017
 51
43.4700561263
  0
ARC
  5
50A
100
AcDbEntity
  8
3
100
AcDbCircle
 62
7
  6
BYLAYER
 10
225.220515294
 20
237.3116451104
 40
2.0
100
AcDbArc
 50
62.4768037749
 51
90.0
  0
ARC
  5
50B
100
AcDbEntity
  8
0
100
AcDbCircle
 62
7
  6
BYLAYER
 10
226.7400481002
 20
233.8111463211
 40
1.5
100
AcDbArc
 50
270.0
 51
15.9453959009
  0
ARC
  5
50C
100
AcDbEntity
  8
0
100
AcDbCircle
 62
7
  6
BYLAYER
 10
224.964711054
 20
237.3111463211
 40
1.0
100
AcDbArc
 50
89.9999999991
 51
153.4349488198
  0
ARC
  5
50D
100
AcDbEntity
  8
0
100
AcDbCircle
 62
7
  6
BYLAYER
 10
225.220040251
 20
237.3111463212
 40
1.0
100
AcDbArc
 50
15.9453958953
 51
89.9999999991
  0
ARC
  5
50E
100
AcDbEntity
  8
0
100
AcDbCircle
 62
7
  6
BYLAYER
 10
223.2286430765
 20
237.1931123324
 40
0.5
100
AcDbArc
 50
153.4349488229
 51
180.0
  0
ARC
  5
50F
100
AcDbEntity
  8
0
100
AcDbCircle
 62
7
  6
BYLAYER
 10
226.7400481002
 20
233.8111463212
 40
0.5
100
AcDbArc
 50
270.0
 51
15.8825365487
  0
SPLINE
  5
510
100
AcDbEntity
  8
0
100
AcDbSpline
 62
7
  6
BYLAYER
 70
0
 71
3
 72
9
 73
5
 74
0
 42
0.0000001
 43
0.0000001
 44
0.0000000001
 40
0.0
 40
0.0
 40
0.0
 40
0.0
 40
0.4776140334
 40
1.0
 40
1.0
 40
1.0
 40
1.0
 10
228.2397440964
 20
233.7809483228
 30
0.0
 10
228.2392576817
 20
233.7567921731
 30
0.0
 10
228.2514273818
 20
233.7055296396
 30
0.0
 10
228.282784767
 20
233.6644394864
 30
0.0
 10
228.3013816696
 20
233.6456649128
 30
0.0
  0
SPLINE
  5
511
100
AcDbEntity
  8
0
100
AcDbSpline
 62
7
  6
BYLAYER
 70
0
 71
3
 72
22
 73
18
 74
0
 42
0.0000001
 43
0.0000001
 44
0.0000000001
 40
0.0
 40
0.0
 40
0.0
 40
0.0
 40
0.0013739336
 40
0.0054571829
 40
0.012210452
 40
0.021594451
 40
0.0335697002
 40
0.0480803492
 40
0.0843712521
 40
0.1297803234
 40
0.1835690301
 40
0.2448918286
 40
0.3128893789
 40
0.465491871
 40
0.6347422567
 40
0.8148625255
 40
1.0
 40
1.0
 40
1.0
 40
1.0
 10
179.2286430765
 20
207.8111463167
 30
0.0
 10
179.2291551122
 20
207.8111463167
 30
0.0
 10
179.2294339912
 20
207.8082463008
 30
0.0
 10
179.2321374052
 20
207.8052447053
 30
0.0
 10
179.2352018162
 20
207.7979371014
 30
0.0
 10
179.2400901977
 20
207.7888494148
 30
0.0
 10
179.2460439122
 20
207.7768109148
 30
0.0
 10
179.2565576188
 20
207.7559433255
 30
0.0
 10
179.2725573386
 20
207.7238344512
 30
0.0
 10
179.2950834651
 20
207.6786526797
 30
0.0
 10
179.3217458185
 20
207.6250972021
 30
0.0
 10
179.3521796353
 20
207.5640196015
 30
0.0
 10
179.399097442
 20
207.4700100594
 30
0.0
 10
179.4640995669
 20
207.340073498
 30
0.0
 10
179.5481026881
 20
207.1729185646
 30
0.0
 10
179.6365676666
 20
206.9944417259
 30
0.0
 10
179.697206512
 20
206.8725653591
 30
0.0
 10
179.7286430765
 20
206.8111463167
 30
0.0
  0
SPLINE
  5
512
100
AcDbEntity
  8
0
100
AcDbSpline
 62
7
  6
BYLAYER
 70
0
 71
3
 72
9
 73
5
 74
0
 42
0.0000001
 43
0.0000001
 44
0.0000000001
 40
0.0
 40
0.0
 40
0.0
 40
0.0
 40
0.4985317813
 40
1.0
 40
1.0
 40
1.0
 40
1.0
 10
179.3400002765
 20
232.3609000074
 30
0.0
 10
179.2410428061
 20
232.5550185982
 30
0.0
 10
179.1263703525
 20
232.987343971
 30
0.0
 10
179.1299254643
 20
233.4280401997
 30
0.0
 10
179.1559046233
 20
233.6456651196
 30
0.0
  0
SPLINE
  5
513
100
AcDbEntity
  8
0
100
AcDbSpline
 62
7
  6
BYLAYER
 70
0
 71
3
 72
9
 73
5
 74
0
 42
0.0000001
 43
0.0000001
 44
0.0000000001
 40
0.0
 40
0.0
 40
0.0
 40
0.0
 40
0.522377009
 40
1.0
 40
1.0
 40
1.0
 40
1.0
 10
179.1559044809
 20
233.6456650454
 30
0.0
 10
179.1745010586
 20
233.6644393073
 30
0.0
 10
179.2058586301
 20
233.7055292549
 30
0.0
 10
179.2180284716
 20
233.7567918502
 30
0.0
 10
179.217542054
 20
233.7809484558
 30
0.0
  0
SPLINE
  5
514
100
AcDbEntity
  8
0
100
AcDbSpline
 62
7
  6
BYLAYER
 70
0
 71
3
 72
17
 73
13
 74
0
 42
0.0000001
 43
0.0000001
 44
0.0000000001
 40
0.0
 40
0.0
 40
0.0
 40
0.0
 40
0.1671689366
 40
0.3304367472
 40
0.484554343
 40
0.6288375353
 40
0.7612061854
 40
0.8764770668
 40
0.9251467146
 40
0.9643278769
 40
0.9904777397
 40
1.0
 40
1.0
 40
1.0
 40
1.0
 10
179.2286430839
 20
225.8111463211
 30
0.0
 10
179.228643098
 20
225.7693133748
 30
0.0
 10
179.2497976816
 20
225.6867393574
 30
0.0
 10
179.3112986085
 20
225.5814736315
 30
0.0
 10
179.3883181528
 20
225.4944283598
 30
0.0
 10
179.472711149
 20
225.4266712196
 30
0.0
 10
179.5572405817
 20
225.3764678111
 30
0.0
 10
179.624900591
 20
225.3457255591
 30
0.0
 10
179.6726628308
 20
225.3283990665
 30
0.0
 10
179.699716107
 20
225.3191459056
 30
0.0
 10
179.7178149755
 20
225.3146068219
 30
0.0
 10
179.7262702827
 20
225.3113652709
 30
0.0
 10
179.7286430864
 20
225.3111463215
 30
0.0
  0
SPLINE
  5
515
100
AcDbEntity
  8
0
100
AcDbSpline
 62
7
  6
BYLAYER
 70
0
 71
3
 72
22
 73
18
 74
0
 42
0.0000001
 43
0.0000001
 44
0.0000000001
 40
0.0
 40
0.0
 40
0.0
 40
0.0
 40
0.0013937412
 40
0.0054853324
 40
0.0122389771
 40
0.0216182774
 40
0.0335866012
 40
0.0480909349
 40
0.0843737561
 40
0.1297830103
 40
0.1835808402
 40
0.244914507
 40
0.3129163949
 40
0.4655099382
 40
0.6347514786
 40
0.8148660513
 40
1.0
 40
1.0
 40
1.0
 40
1.0
 10
178.7286430765
 20
216.3111463211
 30
0.0
 10
178.7286430765
 20
216.3116657393
 30
0.0
 10
178.7315138899
 20
216.3120302549
 30
0.0
 10
178.7345550909
 20
216.3146839817
 30
0.0
 10
178.7418439195
 20
216.3177835025
 30
0.0
 10
178.7509430285
 20
216.3226427169
 30
0.0
 10
178.762979241
 20
216.3285850405
 30
0.0
 10
178.7838518797
 20
216.3390714819
 30
0.0
 10
178.8159641995
 20
216.355052177
 30
0.0
 10
178.8611435992
 20
216.3775843489
 30
0.0
 10
178.9146850124
 20
216.4042918888
 30
0.0
 10
178.9757472861
 20
216.4347769387
 30
0.0
 10
179.069741364
 20
216.481731187
 30
0.0
 10
179.1996826207
 20
216.5467130435
 30
0.0
 10
179.3668434962
 20
216.6306853331
 30
0.0
 10
179.5453299393
 20
216.719116319
 30
0.0
 10
179.6672170017
 20
216.7797262101
 30
0.0
 10
179.7286430765
 20
216.8111463211
 30
0.0
  0
SPLINE
  5
516
100
AcDbEntity
  8
0
100
AcDbSpline
 62
7
  6
BYLAYER
 70
0
 71
3
 72
22
 73
18
 74
0
 42
0.0000001
 43
0.0000001
 44
0.0000000001
 40
0.0
 40
0.0
 40
0.0
 40
0.0
 40
0.1851338762
 40
0.3652484349
 40
0.5344899923
 40
0.6870832401
 40
0.7550851998
 40
0.8164191675
 40
0.8702173078
 40
0.9156266927
 40
0.9519095159
 40
0.9664138403
 40
0.9783821657
 40
0.987761462
 40
0.9945150596
 40
0.9986065217
 40
1.0
 40
1.0
 40
1.0
 40
1.0
 10
179.7286430765
 20
206.8111463167
 30
0.0
 10
179.6672171851
 20
206.8425667228
 30
0.0
 10
179.5453301292
 20
206.9031765531
 30
0.0
 10
179.366844154
 20
206.9916084091
 30
0.0
 10
179.1996836295
 20
207.0755811442
 30
0.0
 10
179.0697412056
 20
207.1405604876
 30
0.0
 10
178.9757469811
 20
207.1875145001
 30
0.0
 10
178.9146849414
 20
207.2180005841
 30
0.0
 10
178.861143824
 20
207.2447093334
 30
0.0
 10
178.8159644566
 20
207.2672419354
 30
0.0
 10
178.7838519918
 20
207.2832224453
 30
0.0
 10
178.7629792898
 20
207.2937087463
 30
0.0
 10
178.7509430094
 20
207.2996509401
 30
0.0
 10
178.741844029
 20
207.3045103279
 30
0.0
 10
178.7345549574
 20
207.3076093005
 30
0.0
 10
178.7315142602
 20
207.3102635735
 30
0.0
 10
178.7286430765
 20
207.3106270009
 30
0.0
 10
178.7286430765
 20
207.3111463211
 30
0.0
  0
SPLINE
  5
517
100
AcDbEntity
  8
0
100
AcDbSpline
 62
7
  6
BYLAYER
 70
0
 71
3
 72
17
 73
13
 74
0
 42
0.0000001
 43
0.0000001
 44
0.0000000001
 40
0.0
 40
0.0
 40
0.0
 40
0.0
 40
0.0095222603
 40
0.0356721232
 40
0.0748532856
 40
0.1235229336
 40
0.2387938151
 40
0.3711624653
 40
0.5154456575
 40
0.6695632532
 40
0.8328310636
 40
1.0
 40
1.0
 40
1.0
 40
1.0
 10
179.7286430882
 20
192.3111463208
 30
0.0
 10
179.7262701957
 20
192.310928334
 30
0.0
 10
179.7178150934
 20
192.3076845573
 30
0.0
 10
179.6997160433
 20
192.3031474461
 30
0.0
 10
179.6726628576
 20
192.2938933018
 30
0.0
 10
179.6249005735
 20
192.2765672883
 30
0.0
 10
179.5572405908
 20
192.2458247467
 30
0.0
 10
179.4727111477
 20
192.1956214486
 30
0.0
 10
179.3883181546
 20
192.1278642744
 30
0.0
 10
179.3112986092
 20
192.0408190129
 30
0.0
 10
179.2497976826
 20
191.9355532841
 30
0.0
 10
179.2286430989
 20
191.8529792674
 30
0.0
 10
179.2286430848
 20
191.8111463211
 30
0.0
  0
SPLINE
  5
518
100
AcDbEntity
  8
0
100
AcDbSpline
 62
7
  6
BYLAYER
 70
0
 71
3
 72
17
 73
13
 74
0
 42
0.0000001
 43
0.0000001
 44
0.0000000001
 40
0.0
 40
0.0
 40
0.0
 40
0.0
 40
0.1671689366
 40
0.3304367472
 40
0.484554343
 40
0.6288375353
 40
0.7612061854
 40
0.8764770668
 40
0.9251467146
 40
0.9643278769
 40
0.9904777397
 40
1.0
 40
1.0
 40
1.0
 40
1.0
 10
186.2286430765
 20
184.8111463285
 30
0.0
 10
186.2704760228
 20
184.8111463426
 30
0.0
 10
186.3530500403
 20
184.8323009262
 30
0.0
 10
186.4583157662
 20
184.8938018531
 30
0.0
 10
186.5453610378
 20
184.9708213974
 30
0.0
 10
186.6131181783
 20
185.0552143935
 30
0.0
 10
186.6633215859
 20
185.1397438264
 30
0.0
 10
186.69406384
 20
185.2074038355
 30
0.0
 10
186.7113903292
 20
185.2551660756
 30
0.0
 10
186.720643497
 20
185.2822193512
 30
0.0
 10
186.725182567
 20
185.3003182209
 30
0.0
 10
186.7284241334
 20
185.3087735266
 30
0.0
 10
186.7286430762
 20
185.311146331
 30
0.0
  0
SPLINE
  5
519
100
AcDbEntity
  8
0
100
AcDbSpline
 62
7
  6
BYLAYER
 70
0
 71
3
 72
22
 73
18
 74
0
 42
0.0000001
 43
0.0000001
 44
0.0000000001
 40
0.0
 40
0.0
 40
0.0
 40
0.0
 40
0.0013780951
 40
0.0054640233
 40
0.012218842
 40
0.0216035597
 40
0.0335790025
 40
0.0480897727
 40
0.0843808725
 40
0.1297897982
 40
0.1835784405
 40
0.2449012548
 40
0.3128985398
 40
0.4655005256
 40
0.6347500129
 40
0.814865804
 40
1.0
 40
1.0
 40
1.0
 40
1.0
 10
207.7286430722
 20
184.8111463211
 30
0.0
 10
207.7286430722
 20
184.8116599079
 30
0.0
 10
207.7315375207
 20
184.811957097
 30
0.0
 10
207.7345467131
 20
184.8146526621
 30
0.0
 10
207.7418506463
 20
184.8177277295
 30
0.0
 10
207.7509404568
 20
184.8226143325
 30
0.0
 10
207.7629782965
 20
184.8285700595
 30
0.0
 10
207.7838462
 20
184.8390836627
 30
0.0
 10
207.8159551126
 20
184.8550834205
 30
0.0
 10
207.8611375329
 20
184.8776082908
 30
0.0
 10
207.914693637
 20
184.9042692553
 30
0.0
 10
207.9757716683
 20
184.9347019938
 30
0.0
 10
208.0697804943
 20
184.9816206768
 30
0.0
 10
208.1997168462
 20
185.0466218995
 30
0.0
 10
208.3668858065
 20
185.1305923303
 30
0.0
 10
208.5453648912
 20
185.2190454441
 30
0.0
 10
208.6672334155
 20
185.2796940614
 30
0.0
 10
208.7286430722
 20
185.3111463211
 30
0.0
  0
SPLINE
  5
51A
100
AcDbEntity
  8
0
100
AcDbSpline
 62
7
  6
BYLAYER
 70
0
 71
3
 72
22
 73
18
 74
0
 42
0.0000001
 43
0.0000001
 44
0.0000000001
 40
0.0
 40
0.0
 40
0.0
 40
0.0
 40
0.1851341321
 40
0.3652498439
 40
0.5344994793
 40
0.6871016522
 40
0.7550988852
 40
0.816421571
 40
0.8702101865
 40
0.9156193407
 40
0.9519107963
 40
0.9664217085
 40
0.9783972247
 40
0.9877819245
 40
0.9945366183
 40
0.9986222985
 40
1.0
 40
1.0
 40
1.0
 40
1.0
 10
179.7286430765
 20
216.8111463211
 30
0.0
 10
179.6971907094
 20
216.7497367481
 30
0.0
 10
179.6365424962
 20
216.6278680828
 30
0.0
 10
179.5480892527
 20
216.4493890666
 30
0.0
 10
179.4641182418
 20
216.2822202955
 30
0.0
 10
179.3991163343
 20
216.1522841721
 30
0.0
 10
179.3521979789
 20
216.0582751824
 30
0.0
 10
179.3217658805
 20
215.9971969205
 30
0.0
 10
179.2951053182
 20
215.9436405869
 30
0.0
 10
179.2725799016
 20
215.8984582091
 30
0.0
 10
179.2565792624
 20
215.8663494318
 30
0.0
 10
179.2460650076
 20
215.8454816222
 30
0.0
 10
179.2401091916
 20
215.8334437364
 30
0.0
 10
179.2352223033
 20
215.8243541204
 30
0.0
 10
179.23214823
 20
215.81704981
 30
0.0
 10
179.2294519439
 20
215.8140413207
 30
0.0
 10
179.2291565166
 20
215.8111463211
 30
0.0
 10
179.2286430765
 20
215.8111463211
 30
0.0
  0
SPLINE
  5
51B
100
AcDbEntity
  8
0
100
AcDbSpline
 62
7
  6
BYLAYER
 70
0
 71
3
 72
17
 73
13
 74
0
 42
0.0000001
 43
0.0000001
 44
0.0000000001
 40
0.0
 40
0.0
 40
0.0
 40
0.0
 40
0.0095222604
 40
0.0356721232
 40
0.0748532856
 40
0.1235229336
 40
0.2387938151
 40
0.3711624653
 40
0.5154456575
 40
0.6695632532
 40
0.8328310636
 40
1.0
 40
1.0
 40
1.0
 40
1.0
 10
220.7286430769
 20
185.3111463328
 30
0.0
 10
220.728861053
 20
185.3087734394
 30
0.0
 10
220.7321048542
 20
185.3003183393
 30
0.0
 10
220.7366419437
 20
185.2822192872
 30
0.0
 10
220.7458960988
 20
185.2551661024
 30
0.0
 10
220.7632221071
 20
185.2074038179
 30
0.0
 10
220.7939646519
 20
185.1397438355
 30
0.0
 10
220.8441679487
 20
185.0552143923
 30
0.0
 10
220.9119251233
 20
184.9708213992
 30
0.0
 10
220.9989703847
 20
184.8938018538
 30
0.0
 10
221.1042361136
 20
184.8323009272
 30
0.0
 10
221.1868101303
 20
184.8111463435
 30
0.0
 10
221.2286430765
 20
184.8111463294
 30
0.0
  0
SPLINE
  5
51C
100
AcDbEntity
  8
0
100
AcDbSpline
 62
7
  6
BYLAYER
 70
0
 71
3
 72
22
 73
18
 74
0
 42
0.0000001
 43
0.0000001
 44
0.0000000001
 40
0.0
 40
0.0
 40
0.0
 40
0.0
 40
0.0013739332
 40
0.0054571823
 40
0.0122104513
 40
0.0215944501
 40
0.0335696993
 40
0.0480803483
 40
0.0843712513
 40
0.1297803227
 40
0.1835690295
 40
0.2448918281
 40
0.3128893785
 40
0.4654918706
 40
0.6347422565
 40
0.8148625254
 40
1.0
 40
1.0
 40
1.0
 40
1.0
 10
228.2286430765
 20
215.8111463211
 30
0.0
 10
228.2281310409
 20
215.8111463211
 30
0.0
 10
228.2278521635
 20
215.8140463375
 30
0.0
 10
228.225148749
 20
215.8170479324
 30
0.0
 10
228.222084339
 20
215.8243555366
 30
0.0
 10
228.2171959575
 20
215.833443223
 30
0.0
 10
228.2112422432
 20
215.8454817232
 30
0.0
 10
228.2007285367
 20
215.8663493124
 30
0.0
 10
228.1847288167
 20
215.8984581868
 30
0.0
 10
228.1622026899
 20
215.9436399583
 30
0.0
 10
228.1355403363
 20
215.9971954359
 30
0.0
 10
228.1051065194
 20
216.0582730365
 30
0.0
 10
228.0581887129
 20
216.1522825789
 30
0.0
 10
227.9931865889
 20
216.2822191408
 30
0.0
 10
227.9091834694
 20
216.4493740752
 30
0.0
 10
227.8207184904
 20
216.6278509138
 30
0.0
 10
227.7600796426
 20
216.7497272795
 30
0.0
 10
227.7286430765
 20
216.8111463211
 30
0.0
  0
SPLINE
  5
51D
100
AcDbEntity
  8
0
100
AcDbSpline
 62
7
  6
BYLAYER
 70
0
 71
3
 72
22
 73
18
 74
0
 42
0.0000001
 43
0.0000001
 44
0.0000000001
 40
0.0
 40
0.0
 40
0.0
 40
0.0
 40
0.1851338761
 40
0.3652484348
 40
0.5344899919
 40
0.6870832396
 40
0.7550851991
 40
0.8164191666
 40
0.8702173066
 40
0.9156266911
 40
0.9519095141
 40
0.9664138384
 40
0.978382164
 40
0.9877614605
 40
0.9945150585
 40
0.9986065211
 40
1.0
 40
1.0
 40
1.0
 40
1.0
 10
227.7286430765
 20
216.8111463211
 30
0.0
 10
227.7900689692
 20
216.7797259178
 30
0.0
 10
227.9119560269
 20
216.7191160917
 30
0.0
 10
228.0904420022
 20
216.6306842371
 30
0.0
 10
228.2576025252
 20
216.5467114998
 30
0.0
 10
228.3875449484
 20
216.481732156
 30
0.0
 10
228.4815391727
 20
216.434778144
 30
0.0
 10
228.5426012123
 20
216.4042920607
 30
0.0
 10
228.5961423296
 20
216.3775833122
 30
0.0
 10
228.6413216969
 20
216.3550507111
 30
0.0
 10
228.6734341616
 20
216.3390702017
 30
0.0
 10
228.6943068636
 20
216.3285839008
 30
0.0
 10
228.7063431438
 20
216.3226417064
 30
0.0
 10
228.7154421245
 20
216.3177823184
 30
0.0
 10
228.7227311955
 20
216.314683344
 30
0.0
 10
228.7257718936
 20
216.3120290716
 30
0.0
 10
228.7286430765
 20
216.3116656416
 30
0.0
 10
228.7286430765
 20
216.3111463211
 30
0.0
  0
SPLINE
  5
51E
100
AcDbEntity
  8
0
100
AcDbSpline
 62
7
  6
BYLAYER
 70
0
 71
3
 72
22
 73
18
 74
0
 42
0.0000001
 43
0.0000001
 44
0.0000000001
 40
0.0
 40
0.0
 40
0.0
 40
0.0
 40
0.0013937405
 40
0.0054853313
 40
0.0122389757
 40
0.0216182757
 40
0.0335865994
 40
0.0480909331
 40
0.0843737545
 40
0.1297830091
 40
0.1835808394
 40
0.2449145064
 40
0.3129163945
 40
0.4655099379
 40
0.6347514784
 40
0.8148660512
 40
1.0
 40
1.0
 40
1.0
 40
1.0
 10
228.7286430765
 20
207.3111463211
 30
0.0
 10
228.7286430765
 20
207.3106269032
 30
0.0
 10
228.7257722624
 20
207.3102623902
 30
0.0
 10
228.7227310623
 20
207.3076086627
 30
0.0
 10
228.7154422331
 20
207.3045091438
 30
0.0
 10
228.7063431243
 20
207.2996499295
 30
0.0
 10
228.6943069117
 20
207.2937076064
 30
0.0
 10
228.673434273
 20
207.2832211651
 30
0.0
 10
228.6413219531
 20
207.2672404695
 30
0.0
 10
228.5961425533
 20
207.2447082967
 30
0.0
 10
228.54260114
 20
207.218000756
 30
0.0
 10
228.4815388663
 20
207.1875157054
 30
0.0
 10
228.3875447881
 20
207.1405614566
 30
0.0
 10
228.2576035308
 20
207.0755796004
 30
0.0
 10
228.0904426537
 20
206.9916073129
 30
0.0
 10
227.9119562108
 20
206.9031763257
 30
0.0
 10
227.7900691501
 20
206.8425664304
 30
0.0
 10
227.7286430765
 20
206.8111463167
 30
0.0
  0
SPLINE
  5
51F
100
AcDbEntity
  8
0
100
AcDbSpline
 62
7
  6
BYLAYER
 70
0
 71
3
 72
22
 73
18
 74
0
 42
0.0000001
 43
0.0000001
 44
0.0000000001
 40
0.0
 40
0.0
 40
0.0
 40
0.0
 40
0.0013937412
 40
0.0054853324
 40
0.0122389771
 40
0.0216182774
 40
0.0335866012
 40
0.0480909349
 40
0.0843737561
 40
0.1297830103
 40
0.1835808402
 40
0.244914507
 40
0.3129163948
 40
0.4655099381
 40
0.6347514783
 40
0.8148660512
 40
1.0
 40
1.0
 40
1.0
 40
1.0
 10
199.2286430765
 20
184.3111463211
 30
0.0
 10
199.2281236583
 20
184.3111463211
 30
0.0
 10
199.2277591428
 20
184.3140171345
 30
0.0
 10
199.2251054159
 20
184.3170583355
 30
0.0
 10
199.2220058952
 20
184.3243471641
 30
0.0
 10
199.2171466807
 20
184.3334462731
 30
0.0
 10
199.2112043571
 20
184.3454824856
 30
0.0
 10
199.2007179158
 20
184.3663551243
 30
0.0
 10
199.1847372207
 20
184.3984674441
 30
0.0
 10
199.1622050487
 20
184.4436468438
 30
0.0
 10
199.1354975089
 20
184.4971882569
 30
0.0
 10
199.105012459
 20
184.5582505306
 30
0.0
 10
199.0580582107
 20
184.6522446085
 30
0.0
 10
198.9930763542
 20
184.7821858651
 30
0.0
 10
198.9091040646
 20
184.9493467407
 30
0.0
 10
198.8206730787
 20
185.1278331838
 30
0.0
 10
198.7600631873
 20
185.2497202461
 30
0.0
 10
198.7286430765
 20
185.3111463211
 30
0.0
  0
SPLINE
  5
520
100
AcDbEntity
  8
0
100
AcDbSpline
 62
7
  6
BYLAYER
 70
0
 71
3
 72
22
 73
18
 74
0
 42
0.0000001
 43
0.0000001
 44
0.0000000001
 40
0.0
 40
0.0
 40
0.0
 40
0.0
 40
0.0012229801
 40
0.0048681901
 40
0.0109201372
 40
0.0193629053
 40
0.0301805348
 40
0.0433551762
 40
0.0766172256
 40
0.1187770334
 40
0.1694392249
 40
0.2280860898
 40
0.2941276698
 40
0.4457769851
 40
0.6184222788
 40
0.805624418
 40
1.0
 40
1.0
 40
1.0
 40
1.0
 10
184.675856672
 20
237.4167191301
 30
0.0
 10
184.6756730951
 20
237.4170862839
 30
0.0
 10
184.6736144446
 20
237.4153919052
 30
0.0
 10
184.6706544146
 20
237.4152826226
 30
0.0
 10
184.6646425069
 20
237.4125941396
 30
0.0
 10
184.6567715798
 20
237.4099966592
 30
0.0
 10
184.6464816061
 20
237.4061993585
 30
0.0
 10
184.6284239435
 20
237.3997378729
 30
0.0
 10
184.6004321494
 20
237.3896263102
 30
0.0
 10
184.560628161
 20
237.3752839281
 30
0.0
 10
184.5128091309
 20
237.3580083134
 30
0.0
 10
184.457458694
 20
237.3380029883
 30
0.0
 10
184.3702284989
 20
237.3064761333
 30
0.0
 10
184.2470033984
 20
237.2619729489
 30
0.0
 10
184.0855113234
 20
237.2037037156
 30
0.0
 10
183.9105736329
 20
237.1404461578
 30
0.0
 10
183.7900968561
 20
237.0969852513
 30
0.0
 10
183.7286430764
 20
237.0750783439
 30
0.0
  0
SPLINE
  5
521
100
AcDbEntity
  8
0
100
AcDbSpline
 62
7
  6
BYLAYER
 70
0
 71
3
 72
22
 73
18
 74
0
 42
0.0000001
 43
0.0000001
 44
0.0000000001
 40
0.0
 40
0.0
 40
0.0
 40
0.0
 40
0.185134132
 40
0.3652498437
 40
0.5344994789
 40
0.6871016519
 40
0.7550988848
 40
0.8164215705
 40
0.8702101858
 40
0.91561934
 40
0.9519107955
 40
0.9664217077
 40
0.9783972239
 40
0.9877819238
 40
0.9945366178
 40
0.9986222982
 40
1.0
 40
1.0
 40
1.0
 40
1.0
 10
227.7286430765
 20
206.8111463167
 30
0.0
 10
227.760095442
 20
206.8725558906
 30
0.0
 10
227.8207436529
 20
206.9944245569
 30
0.0
 10
227.9091968959
 20
207.1729035732
 30
0.0
 10
227.9931679085
 20
207.3400723433
 30
0.0
 10
228.0581698169
 20
207.4700084662
 30
0.0
 10
228.1050881725
 20
207.5640174558
 30
0.0
 10
228.1355202708
 20
207.6250957176
 30
0.0
 10
228.1621808329
 20
207.6786520511
 30
0.0
 10
228.1847062493
 20
207.7238344289
 30
0.0
 10
228.2007068884
 20
207.7559432061
 30
0.0
 10
228.2112211432
 20
207.7768110158
 30
0.0
 10
228.2171769595
 20
207.7888489015
 30
0.0
 10
228.2220638478
 20
207.7979385175
 30
0.0
 10
228.225137922
 20
207.8052428277
 30
0.0
 10
228.2278342077
 20
207.8082513175
 30
0.0
 10
228.2281296363
 20
207.8111463167
 30
0.0
 10
228.2286430765
 20
207.8111463167
 30
0.0
  0
SPLINE
  5
522
100
AcDbEntity
  8
0
100
AcDbSpline
 62
7
  6
BYLAYER
 70
0
 71
3
 72
17
 73
13
 74
0
 42
0.0000001
 43
0.0000001
 44
0.0000000001
 40
0.0
 40
0.0
 40
0.0
 40
0.0
 40
0.1671689366
 40
0.3304367472
 40
0.484554343
 40
0.6288375353
 40
0.7612061854
 40
0.8764770668
 40
0.9251467146
 40
0.9643278769
 40
0.9904777397
 40
1.0
 40
1.0
 40
1.0
 40
1.0
 10
228.2286430691
 20
191.8111463211
 30
0.0
 10
228.228643055
 20
191.8529792674
 30
0.0
 10
228.2074884714
 20
191.9355532848
 30
0.0
 10
228.1459875446
 20
192.0408190109
 30
0.0
 10
228.0689680002
 20
192.1278642819
 30
0.0
 10
227.9845750043
 20
192.1956214247
 30
0.0
 10
227.9000455707
 20
192.2458248247
 30
0.0
 10
227.8323855635
 20
192.2765670988
 30
0.0
 10
227.7846233203
 20
192.2938935548
 30
0.0
 10
227.757570051
 20
192.3031467908
 30
0.0
 10
227.7394711687
 20
192.307685724
 30
0.0
 10
227.7310158772
 20
192.3109274448
 30
0.0
 10
227.7286430666
 20
192.3111463208
 30
0.0
  0
SPLINE
  5
523
100
AcDbEntity
  8
0
100
AcDbSpline
 62
7
  6
BYLAYER
 70
0
 71
3
 72
22
 73
18
 74
0
 42
0.0000001
 43
0.0000001
 44
0.0000000001
 40
0.0
 40
0.0
 40
0.0
 40
0.0
 40
0.0012265565
 40
0.0048779505
 40
0.0109354567
 40
0.0193797841
 40
0.0301915835
 40
0.043351493
 40
0.0766107236
 40
0.1187876535
 40
0.1694341559
 40
0.2280911449
 40
0.294160722
 40
0.4457549265
 40
0.6184087297
 40
0.805728081
 40
1.0
 40
1.0
 40
1.0
 40
1.0
 10
222.781429481
 20
237.4167191301
 30
0.0
 10
222.7816135948
 20
237.4170873576
 30
0.0
 10
222.7836801724
 20
237.4154008775
 30
0.0
 10
222.786641355
 20
237.4152816145
 30
0.0
 10
222.7926577954
 20
237.4125927247
 30
0.0
 10
222.8005258632
 20
237.4099853265
 30
0.0
 10
222.810806285
 20
237.4061808471
 30
0.0
 10
222.8288493114
 20
237.3997016402
 30
0.0
 10
222.8568346373
 20
237.3895726693
 30
0.0
 10
222.8966365489
 20
237.3752258472
 30
0.0
 10
222.9444653198
 20
237.357965792
 30
0.0
 10
222.9998311964
 20
237.3379810172
 30
0.0
 10
223.0870666678
 20
237.3064855122
 30
0.0
 10
223.21030659
 20
237.262041763
 30
0.0
 10
223.3718632322
 20
237.2038814862
 30
0.0
 10
223.5467536143
 20
237.1404713555
 30
0.0
 10
223.6672215082
 20
237.0969720175
 30
0.0
 10
223.7286430767
 20
237.075078344
 30
0.0
  0
SPLINE
  5
524
100
AcDbEntity
  8
0
100
AcDbSpline
 62
7
  6
BYLAYER
 70
0
 71
3
 72
22
 73
18
 74
0
 42
0.0000001
 43
0.0000001
 44
0.0000000001
 40
0.0
 40
0.0
 40
0.0
 40
0.0
 40
0.185133876
 40
0.3652484345
 40
0.5344899915
 40
0.6870832391
 40
0.7550851985
 40
0.8164191657
 40
0.8702173054
 40
0.9156266895
 40
0.9519095122
 40
0.9664138365
 40
0.9783821622
 40
0.987761459
 40
0.9945150573
 40
0.9986065204
 40
1.0
 40
1.0
 40
1.0
 40
1.0
 10
208.7286430722
 20
185.3111463211
 30
0.0
 10
208.6972226713
 20
185.2497204274
 30
0.0
 10
208.6366128493
 20
185.1278333681
 30
0.0
 10
208.548180996
 20
184.9493473926
 30
0.0
 10
208.4642082566
 20
184.7821868712
 30
0.0
 10
208.3992289125
 20
184.6522444486
 30
0.0
 10
208.352274901
 20
184.5582502244
 30
0.0
 10
208.3217888184
 20
184.4971881849
 30
0.0
 10
208.2950800709
 20
184.4436470676
 30
0.0
 10
208.2725474708
 20
184.3984677003
 30
0.0
 10
208.2565669619
 20
184.3663552357
 30
0.0
 10
208.246080661
 20
184.3454825338
 30
0.0
 10
208.2401384661
 20
184.3334462537
 30
0.0
 10
208.235279078
 20
184.3243472728
 30
0.0
 10
208.2321801016
 20
184.3170582024
 30
0.0
 10
208.2295258299
 20
184.3140175032
 30
0.0
 10
208.2291623972
 20
184.3111463211
 30
0.0
 10
208.2286430765
 20
184.3111463211
 30
0.0
  0
SPLINE
  5
525
100
AcDbEntity
  8
0
100
AcDbSpline
 62
7
  6
BYLAYER
 70
0
 71
3
 72
9
 73
5
 74
0
 42
0.0000001
 43
0.0000001
 44
0.0000000001
 40
0.0
 40
0.0
 40
0.0
 40
0.0
 40
0.5014682389
 40
1.0
 40
1.0
 40
1.0
 40
1.0
 10
228.3013815382
 20
233.6456651151
 30
0.0
 10
228.3273607004
 20
233.428040186
 30
0.0
 10
228.3309158258
 20
232.9873439491
 30
0.0
 10
228.2162433377
 20
232.5550185927
 30
0.0
 10
228.1172858949
 20
232.3608999968
 30
0.0
  0
SPLINE
  5
526
100
AcDbEntity
  8
0
100
AcDbSpline
 62
7
  6
BYLAYER
 70
0
 71
3
 72
17
 73
13
 74
0
 42
0.0000001
 43
0.0000001
 44
0.0000000001
 40
0.0
 40
0.0
 40
0.0
 40
0.0
 40
0.0095222253
 40
0.0356720835
 40
0.074853258
 40
0.1235229208
 40
0.2387938098
 40
0.3711624545
 40
0.5154456485
 40
0.669563249
 40
0.8328310624
 40
1.0
 40
1.0
 40
1.0
 40
1.0
 10
227.7286430649
 20
225.3111463212
 30
0.0
 10
227.7310099523
 20
225.3114218915
 30
0.0
 10
227.7394789056
 20
225.3145325406
 30
0.0
 10
227.7575656652
 20
225.3191876319
 30
0.0
 10
227.784624981
 20
225.328382962
 30
0.0
 10
227.8323842923
 20
225.345737625
 30
0.0
 10
227.9000460834
 20
225.3764628496
 30
0.0
 10
227.9845748382
 20
225.4266727582
 30
0.0
 10
228.0689680459
 20
225.4944278943
 30
0.0
 10
228.145987533
 20
225.5814737622
 30
0.0
 10
228.2074884761
 20
225.6867393137
 30
0.0
 10
228.2286430657
 20
225.7693133744
 30
0.0
 10
228.2286430693
 20
225.8111463211
 30
0.0
  0
SPLINE
  5
527
100
AcDbEntity
  8
0
100
AcDbSpline
 62
7
  6
BYLAYER
 70
0
 71
3
 72
22
 73
18
 74
0
 42
0.0000001
 43
0.0000001
 44
0.0000000001
 40
0.0
 40
0.0
 40
0.0
 40
0.0
 40
0.1851375623
 40
0.3652578849
 40
0.5345082613
 40
0.6871108326
 40
0.7551083031
 40
0.8164309358
 40
0.87021957
 40
0.9156288122
 40
0.9519200154
 40
0.9664307943
 40
0.9784061215
 40
0.9877901222
 40
0.9945433048
 40
0.9986263675
 40
1.0
 40
1.0
 40
1.0
 40
1.0
 10
198.7286430765
 20
185.3111463211
 30
0.0
 10
198.7900620713
 20
185.2797095939
 30
0.0
 10
198.9119381665
 20
185.2190700893
 30
0.0
 10
199.0904151366
 20
185.1306052709
 30
0.0
 10
199.257570461
 20
185.0466028325
 30
0.0
 10
199.3875066561
 20
184.9815999883
 30
0.0
 10
199.4815162464
 20
184.9346824193
 30
0.0
 10
199.5425940357
 20
184.9042492492
 30
0.0
 10
199.5961497142
 20
184.877587357
 30
0.0
 10
199.6413314316
 20
184.8550607917
 30
0.0
 10
199.673440154
 20
184.8390602626
 30
0.0
 10
199.6943076405
 20
184.8285459357
 30
0.0
 10
199.7063461658
 20
184.8225920854
 30
0.0
 10
199.7154336954
 20
184.8177034284
 30
0.0
 10
199.7227415866
 20
184.8146397602
 30
0.0
 10
199.725742637
 20
184.8119357563
 30
0.0
 10
199.7286430765
 20
184.8116582446
 30
0.0
 10
199.7286430765
 20
184.8111463211
 30
0.0
  0
SPLINE
  5
528
100
AcDbEntity
  8
0
100
AcDbSpline
 62
7
  6
BYLAYER
 70
0
 71
3
 72
9
 73
5
 74
0
 42
0.0000001
 43
0.0000001
 44
0.0000000001
 40
0.0
 40
0.0
 40
0.0
 40
0.0
 40
0.4776140334
 40
1.0
 40
1.0
 40
1.0
 40
1.0
 10
80.5906132079
 20
233.7809483227
 30
0.0
 10
80.5901267932
 20
233.7567921731
 30
0.0
 10
80.6022964932
 20
233.7055296396
 30
0.0
 10
80.6336538785
 20
233.6644394864
 30
0.0
 10
80.652250781
 20
233.6456649128
 30
0.0
  0
SPLINE
  5
529
100
AcDbEntity
  8
0
100
AcDbSpline
 62
7
  6
BYLAYER
 70
0
 71
3
 72
22
 73
18
 74
0
 42
0.0000001
 43
0.0000001
 44
0.0000000001
 40
0.0
 40
0.0
 40
0.0
 40
0.0
 40
0.0013739335
 40
0.0054571828
 40
0.0122104519
 40
0.0215944509
 40
0.0335697001
 40
0.0480803491
 40
0.084371252
 40
0.1297803233
 40
0.18356903
 40
0.2448918285
 40
0.3128893789
 40
0.4654918709
 40
0.6347422566
 40
0.8148625255
 40
1.0
 40
1.0
 40
1.0
 40
1.0
 10
31.579512188
 20
207.8111463173
 30
0.0
 10
31.5800242237
 20
207.8111463173
 30
0.0
 10
31.5803031025
 20
207.8082463013
 30
0.0
 10
31.5830065165
 20
207.8052447059
 30
0.0
 10
31.5860709274
 20
207.7979371019
 30
0.0
 10
31.5909593089
 20
207.7888494154
 30
0.0
 10
31.5969130234
 20
207.7768109154
 30
0.0
 10
31.6074267299
 20
207.7559433261
 30
0.0
 10
31.6234264498
 20
207.7238344517
 30
0.0
 10
31.6459525763
 20
207.6786526803
 30
0.0
 10
31.6726149297
 20
207.6250972027
 30
0.0
 10
31.7030487466
 20
207.5640196021
 30
0.0
 10
31.7499665532
 20
207.4700100599
 30
0.0
 10
31.814968678
 20
207.3400734985
 30
0.0
 10
31.8989717989
 20
207.172918565
 30
0.0
 10
31.9874367775
 20
206.9944417262
 30
0.0
 10
32.0480756233
 20
206.8725653596
 30
0.0
 10
32.079512188
 20
206.8111463173
 30
0.0
  0
SPLINE
  5
52A
100
AcDbEntity
  8
0
100
AcDbSpline
 62
7
  6
BYLAYER
 70
0
 71
3
 72
9
 73
5
 74
0
 42
0.0000001
 43
0.0000001
 44
0.0000000001
 40
0.0
 40
0.0
 40
0.0
 40
0.0
 40
0.4985317813
 40
1.0
 40
1.0
 40
1.0
 40
1.0
 10
31.690869388
 20
232.3609000074
 30
0.0
 10
31.5919119176
 20
232.5550185982
 30
0.0
 10
31.4772394639
 20
232.987343971
 30
0.0
 10
31.4807945758
 20
233.4280401997
 30
0.0
 10
31.5067737348
 20
233.6456651196
 30
0.0
  0
SPLINE
  5
52B
100
AcDbEntity
  8
0
100
AcDbSpline
 62
7
  6
BYLAYER
 70
0
 71
3
 72
9
 73
5
 74
0
 42
0.0000001
 43
0.0000001
 44
0.0000000001
 40
0.0
 40
0.0
 40
0.0
 40
0.0
 40
0.5223742966
 40
1.0
 40
1.0
 40
1.0
 40
1.0
 10
31.5067735924
 20
233.6456650454
 30
0.0
 10
31.5253700796
 20
233.6644391993
 30
0.0
 10
31.5567275896
 20
233.7055291483
 30
0.0
 10
31.5688975849
 20
233.7567917158
 30
0.0
 10
31.5684111654
 20
233.7809484558
 30
0.0
  0
SPLINE
  5
52C
100
AcDbEntity
  8
0
100
AcDbSpline
 62
7
  6
BYLAYER
 70
0
 71
3
 72
17
 73
13
 74
0
 42
0.0000001
 43
0.0000001
 44
0.0000000001
 40
0.0
 40
0.0
 40
0.0
 40
0.0
 40
0.1671689366
 40
0.3304367472
 40
0.484554343
 40
0.6288375353
 40
0.7612061854
 40
0.8764770668
 40
0.9251467146
 40
0.9643278769
 40
0.9904777397
 40
1.0
 40
1.0
 40
1.0
 40
1.0
 10
31.5795121954
 20
225.8111463211
 30
0.0
 10
31.5795122095
 20
225.7693133748
 30
0.0
 10
31.6006667931
 20
225.6867393574
 30
0.0
 10
31.6621677199
 20
225.5814736315
 30
0.0
 10
31.7391872642
 20
225.4944283598
 30
0.0
 10
31.8235802604
 20
225.4266712195
 30
0.0
 10
31.9081096932
 20
225.3764678113
 30
0.0
 10
31.9757697024
 20
225.3457255586
 30
0.0
 10
32.0235319424
 20
225.3283990672
 30
0.0
 10
32.0505852184
 20
225.319145904
 30
0.0
 10
32.0686840872
 20
225.3146068248
 30
0.0
 10
32.0771393939
 20
225.3113652687
 30
0.0
 10
32.0795121979
 20
225.3111463215
 30
0.0
  0
SPLINE
  5
52D
100
AcDbEntity
  8
0
100
AcDbSpline
 62
7
  6
BYLAYER
 70
0
 71
3
 72
22
 73
18
 74
0
 42
0.0000001
 43
0.0000001
 44
0.0000000001
 40
0.0
 40
0.0
 40
0.0
 40
0.0
 40
0.0013937412
 40
0.0054853324
 40
0.0122389771
 40
0.0216182774
 40
0.0335866012
 40
0.0480909349
 40
0.0843737561
 40
0.1297830103
 40
0.1835808402
 40
0.244914507
 40
0.3129163948
 40
0.4655099381
 40
0.6347514783
 40
0.8148660512
 40
1.0
 40
1.0
 40
1.0
 40
1.0
 10
51.579512188
 20
184.3111463211
 30
0.0
 10
51.5789927698
 20
184.3111463211
 30
0.0
 10
51.5786282542
 20
184.3140171345
 30
0.0
 10
51.5759745274
 20
184.3170583355
 30
0.0
 10
51.5728750066
 20
184.3243471641
 30
0.0
 10
51.5680157922
 20
184.3334462731
 30
0.0
 10
51.5620734686
 20
184.3454824856
 30
0.0
 10
51.5515870273
 20
184.3663551243
 30
0.0
 10
51.5356063322
 20
184.3984674441
 30
0.0
 10
51.5130741602
 20
184.4436468438
 30
0.0
 10
51.4863666204
 20
184.4971882569
 30
0.0
 10
51.4558815705
 20
184.5582505306
 30
0.0
 10
51.4089273222
 20
184.6522446085
 30
0.0
 10
51.3439454656
 20
184.7821858651
 30
0.0
 10
51.2599731761
 20
184.9493467407
 30
0.0
 10
51.1715421902
 20
185.1278331838
 30
0.0
 10
51.1109322988
 20
185.2497202461
 30
0.0
 10
51.079512188
 20
185.3111463211
 30
0.0
  0
SPLINE
  5
52E
100
AcDbEntity
  8
0
100
AcDbSpline
 62
7
  6
BYLAYER
 70
0
 71
3
 72
22
 73
18
 74
0
 42
0.0000001
 43
0.0000001
 44
0.0000000001
 40
0.0
 40
0.0
 40
0.0
 40
0.0
 40
0.1851338761
 40
0.3652484349
 40
0.5344899922
 40
0.68708324
 40
0.7550851997
 40
0.8164191674
 40
0.8702173077
 40
0.9156266925
 40
0.9519095157
 40
0.9664138401
 40
0.9783821655
 40
0.9877614618
 40
0.9945150595
 40
0.9986065216
 40
1.0
 40
1.0
 40
1.0
 40
1.0
 10
32.079512188
 20
206.8111463173
 30
0.0
 10
32.0180862963
 20
206.8425667229
 30
0.0
 10
31.8961992401
 20
206.9031765525
 30
0.0
 10
31.7177132649
 20
206.9916084082
 30
0.0
 10
31.5505527406
 20
207.0755811437
 30
0.0
 10
31.4206103169
 20
207.1405604871
 30
0.0
 10
31.3266160924
 20
207.1875144997
 30
0.0
 10
31.2655540527
 20
207.2180005837
 30
0.0
 10
31.2120129354
 20
207.2447093329
 30
0.0
 10
31.166833568
 20
207.2672419349
 30
0.0
 10
31.1347211032
 20
207.2832224448
 30
0.0
 10
31.1138484012
 20
207.2937087458
 30
0.0
 10
31.1018121208
 20
207.2996509397
 30
0.0
 10
31.0927131404
 20
207.3045103275
 30
0.0
 10
31.0854240689
 20
207.3076093003
 30
0.0
 10
31.0823833716
 20
207.3102635733
 30
0.0
 10
31.079512188
 20
207.3106270009
 30
0.0
 10
31.079512188
 20
207.3111463211
 30
0.0
  0
SPLINE
  5
52F
100
AcDbEntity
  8
0
100
AcDbSpline
 62
7
  6
BYLAYER
 70
0
 71
3
 72
17
 73
13
 74
0
 42
0.0000001
 43
0.0000001
 44
0.0000000001
 40
0.0
 40
0.0
 40
0.0
 40
0.0
 40
0.0095222603
 40
0.0356721232
 40
0.0748532856
 40
0.1235229336
 40
0.2387938151
 40
0.3711624653
 40
0.5154456575
 40
0.6695632532
 40
0.8328310636
 40
1.0
 40
1.0
 40
1.0
 40
1.0
 10
32.0795121997
 20
192.3111463208
 30
0.0
 10
32.0771393033
 20
192.3109283764
 30
0.0
 10
32.06868421
 20
192.3076845017
 30
0.0
 10
32.0505851519
 20
192.3031474774
 30
0.0
 10
32.0235319702
 20
192.2938932898
 30
0.0
 10
31.9757696842
 20
192.2765672973
 30
0.0
 10
31.9081097026
 20
192.2458247429
 30
0.0
 10
31.8235802591
 20
192.1956214498
 30
0.0
 10
31.7391872661
 20
192.1278642741
 30
0.0
 10
31.6621677207
 20
192.040819013
 30
0.0
 10
31.600666794
 20
191.9355532841
 30
0.0
 10
31.5795122104
 20
191.8529792674
 30
0.0
 10
31.5795121963
 20
191.8111463211
 30
0.0
  0
SPLINE
  5
530
100
AcDbEntity
  8
0
100
AcDbSpline
 62
7
  6
BYLAYER
 70
0
 71
3
 72
17
 73
13
 74
0
 42
0.0000001
 43
0.0000001
 44
0.0000000001
 40
0.0
 40
0.0
 40
0.0
 40
0.0
 40
0.1671689366
 40
0.3304367472
 40
0.484554343
 40
0.6288375353
 40
0.7612061854
 40
0.8764770668
 40
0.9251467146
 40
0.9643278769
 40
0.9904777397
 40
1.0
 40
1.0
 40
1.0
 40
1.0
 10
38.579512188
 20
184.8111463285
 30
0.0
 10
38.6213451343
 20
184.8111463426
 30
0.0
 10
38.7039191517
 20
184.8323009262
 30
0.0
 10
38.8091848777
 20
184.8938018531
 30
0.0
 10
38.8962301491
 20
184.9708213974
 30
0.0
 10
38.9639872903
 20
185.0552143935
 30
0.0
 10
39.0141906955
 20
185.1397438265
 30
0.0
 10
39.0449329562
 20
185.207403835
 30
0.0
 10
39.0622594344
 20
185.2551660762
 30
0.0
 10
39.0715126247
 20
185.2822193497
 30
0.0
 10
39.0760516496
 20
185.3003182235
 30
0.0
 10
39.0792932669
 20
185.3087735246
 30
0.0
 10
39.0795121876
 20
185.3111463311
 30
0.0
  0
SPLINE
  5
531
100
AcDbEntity
  8
0
100
AcDbSpline
 62
7
  6
BYLAYER
 70
0
 71
3
 72
22
 73
18
 74
0
 42
0.0000001
 43
0.0000001
 44
0.0000000001
 40
0.0
 40
0.0
 40
0.0
 40
0.0
 40
0.0013780949
 40
0.0054640231
 40
0.0122188417
 40
0.0216035593
 40
0.0335790021
 40
0.0480897724
 40
0.0843808722
 40
0.1297897979
 40
0.1835784403
 40
0.2449012547
 40
0.3128985396
 40
0.4655005255
 40
0.6347500129
 40
0.814865804
 40
1.0
 40
1.0
 40
1.0
 40
1.0
 10
60.0795121813
 20
184.8111463211
 30
0.0
 10
60.0795121813
 20
184.8116599078
 30
0.0
 10
60.0824066299
 20
184.8119570964
 30
0.0
 10
60.0854158221
 20
184.8146526616
 30
0.0
 10
60.0927197554
 20
184.8177277286
 30
0.0
 10
60.1018095658
 20
184.8226143317
 30
0.0
 10
60.1138474056
 20
184.8285700585
 30
0.0
 10
60.1347153091
 20
184.8390836616
 30
0.0
 10
60.1668242218
 20
184.8550834195
 30
0.0
 10
60.2120066421
 20
184.8776082899
 30
0.0
 10
60.2655627462
 20
184.9042692546
 30
0.0
 10
60.3266407775
 20
184.9347019931
 30
0.0
 10
60.4206496036
 20
184.981620676
 30
0.0
 10
60.5505859558
 20
185.0466218982
 30
0.0
 10
60.7177549166
 20
185.130592328
 30
0.0
 10
60.8962340013
 20
185.219045442
 30
0.0
 10
61.018102525
 20
185.2796940605
 30
0.0
 10
61.0795121813
 20
185.3111463211
 30
0.0
  0
SPLINE
  5
532
100
AcDbEntity
  8
0
100
AcDbSpline
 62
7
  6
BYLAYER
 70
0
 71
3
 72
22
 73
18
 74
0
 42
0.0000001
 43
0.0000001
 44
0.0000000001
 40
0.0
 40
0.0
 40
0.0
 40
0.0
 40
0.1851343917
 40
0.3652510359
 40
0.5345021077
 40
0.6871063625
 40
0.7551025678
 40
0.8164223315
 40
0.8702078992
 40
0.9156155503
 40
0.9519070553
 40
0.9664183431
 40
0.9783943484
 40
0.9877796183
 40
0.9945349719
 40
0.9986214129
 40
1.0
 40
1.0
 40
1.0
 40
1.0
 10
32.079512188
 20
216.8111463211
 30
0.0
 10
32.0480901394
 20
216.7497211166
 30
0.0
 10
31.9874834505
 20
216.6278315546
 30
0.0
 10
31.8990198486
 20
216.4493564104
 30
0.0
 10
31.8149874562
 20
216.2822165876
 30
0.0
 10
31.7499666451
 20
216.1522888566
 30
0.0
 10
31.7030523646
 20
216.0582786026
 30
0.0
 10
31.6726306521
 20
215.9971980753
 30
0.0
 10
31.6459811672
 20
215.9436393365
 30
0.0
 10
31.6234605576
 20
215.8984564313
 30
0.0
 10
31.6074592387
 20
215.8663484445
 30
0.0
 10
31.5969431558
 20
215.8454811603
 30
0.0
 10
31.5909855565
 20
215.8334435888
 30
0.0
 10
31.5860977848
 20
215.824353668
 30
0.0
 10
31.5830206361
 20
215.8170501405
 30
0.0
 10
31.5803252638
 20
215.8140402319
 30
0.0
 10
31.5800259582
 20
215.8111463211
 30
0.0
 10
31.579512188
 20
215.8111463211
 30
0.0
  0
SPLINE
  5
533
100
AcDbEntity
  8
0
100
AcDbSpline
 62
7
  6
BYLAYER
 70
0
 71
3
 72
17
 73
13
 74
0
 42
0.0000001
 43
0.0000001
 44
0.0000000001
 40
0.0
 40
0.0
 40
0.0
 40
0.0
 40
0.0095222604
 40
0.0356721232
 40
0.0748532856
 40
0.1235229336
 40
0.2387938151
 40
0.3711624653
 40
0.5154456575
 40
0.6695632532
 40
0.8328310636
 40
1.0
 40
1.0
 40
1.0
 40
1.0
 10
73.0795121884
 20
185.3111463328
 30
0.0
 10
73.079729639
 20
185.3087733912
 30
0.0
 10
73.0829746551
 20
185.3003184026
 30
0.0
 10
73.0875106679
 20
185.2822192517
 30
0.0
 10
73.0967653597
 20
185.2551661162
 30
0.0
 10
73.1140911065
 20
185.2074038077
 30
0.0
 10
73.1448338094
 20
185.1397438397
 30
0.0
 10
73.1950370459
 20
185.055214391
 30
0.0
 10
73.262794239
 20
184.9708213996
 30
0.0
 10
73.349839495
 20
184.8938018537
 30
0.0
 10
73.4551052254
 20
184.8323009272
 30
0.0
 10
73.5376792418
 20
184.8111463435
 30
0.0
 10
73.579512188
 20
184.8111463294
 30
0.0
  0
SPLINE
  5
534
100
AcDbEntity
  8
0
100
AcDbSpline
 62
7
  6
BYLAYER
 70
0
 71
3
 72
22
 73
18
 74
0
 42
0.0000001
 43
0.0000001
 44
0.0000000001
 40
0.0
 40
0.0
 40
0.0
 40
0.0
 40
0.0013739332
 40
0.0054571823
 40
0.0122104512
 40
0.0215944501
 40
0.0335696993
 40
0.0480803483
 40
0.0843712513
 40
0.1297803227
 40
0.1835690295
 40
0.2448918281
 40
0.3128893785
 40
0.4654918706
 40
0.6347422565
 40
0.8148625254
 40
1.0
 40
1.0
 40
1.0
 40
1.0
 10
80.579512188
 20
215.8111463211
 30
0.0
 10
80.5790001524
 20
215.8111463211
 30
0.0
 10
80.5787212749
 20
215.8140463375
 30
0.0
 10
80.5760178605
 20
215.8170479324
 30
0.0
 10
80.5729534505
 20
215.8243555366
 30
0.0
 10
80.568065069
 20
215.833443223
 30
0.0
 10
80.5621113547
 20
215.8454817232
 30
0.0
 10
80.5515976482
 20
215.8663493124
 30
0.0
 10
80.5355979282
 20
215.8984581868
 30
0.0
 10
80.5130718014
 20
215.9436399583
 30
0.0
 10
80.4864094478
 20
215.9971954359
 30
0.0
 10
80.4559756309
 20
216.0582730365
 30
0.0
 10
80.4090578244
 20
216.1522825789
 30
0.0
 10
80.3440557004
 20
216.2822191408
 30
0.0
 10
80.2600525809
 20
216.4493740752
 30
0.0
 10
80.1715876019
 20
216.6278509138
 30
0.0
 10
80.1109487541
 20
216.7497272795
 30
0.0
 10
80.079512188
 20
216.8111463211
 30
0.0
  0
SPLINE
  5
535
100
AcDbEntity
  8
0
100
AcDbSpline
 62
7
  6
BYLAYER
 70
0
 71
3
 72
22
 73
18
 74
0
 42
0.0000001
 43
0.0000001
 44
0.0000000001
 40
0.0
 40
0.0
 40
0.0
 40
0.0
 40
0.1851338761
 40
0.3652484348
 40
0.5344899919
 40
0.6870832396
 40
0.7550851991
 40
0.8164191666
 40
0.8702173066
 40
0.9156266911
 40
0.9519095141
 40
0.9664138384
 40
0.978382164
 40
0.9877614605
 40
0.9945150585
 40
0.9986065211
 40
1.0
 40
1.0
 40
1.0
 40
1.0
 10
80.079512188
 20
216.8111463211
 30
0.0
 10
80.1409380807
 20
216.7797259178
 30
0.0
 10
80.2628251384
 20
216.7191160917
 30
0.0
 10
80.4413111137
 20
216.6306842371
 30
0.0
 10
80.6084716366
 20
216.5467114998
 30
0.0
 10
80.7384140598
 20
216.481732156
 30
0.0
 10
80.8324082842
 20
216.434778144
 30
0.0
 10
80.8934703238
 20
216.4042920607
 30
0.0
 10
80.9470114411
 20
216.3775833122
 30
0.0
 10
80.9921908084
 20
216.3550507111
 30
0.0
 10
81.0243032731
 20
216.3390702017
 30
0.0
 10
81.045175975
 20
216.3285839008
 30
0.0
 10
81.0572122553
 20
216.3226417064
 30
0.0
 10
81.0663112359
 20
216.3177823184
 30
0.0
 10
81.073600307
 20
216.314683344
 30
0.0
 10
81.0766410051
 20
216.3120290716
 30
0.0
 10
81.079512188
 20
216.3116656416
 30
0.0
 10
81.079512188
 20
216.3111463211
 30
0.0
  0
SPLINE
  5
536
100
AcDbEntity
  8
0
100
AcDbSpline
 62
7
  6
BYLAYER
 70
0
 71
3
 72
22
 73
18
 74
0
 42
0.0000001
 43
0.0000001
 44
0.0000000001
 40
0.0
 40
0.0
 40
0.0
 40
0.0
 40
0.0013937406
 40
0.0054853314
 40
0.0122389758
 40
0.0216182759
 40
0.0335865996
 40
0.0480909333
 40
0.0843737547
 40
0.1297830092
 40
0.1835808395
 40
0.2449145065
 40
0.3129163946
 40
0.465509938
 40
0.6347514785
 40
0.8148660512
 40
1.0
 40
1.0
 40
1.0
 40
1.0
 10
81.079512188
 20
207.3111463211
 30
0.0
 10
81.079512188
 20
207.3106269031
 30
0.0
 10
81.0766413739
 20
207.3102623899
 30
0.0
 10
81.0736001738
 20
207.3076086625
 30
0.0
 10
81.0663113446
 20
207.3045091434
 30
0.0
 10
81.0572122358
 20
207.2996499291
 30
0.0
 10
81.0451760233
 20
207.2937076059
 30
0.0
 10
81.0243033845
 20
207.2832211646
 30
0.0
 10
80.9921910646
 20
207.267240469
 30
0.0
 10
80.9470116648
 20
207.2447082962
 30
0.0
 10
80.8934702517
 20
207.2180007555
 30
0.0
 10
80.8324079779
 20
207.187515705
 30
0.0
 10
80.7384138998
 20
207.1405614562
 30
0.0
 10
80.6084726426
 20
207.0755795999
 30
0.0
 10
80.4413117657
 20
206.9916073121
 30
0.0
 10
80.2628253228
 20
206.9031763251
 30
0.0
 10
80.1409382618
 20
206.8425664306
 30
0.0
 10
80.079512188
 20
206.8111463173
 30
0.0
  0
SPLINE
  5
537
100
AcDbEntity
  8
0
100
AcDbSpline
 62
7
  6
BYLAYER
 70
0
 71
3
 72
22
 73
18
 74
0
 42
0.0000001
 43
0.0000001
 44
0.0000000001
 40
0.0
 40
0.0
 40
0.0
 40
0.0
 40
0.0012229801
 40
0.0048681901
 40
0.0109201372
 40
0.0193629053
 40
0.0301805348
 40
0.0433551763
 40
0.0766172256
 40
0.1187770334
 40
0.1694392249
 40
0.2280860898
 40
0.2941276698
 40
0.4457769851
 40
0.6184222788
 40
0.8056244181
 40
1.0
 40
1.0
 40
1.0
 40
1.0
 10
37.0267257835
 20
237.4167191301
 30
0.0
 10
37.0265422066
 20
237.4170862839
 30
0.0
 10
37.0244835561
 20
237.4153919052
 30
0.0
 10
37.021523526
 20
237.4152826226
 30
0.0
 10
37.0155116184
 20
237.4125941397
 30
0.0
 10
37.0076406913
 20
237.4099966592
 30
0.0
 10
36.9973507176
 20
237.4061993585
 30
0.0
 10
36.9792930549
 20
237.399737873
 30
0.0
 10
36.9513012609
 20
237.3896263102
 30
0.0
 10
36.9114972725
 20
237.3752839282
 30
0.0
 10
36.8636782423
 20
237.3580083135
 30
0.0
 10
36.8083278054
 20
237.3380029884
 30
0.0
 10
36.7210976103
 20
237.3064761334
 30
0.0
 10
36.5978725099
 20
237.2619729489
 30
0.0
 10
36.4363804349
 20
237.2037037156
 30
0.0
 10
36.2614427444
 20
237.1404461578
 30
0.0
 10
36.1409659675
 20
237.0969852513
 30
0.0
 10
36.0795121878
 20
237.075078344
 30
0.0
  0
SPLINE
  5
538
100
AcDbEntity
  8
0
100
AcDbSpline
 62
7
  6
BYLAYER
 70
0
 71
3
 72
22
 73
18
 74
0
 42
0.0000001
 43
0.0000001
 44
0.0000000001
 40
0.0
 40
0.0
 40
0.0
 40
0.0
 40
0.185134132
 40
0.3652498437
 40
0.534499479
 40
0.6871016519
 40
0.7550988848
 40
0.8164215706
 40
0.8702101859
 40
0.9156193401
 40
0.9519107956
 40
0.9664217078
 40
0.978397224
 40
0.9877819239
 40
0.9945366178
 40
0.9986222982
 40
1.0
 40
1.0
 40
1.0
 40
1.0
 10
80.079512188
 20
206.8111463173
 30
0.0
 10
80.1109645537
 20
206.8725558911
 30
0.0
 10
80.171612765
 20
206.9944245573
 30
0.0
 10
80.260066008
 20
207.1729035735
 30
0.0
 10
80.3440370204
 20
207.3400723438
 30
0.0
 10
80.4090389287
 20
207.4700084668
 30
0.0
 10
80.4559572843
 20
207.5640174563
 30
0.0
 10
80.4863893826
 20
207.6250957181
 30
0.0
 10
80.5130499447
 20
207.6786520517
 30
0.0
 10
80.5355753611
 20
207.7238344295
 30
0.0
 10
80.5515760002
 20
207.7559432067
 30
0.0
 10
80.562090255
 20
207.7768110163
 30
0.0
 10
80.5680460713
 20
207.7888489021
 30
0.0
 10
80.5729329596
 20
207.7979385181
 30
0.0
 10
80.5760070337
 20
207.8052428283
 30
0.0
 10
80.5787033194
 20
207.808251318
 30
0.0
 10
80.5789987478
 20
207.8111463173
 30
0.0
 10
80.579512188
 20
207.8111463173
 30
0.0
  0
SPLINE
  5
539
100
AcDbEntity
  8
0
100
AcDbSpline
 62
7
  6
BYLAYER
 70
0
 71
3
 72
17
 73
13
 74
0
 42
0.0000001
 43
0.0000001
 44
0.0000000001
 40
0.0
 40
0.0
 40
0.0
 40
0.0
 40
0.1671689366
 40
0.3304367472
 40
0.484554343
 40
0.6288375353
 40
0.7612061854
 40
0.8764770668
 40
0.9251467146
 40
0.9643278769
 40
0.9904777397
 40
1.0
 40
1.0
 40
1.0
 40
1.0
 10
80.5795121806
 20
191.8111463211
 30
0.0
 10
80.5795121665
 20
191.8529792674
 30
0.0
 10
80.5583575829
 20
191.9355532848
 30
0.0
 10
80.4968566561
 20
192.0408190109
 30
0.0
 10
80.4198371117
 20
192.1278642821
 30
0.0
 10
80.3354441157
 20
192.1956214239
 30
0.0
 10
80.2509146824
 20
192.2458248271
 30
0.0
 10
80.1832546744
 20
192.2765670931
 30
0.0
 10
80.1354924325
 20
192.2938935625
 30
0.0
 10
80.1084391607
 20
192.3031467709
 30
0.0
 10
80.0903402834
 20
192.3076857593
 30
0.0
 10
80.0818849862
 20
192.3109274179
 30
0.0
 10
80.0795121781
 20
192.3111463208
 30
0.0
  0
SPLINE
  5
53A
100
AcDbEntity
  8
0
100
AcDbSpline
 62
7
  6
BYLAYER
 70
0
 71
3
 72
22
 73
18
 74
0
 42
0.0000001
 43
0.0000001
 44
0.0000000001
 40
0.0
 40
0.0
 40
0.0
 40
0.0
 40
0.0013939185
 40
0.0054856264
 40
0.0122393665
 40
0.021618772
 40
0.0335872419
 40
0.0480917826
 40
0.084374888
 40
0.1297836423
 40
0.1835800709
 40
0.2449124233
 40
0.3129141001
 40
0.4655094452
 40
0.6347514175
 40
0.8148658738
 40
1.0
 40
1.0
 40
1.0
 40
1.0
 10
31.079512188
 20
216.3111463211
 30
0.0
 10
31.079512188
 20
216.3116658054
 30
0.0
 10
31.0823828174
 20
216.3120309651
 30
0.0
 10
31.0854243652
 20
216.3146843671
 30
0.0
 10
31.0927130973
 20
216.3177842995
 30
0.0
 10
31.1018122975
 20
216.3226436407
 30
0.0
 10
31.1138484193
 20
216.3285865185
 30
0.0
 10
31.1347208093
 20
216.3390739939
 30
0.0
 10
31.1668327573
 20
216.3550554289
 30
0.0
 10
31.2120128135
 20
216.377584938
 30
0.0
 10
31.2655563432
 20
216.4042855539
 30
0.0
 10
31.326620306
 20
216.4347647846
 30
0.0
 10
31.4206138415
 20
216.4817203622
 30
0.0
 10
31.5505489267
 20
216.546716245
 30
0.0
 10
31.717711871
 20
216.6306861868
 30
0.0
 10
31.896200032
 20
216.7191141345
 30
0.0
 10
32.0180863532
 20
216.7797255898
 30
0.0
 10
32.079512188
 20
216.8111463211
 30
0.0
  0
SPLINE
  5
53B
100
AcDbEntity
  8
0
100
AcDbSpline
 62
7
  6
BYLAYER
 70
0
 71
3
 72
22
 73
18
 74
0
 42
0.0000001
 43
0.0000001
 44
0.0000000001
 40
0.0
 40
0.0
 40
0.0
 40
0.0
 40
0.0012265565
 40
0.0048779506
 40
0.0109354567
 40
0.0193797841
 40
0.0301915835
 40
0.043351493
 40
0.0766107236
 40
0.1187876535
 40
0.1694341559
 40
0.228091145
 40
0.294160722
 40
0.4457549265
 40
0.6184087297
 40
0.805728081
 40
1.0
 40
1.0
 40
1.0
 40
1.0
 10
75.1322985925
 20
237.4167191301
 30
0.0
 10
75.1324827062
 20
237.4170873576
 30
0.0
 10
75.1345492838
 20
237.4154008776
 30
0.0
 10
75.1375104665
 20
237.4152816146
 30
0.0
 10
75.1435269069
 20
237.4125927247
 30
0.0
 10
75.1513949747
 20
237.4099853266
 30
0.0
 10
75.1616753965
 20
237.4061808472
 30
0.0
 10
75.1797184229
 20
237.3997016402
 30
0.0
 10
75.2077037489
 20
237.3895726694
 30
0.0
 10
75.2475056605
 20
237.3752258473
 30
0.0
 10
75.2953344314
 20
237.3579657921
 30
0.0
 10
75.3507003079
 20
237.3379810173
 30
0.0
 10
75.4379357793
 20
237.3064855123
 30
0.0
 10
75.5611757016
 20
237.2620417632
 30
0.0
 10
75.7227323438
 20
237.2038814863
 30
0.0
 10
75.8976227258
 20
237.1404713555
 30
0.0
 10
76.0180906196
 20
237.0969720173
 30
0.0
 10
76.0795121881
 20
237.0750783438
 30
0.0
  0
SPLINE
  5
53C
100
AcDbEntity
  8
0
100
AcDbSpline
 62
7
  6
BYLAYER
 70
0
 71
3
 72
22
 73
18
 74
0
 42
0.0000001
 43
0.0000001
 44
0.0000000001
 40
0.0
 40
0.0
 40
0.0
 40
0.0
 40
0.185133876
 40
0.3652484344
 40
0.5344899914
 40
0.6870832389
 40
0.7550851981
 40
0.8164191652
 40
0.8702173047
 40
0.9156266886
 40
0.9519095111
 40
0.9664138355
 40
0.9783821612
 40
0.9877614581
 40
0.9945150567
 40
0.9986065201
 40
1.0
 40
1.0
 40
1.0
 40
1.0
 10
61.0795121813
 20
185.3111463211
 30
0.0
 10
61.0480917818
 20
185.2497204267
 30
0.0
 10
60.987481962
 20
185.1278333665
 30
0.0
 10
60.8990501095
 20
184.9493473909
 30
0.0
 10
60.8150773688
 20
184.7821868704
 30
0.0
 10
60.7500980246
 20
184.6522444481
 30
0.0
 10
60.7031440134
 20
184.5582502241
 30
0.0
 10
60.6726579313
 20
184.4971881846
 30
0.0
 10
60.6459491842
 20
184.4436470674
 30
0.0
 10
60.6234165847
 20
184.3984677001
 30
0.0
 10
60.6074360761
 20
184.3663552355
 30
0.0
 10
60.5969497753
 20
184.3454825336
 30
0.0
 10
60.5910075801
 20
184.3334462536
 30
0.0
 10
60.5861481918
 20
184.3243472726
 30
0.0
 10
60.5830492144
 20
184.3170582025
 30
0.0
 10
60.580394943
 20
184.3140175027
 30
0.0
 10
60.5800315088
 20
184.3111463211
 30
0.0
 10
60.579512188
 20
184.3111463211
 30
0.0
  0
SPLINE
  5
53D
100
AcDbEntity
  8
0
100
AcDbSpline
 62
7
  6
BYLAYER
 70
0
 71
3
 72
9
 73
5
 74
0
 42
0.0000001
 43
0.0000001
 44
0.0000000001
 40
0.0
 40
0.0
 40
0.0
 40
0.0
 40
0.5014682389
 40
1.0
 40
1.0
 40
1.0
 40
1.0
 10
80.6522506497
 20
233.6456651151
 30
0.0
 10
80.6782298119
 20
233.428040186
 30
0.0
 10
80.6817849372
 20
232.9873439491
 30
0.0
 10
80.5671124492
 20
232.5550185927
 30
0.0
 10
80.4681550064
 20
232.3608999968
 30
0.0
  0
SPLINE
  5
53E
100
AcDbEntity
  8
0
100
AcDbSpline
 62
7
  6
BYLAYER
 70
0
 71
3
 72
22
 73
18
 74
0
 42
0.0000001
 43
0.0000001
 44
0.0000000001
 40
0.0
 40
0.0
 40
0.0
 40
0.0
 40
0.1851375623
 40
0.3652578849
 40
0.5345082613
 40
0.6871108326
 40
0.7551083031
 40
0.8164309358
 40
0.87021957
 40
0.9156288122
 40
0.9519200154
 40
0.9664307943
 40
0.9784061215
 40
0.9877901222
 40
0.9945433048
 40
0.9986263675
 40
1.0
 40
1.0
 40
1.0
 40
1.0
 10
51.079512188
 20
185.3111463211
 30
0.0
 10
51.1409311828
 20
185.2797095939
 30
0.0
 10
51.262807278
 20
185.2190700893
 30
0.0
 10
51.4412842481
 20
185.1306052709
 30
0.0
 10
51.6084395725
 20
185.0466028325
 30
0.0
 10
51.7383757675
 20
184.9815999883
 30
0.0
 10
51.8323853578
 20
184.9346824193
 30
0.0
 10
51.8934631471
 20
184.9042492492
 30
0.0
 10
51.9470188257
 20
184.877587357
 30
0.0
 10
51.9922005431
 20
184.8550607917
 30
0.0
 10
52.0243092655
 20
184.8390602626
 30
0.0
 10
52.045176752
 20
184.8285459357
 30
0.0
 10
52.0572152772
 20
184.8225920854
 30
0.0
 10
52.0663028069
 20
184.8177034284
 30
0.0
 10
52.0736106981
 20
184.8146397602
 30
0.0
 10
52.0766117485
 20
184.8119357563
 30
0.0
 10
52.079512188
 20
184.8116582446
 30
0.0
 10
52.079512188
 20
184.8111463211
 30
0.0
  0
SPLINE
  5
53F
100
AcDbEntity
  8
0
100
AcDbSpline
 62
7
  6
BYLAYER
 70
0
 71
3
 72
17
 73
13
 74
0
 42
0.0000001
 43
0.0000001
 44
0.0000000001
 40
0.0
 40
0.0
 40
0.0
 40
0.0
 40
0.0095222253
 40
0.0356720835
 40
0.074853258
 40
0.1235229208
 40
0.2387938098
 40
0.3711624545
 40
0.5154456485
 40
0.669563249
 40
0.8328310624
 40
1.0
 40
1.0
 40
1.0
 40
1.0
 10
80.0795121764
 20
225.3111463212
 30
0.0
 10
80.081879067
 20
225.311421864
 30
0.0
 10
80.0903480129
 20
225.3145325767
 30
0.0
 10
80.1084347791
 20
225.3191876116
 30
0.0
 10
80.1354940915
 20
225.3283829698
 30
0.0
 10
80.1832534045
 20
225.3457376191
 30
0.0
 10
80.2509151946
 20
225.376462852
 30
0.0
 10
80.3354439498
 20
225.4266727575
 30
0.0
 10
80.4198371573
 20
225.4944278946
 30
0.0
 10
80.4968566445
 20
225.5814737621
 30
0.0
 10
80.5583575875
 20
225.6867393138
 30
0.0
 10
80.5795121772
 20
225.7693133744
 30
0.0
 10
80.5795121808
 20
225.8111463211
 30
0.0
  0
ENDSEC
  0
SECTION
  2
OBJECTS
  0
DICTIONARY
  5
C
100
AcDbDictionary
280
0
281
1
  3
ACAD_GROUP
350
D
  3
ACAD_MLINESTYLE
350
17
  3
ACAD_LAYOUT
350
1A
  3
ACAD_PLOTSETTINGS
350
19
  3
ACAD_PLOTSTYLENAME
350
E
  0
DICTIONARY
  5
D
102
{ACAD_REACTORS
330
C
102
}
100
AcDbDictionary
280
0
281
1
  0
ACDBDICTIONARYWDFLT
  5
E
102
{ACAD_REACTORS
330
C
102
}
100
AcDbDictionary
281
1
  3
Normal
350
F
100
AcDbDictionaryWithDefault
340
F
  0
DICTIONARY
  5
17
102
{ACAD_REACTORS
330
C
102
}
100
AcDbDictionary
280
0
281
1
  3
Standard
350
18
  0
DICTIONARY
  5
19
102
{ACAD_REACTORS
330
C
102
}
100
AcDbDictionary
281
1
  0
DICTIONARY
  5
1A
102
{ACAD_REACTORS
330
C
102
}
100
AcDbDictionary
281
1
  3
Model
350
540
  3
Layout1
350
541
  0
ACDBPLACEHOLDER
  5
F
102
{ACAD_REACTORS
330
E
102
}
  0
MLINESTYLE
  5
18
102
{ACAD_REACTORS
330
17
102
}
100
AcDbMlineStyle
  2
STANDARD
 70
0
  3

 62
256
 51
90.0
 52
90.0
 71
2
 49
0.5
 62
256
  6
BYLAYER
 49
-0.5
 62
256
  6
BYLAYER
  0
LAYOUT
  5
540
102
{ACAD_REACTORS
330
1A
102
}
100
AcDbPlotSettings
  1

  2
none_device
  4

  6

 40
0.0
 41
0.0
 42
0.0
 43
0.0
 44
210.0
 45
297.0
 46
0.0
 47
0.0
 48
0.0
 49
0.0
140
0.0
141
0.0
142
1.0
143
1.0
 70
1024
 72
1
 73
0
 74
0
  7

 75
0
147
1.0
148
0.0
149
0.0
100
AcDbLayout
  1
Model
 70
0
 71
0
 10
0.0
 20
0.0
 11
210.0
 21
297.0
 12
0.0
 22
0.0
 32
0.0
 14
0.0
 24
0.0
 34
0.0
 15
0.0
 25
0.0
 35
0.0
146
0.0
 13
0.0
 23
0.0
 33
0.0
 16
1.0
 26
0.0
 36
0.0
 17
0.0
 27
1.0
 37
0.0
 76
0
330
212
345
0
346
0
  0
LAYOUT
  5
541
102
{ACAD_REACTORS
330
1A
102
}
100
AcDbPlotSettings
  1

  2
none_device
  4

  6

 40
0.0
 41
0.0
 42
0.0
 43
0.0
 44
210.0
 45
297.0
 46
0.0
 47
0.0
 48
0.0
 49
0.0
140
0.0
141
0.0
142
1.0
143
1.0
 70
0
 72
1
 73
0
 74
0
  7

 75
0
147
1.0
148
0.0
149
0.0
100
AcDbLayout
  1
Layout1
 70
0
 71
1
 10
0.0
 20
0.0
 11
210.0
 21
297.0
 12
0.0
 22
0.0
 32
0.0
 14
0.0
 24
0.0
 34
0.0
 15
0.0
 25
0.0
 35
0.0
146
0.0
 13
0.0
 23
0.0
 33
0.0
 16
1.0
 26
0.0
 36
0.0
 17
0.0
 27
1.0
 37
0.0
 76
0
330
213
345
0
346
0
  0
ENDSEC
  0
EOF
