999
DXF file: C:\Users\sesa63760\Dev\_Creo\CAD\MCADID0004255_3D-CAD\drw0001_5.dxf
999
Pro/ENGINEER 2019471 by Parametric Technology Corporation
  0
SECTION
  2
HEADER
  9
$ACADVER
  1
AC1024
  9
$DWGCODEPAGE
  3
ANSI_1252
  9
$EXTMAX
 10
912.9145548913
 20
1291.1220133463
 30
0.0
  9
$EXTMIN
 10
0.0
 20
0.0
 30
0.0
  9
$LIMMIN
 10
0.0
 20
0.0
  9
$LIMMAX
 10
912.9145548913
 20
1291.1220133463
  9
$VIEWCTR
 10
456.4572774456
 20
645.5610066731
  9
$VIEWSIZE
 40
1291.1220133463
  9
$CLAYER
  8
0
  9
$LTSCALE
 40
84.1620275366
  9
$CELTYPE
  6
BYLAYER
  9
$DIMSCALE
 40
1.0
  9
$DIMASZ
 40
10.8680304154
  9
$DIMEXO
 40
1.0
  9
$DIMDLI
 40
58.1483099344
  9
$DIMEXE
 40
1.0
  9
$DIMCEN
 40
13.7719681424
  9
$DIMLFAC
 40
1.0
  9
$DIMBLK
  1
_FILLED
  9
$DIMALT
 70
0
  9
$DIMALTF
 40
0.0393700787
  9
$DIMTXT
 40
15.2152425815
  9
$DIMTOL
 70
1
  9
$DIMLIM
 70
0
  9
$DIMTFAC
 40
1.0
  9
$DIMTP
 40
0.01
  9
$DIMTM
 40
0.01
  9
$DIMGAP
 40
0.625
  9
$DIMDSEP
 70
46
  9
$AUNITS
 70
0
  9
$PDMODE
 70
3
  9
$PDSIZE
 40
0.3125
  9
$HANDSEED
  5
367
  9
$TILEMODE
 70
1
  9
$MEASUREMENT
 70
1
  9
$INSUNITS
 70
4
  0
ENDSEC
  0
SECTION
  2
CLASSES
  0
CLASS
  1
ACDBDICTIONARYWDFLT
  2
AcDbDictionaryWithDefault
  3
AutoCAD 2000
 90
0
 91
1
280
0
281
0
  0
CLASS
  1
ACDBPLACEHOLDER
  2
AcDbPlaceHolder
  3
AutoCAD 2000
 90
0
 91
1
280
0
281
0
  0
CLASS
  1
LAYOUT
  2
AcDbLayout
  3
AutoCAD 2000
 90
0
 91
0
280
0
281
0
  0
ENDSEC
  0
SECTION
  2
TABLES
  0
TABLE
  2
VPORT
  5
8
100
AcDbSymbolTable
 70
2
  0
VPORT
  5
1F4
100
AcDbSymbolTableRecord
100
AcDbViewportTableRecord
  2
*ACTIVE
 70
0
 10
0.0
 20
0.0
 11
1.0
 21
1.0
 12
456.4572774456
 22
645.5610066731
 13
0.0
 23
0.0
 14
1.0
 24
1.0
 15
0.0
 25
0.0
 16
0.0
 26
0.0
 36
1.0
 17
0.0
 27
0.0
 37
0.0
 40
1291.1220133463
 41
0.7070707071
 42
50.0
 43
0.0
 44
0.0
 50
0.0
 51
0.0
 71
0
 72
100
 73
1
 74
1
 75
0
 76
0
 77
0
 78
0
  0
ENDTAB
  0
TABLE
  2
LTYPE
  5
5
100
AcDbSymbolTable
 70
6
  0
LTYPE
  5
14
100
AcDbSymbolTableRecord
100
AcDbLinetypeTableRecord
  2
BYBLOCK
 70
0
  3

 72
65
 73
0
 40
0.0
  0
LTYPE
  5
15
100
AcDbSymbolTableRecord
100
AcDbLinetypeTableRecord
  2
BYLAYER
 70
0
  3

 72
65
 73
0
 40
0.0
  0
LTYPE
  5
16
100
AcDbSymbolTableRecord
100
AcDbLinetypeTableRecord
  2
CONTINUOUS
 70
64
  3
Solid line
 72
65
 73
0
 40
0.0
  0
LTYPE
  5
1F5
100
AcDbSymbolTableRecord
100
AcDbLinetypeTableRecord
  2
CENTER
 70
64
  3
____ _ ____ _ ____ _ ____ _ ____ _ ____ _ ____
 72
65
 73
4
 40
0.6
 49
0.375
 74
0
 49
-0.075
 74
0
 49
0.075
 74
0
 49
-0.075
 74
0
  0
LTYPE
  5
1F6
100
AcDbSymbolTableRecord
100
AcDbLinetypeTableRecord
  2
HIDDEN
 70
64
  3
- - - - - - - - - - - - - - - - - - - -
 72
65
 73
2
 40
0.2
 49
0.1
 74
0
 49
-0.1
 74
0
  0
LTYPE
  5
1F7
100
AcDbSymbolTableRecord
100
AcDbLinetypeTableRecord
  2
PHANTOM
 70
64
  3
_____ _ _ _____ _ _ _____ _ _ _____
 72
65
 73
6
 40
0.8
 49
0.45
 74
0
 49
-0.05
 74
0
 49
0.1
 74
0
 49
-0.05
 74
0
 49
0.1
 74
0
 49
-0.05
 74
0
  0
LTYPE
  5
1F8
100
AcDbSymbolTableRecord
100
AcDbLinetypeTableRecord
  2
DOT
 70
64
  3
. . . . . . . . . . . . . . . . . . . .
 72
65
 73
2
 40
0.2
 49
0.1
 74
0
 49
-0.1
 74
0
  0
LTYPE
  5
1F9
100
AcDbSymbolTableRecord
100
AcDbLinetypeTableRecord
  2
DASHED
 70
64
  3
- - - - - - - - - - - - - - - - - - - -
 72
65
 73
2
 40
0.2
 49
0.1
 74
0
 49
-0.1
 74
0
  0
ENDTAB
  0
TABLE
  2
LAYER
  5
2
100
AcDbSymbolTable
 70
36
  0
LAYER
  5
10
100
AcDbSymbolTableRecord
100
AcDbLayerTableRecord
  2
0
 70
0
 62
7
  6
CONTINUOUS
370
-3
390
F
  0
LAYER
  5
1FA
100
AcDbSymbolTableRecord
100
AcDbLayerTableRecord
  2
DEFAULT_1
 70
0
 62
7
  6
CENTER
370
-3
390
F
  0
LAYER
  5
1FB
100
AcDbSymbolTableRecord
100
AcDbLayerTableRecord
  2
DEFAULT_2
 70
0
 62
7
  6
HIDDEN
370
-3
390
F
  0
LAYER
  5
1FC
100
AcDbSymbolTableRecord
100
AcDbLayerTableRecord
  2
DEFAULT_3
 70
0
 62
7
  6
PHANTOM
370
-3
390
F
  0
LAYER
  5
1FD
100
AcDbSymbolTableRecord
100
AcDbLayerTableRecord
  2
00_COMPONENTS
 70
0
 62
7
  6
CONTINUOUS
370
-3
390
F
  0
LAYER
  5
1FE
100
AcDbSymbolTableRecord
100
AcDbLayerTableRecord
  2
01_1_DEFAULT_DATUMS
 70
0
 62
7
  6
CONTINUOUS
370
-3
390
F
  0
LAYER
  5
1FF
100
AcDbSymbolTableRecord
100
AcDbLayerTableRecord
  2
01_PLANES
 70
0
 62
7
  6
CONTINUOUS
370
-3
390
F
  0
LAYER
  5
200
100
AcDbSymbolTableRecord
100
AcDbLayerTableRecord
  2
02_COORD_SYS
 70
0
 62
7
  6
CONTINUOUS
370
-3
390
F
  0
LAYER
  5
201
100
AcDbSymbolTableRecord
100
AcDbLayerTableRecord
  2
03_AXES
 70
0
 62
7
  6
CONTINUOUS
370
-3
390
F
  0
LAYER
  5
202
100
AcDbSymbolTableRecord
100
AcDbLayerTableRecord
  2
04_POINTS
 70
0
 62
7
  6
CONTINUOUS
370
-3
390
F
  0
LAYER
  5
203
100
AcDbSymbolTableRecord
100
AcDbLayerTableRecord
  2
05_CURVES
 70
0
 62
7
  6
CONTINUOUS
370
-3
390
F
  0
LAYER
  5
204
100
AcDbSymbolTableRecord
100
AcDbLayerTableRecord
  2
06_SURFS
 70
0
 62
7
  6
CONTINUOUS
370
-3
390
F
  0
LAYER
  5
205
100
AcDbSymbolTableRecord
100
AcDbLayerTableRecord
  2
07_COSMETICS
 70
0
 62
7
  6
CONTINUOUS
370
-3
390
F
  0
LAYER
  5
206
100
AcDbSymbolTableRecord
100
AcDbLayerTableRecord
  2
10_NOTES
 70
0
 62
7
  6
CONTINUOUS
370
-3
390
F
  0
LAYER
  5
207
100
AcDbSymbolTableRecord
100
AcDbLayerTableRecord
  2
11_NOTES_PUB
 70
0
 62
7
  6
CONTINUOUS
370
-3
390
F
  0
LAYER
  5
208
100
AcDbSymbolTableRecord
100
AcDbLayerTableRecord
  2
13_REF_GTOL
 70
0
 62
7
  6
CONTINUOUS
370
-3
390
F
  0
LAYER
  5
209
100
AcDbSymbolTableRecord
100
AcDbLayerTableRecord
  2
16_MISC
 70
0
 62
7
  6
CONTINUOUS
370
-3
390
F
  0
LAYER
  5
20A
100
AcDbSymbolTableRecord
100
AcDbLayerTableRecord
  2
17_NO_PRINT
 70
0
 62
7
  6
CONTINUOUS
370
-3
390
F
  0
LAYER
  5
20B
100
AcDbSymbolTableRecord
100
AcDbLayerTableRecord
  2
18_DATUM_CAMS_JOINTS
 70
0
 62
7
  6
CONTINUOUS
370
-3
390
F
  0
LAYER
  5
20C
100
AcDbSymbolTableRecord
100
AcDbLayerTableRecord
  2
19_DATUM_FUNCTIONAL
 70
0
 62
7
  6
CONTINUOUS
370
-3
390
F
  0
LAYER
  5
20D
100
AcDbSymbolTableRecord
100
AcDbLayerTableRecord
  2
20_DATUM_KINEMATIC_SCHEME
 70
0
 62
7
  6
CONTINUOUS
370
-3
390
F
  0
LAYER
  5
20E
100
AcDbSymbolTableRecord
100
AcDbLayerTableRecord
  2
3
 70
0
 62
7
  6
CONTINUOUS
370
-3
390
F
  0
LAYER
  5
20F
100
AcDbSymbolTableRecord
100
AcDbLayerTableRecord
  2
4
 70
0
 62
7
  6
CONTINUOUS
370
-3
390
F
  0
ENDTAB
  0
TABLE
  2
STYLE
  5
3
100
AcDbSymbolTable
 70
1
  0
STYLE
  5
11
100
AcDbSymbolTableRecord
100
AcDbTextStyleTableRecord
  2
STANDARD
 70
0
 40
0.0
 41
1.0
 50
0.0
 71
0
 42
0.2
  3
ARIAL.TTF
  4

  0
STYLE
  5
210
100
AcDbSymbolTableRecord
100
AcDbTextStyleTableRecord
  2
TEXTSTYLE_1
 70
0
 40
0.0
 41
0.8
 50
0.0
 71
0
 42
0.2
  3
gdt
  4

  0
ENDTAB
  0
TABLE
  2
VIEW
  5
6
100
AcDbSymbolTable
 70
0
  0
ENDTAB
  0
TABLE
  2
UCS
  5
7
100
AcDbSymbolTable
 70
0
  0
ENDTAB
  0
TABLE
  2
APPID
  5
9
100
AcDbSymbolTable
 70
1
  0
APPID
  5
211
100
AcDbSymbolTableRecord
100
AcDbRegAppTableRecord
  2
ACAD
 70
0
  0
ENDTAB
  0
TABLE
  2
BLOCK_RECORD
  5
1
100
AcDbSymbolTable
 70
0
  0
BLOCK_RECORD
  5
212
100
AcDbSymbolTableRecord
100
AcDbBlockTableRecord
  2
*Model_Space
  0
BLOCK_RECORD
  5
213
100
AcDbSymbolTableRecord
100
AcDbBlockTableRecord
  2
*Paper_Space
  0
BLOCK_RECORD
  5
214
100
AcDbSymbolTableRecord
100
AcDbBlockTableRecord
  2
_FILLED
  0
ENDTAB
  0
TABLE
  2
DIMSTYLE
  5
A
100
AcDbSymbolTable
 70
1
100
AcDbDimStyleTable
 71
0
  0
DIMSTYLE
105
215
100
AcDbSymbolTableRecord
100
AcDbDimStyleTableRecord
  2
STANDARD
 70
0
  3

  4

 40
1.0
 41
10.8680304154
 42
1.0
 43
0.38
 44
1.0
 45
0.0
 46
0.0
 47
0.01
 48
0.01
140
15.2152425815
141
0.09
142
0.0
143
25.4
144
1.0
145
0.0
146
1.0
147
0.625
 71
1
 72
0
 73
0
 74
0
 75
0
 76
0
 77
1
 78
8
 79
2
170
0
171
1
172
0
173
0
174
0
175
0
176
0
177
0
178
0
270
2
179
2
271
2
272
2
273
2
274
2
275
0
280
0
281
0
282
0
283
1
284
8
285
0
286
0
287
3
288
0
340
11
278
46
341
214
342
214
343
214
344
214
  0
ENDTAB
  0
ENDSEC
  0
SECTION
  2
BLOCKS
  0
BLOCK
  5
20
100
AcDbEntity
  8
0
100
AcDbBlockBegin
  2
*Model_Space
 70
0
 10
0.0
 20
0.0
 30
0.0
  3
*Model_Space
  1

  0
ENDBLK
  5
21
100
AcDbEntity
  8
0
100
AcDbBlockEnd
  0
BLOCK
  5
1C
100
AcDbEntity
  8
0
100
AcDbBlockBegin
  2
*Paper_Space
 70
0
 10
0.0
 20
0.0
 30
0.0
  3
*Paper_Space
  1

  0
ENDBLK
  5
1D
100
AcDbEntity
  8
0
100
AcDbBlockEnd
  0
BLOCK
  5
216
100
AcDbEntity
  8
0
100
AcDbBlockBegin
  2
_FILLED
 70
64
 10
0.0
 20
0.0
  3
_FILLED
  1

  0
SOLID
  5
217
100
AcDbEntity
  8
0
  6
BYBLOCK
 62
0
100
AcDbTrace
 10
0.0
 20
0.0
 11
-1.0
 21
0.25
 12
-1.0
 22
-0.25
 13
-1.0
 23
-0.25
  0
ENDBLK
  5
218
100
AcDbEntity
  8
0
  6
BYBLOCK
 62
0
100
AcDbBlockEnd
  0
ENDSEC
  0
SECTION
  2
ENTITIES
  0
LINE
  5
219
100
AcDbEntity
  8
0
100
AcDbLine
 62
7
  6
BYLAYER
 10
513.5207183947
 20
105.0913266677
 11
508.9208950924
 21
105.0913266677
  0
LINE
  5
21A
100
AcDbEntity
  8
0
100
AcDbLine
 62
7
  6
BYLAYER
 10
473.5207065216
 20
105.0913266677
 11
468.9208832193
 21
105.0913266677
  0
LINE
  5
21B
100
AcDbEntity
  8
0
100
AcDbLine
 62
7
  6
BYLAYER
 10
520.7203037041
 20
105.1912165292
 11
513.8935966543
 21
105.1912165292
  0
LINE
  5
21C
100
AcDbEntity
  8
0
100
AcDbLine
 62
7
  6
BYLAYER
 10
467.7203037041
 20
105.1912165292
 11
468.5479964592
 21
105.1912165292
  0
LINE
  5
21D
100
AcDbEntity
  8
0
100
AcDbLine
 62
7
  6
BYLAYER
 10
473.8935847811
 20
105.1912165292
 11
508.5480083324
 21
105.1912165292
  0
LINE
  5
21E
100
AcDbEntity
  8
0
100
AcDbLine
 62
7
  6
BYLAYER
 10
498.3617518842
 20
105.6912165292
 11
490.07982005
 21
105.6912165292
  0
LINE
  5
21F
100
AcDbEntity
  8
0
100
AcDbLine
 62
7
  6
BYLAYER
 10
514.5208024933
 20
106.0913266677
 11
507.9208024933
 21
106.0913266677
  0
LINE
  5
220
100
AcDbEntity
  8
0
100
AcDbLine
 62
7
  6
BYLAYER
 10
474.5207906202
 20
106.0913266677
 11
467.9207906202
 21
106.0913266677
  0
LINE
  5
221
100
AcDbEntity
  8
0
100
AcDbLine
 62
7
  6
BYLAYER
 10
521.7203037041
 20
106.1912165292
 11
514.5208024933
 21
106.1912165292
  0
LINE
  5
222
100
AcDbEntity
  8
0
100
AcDbLine
 62
7
  6
BYLAYER
 10
507.9208024933
 20
106.1912165292
 11
498.2203037041
 21
106.1912165359
  0
LINE
  5
223
100
AcDbEntity
  8
0
100
AcDbLine
 62
7
  6
BYLAYER
 10
490.2203037041
 20
106.1912165293
 11
474.5207906202
 21
106.1912165292
  0
LINE
  5
224
100
AcDbEntity
  8
0
100
AcDbLine
 62
7
  6
BYLAYER
 10
467.9207906202
 20
106.1912165292
 11
466.7203037041
 21
106.1912165292
  0
LINE
  5
225
100
AcDbEntity
  8
0
100
AcDbLine
 62
7
  6
BYLAYER
 10
466.7203037041
 20
107.1912164603
 11
467.9207906202
 21
107.1912165292
  0
LINE
  5
226
100
AcDbEntity
  8
0
100
AcDbLine
 62
7
  6
BYLAYER
 10
474.5207906202
 20
107.1912165292
 11
475.7203037041
 21
107.1912164603
  0
LINE
  5
227
100
AcDbEntity
  8
0
100
AcDbLine
 62
7
  6
BYLAYER
 10
506.7203037041
 20
107.1912164603
 11
507.9208024933
 21
107.1912165292
  0
LINE
  5
228
100
AcDbEntity
  8
0
100
AcDbLine
 62
7
  6
BYLAYER
 10
514.5208024933
 20
107.1912165292
 11
515.1326189129
 21
107.1912165292
  0
LINE
  5
229
100
AcDbEntity
  8
0
100
AcDbLine
 62
7
  6
BYLAYER
 10
467.2203037041
 20
107.6912165292
 11
474.2203037041
 21
107.6912165292
  0
LINE
  5
22A
100
AcDbEntity
  8
0
100
AcDbLine
 62
7
  6
BYLAYER
 10
508.2203037041
 20
107.6912165292
 11
514.7700571966
 21
107.6912165292
  0
LINE
  5
22B
100
AcDbEntity
  8
0
100
AcDbLine
 62
7
  6
BYLAYER
 10
516.632385396
 20
108.1912165292
 11
508.2203037041
 21
108.1912165292
  0
LINE
  5
22C
100
AcDbEntity
  8
0
100
AcDbLine
 62
7
  6
BYLAYER
 10
474.2203037041
 20
108.1912165292
 11
466.7203037041
 21
108.1912165292
  0
LINE
  5
22D
100
AcDbEntity
  8
0
100
AcDbLine
 62
7
  6
BYLAYER
 10
466.7203037041
 20
122.6912165292
 11
490.2203037041
 21
122.6912165292
  0
LINE
  5
22E
100
AcDbEntity
  8
0
100
AcDbLine
 62
7
  6
BYLAYER
 10
490.2208024934
 20
122.6912165292
 11
521.7203037041
 21
122.6912165292
  0
LINE
  5
22F
100
AcDbEntity
  8
3
100
AcDbLine
 62
7
  6
BYLAYER
 10
466.7207851785
 20
122.6913394762
 11
521.7208024934
 21
122.6913394762
  0
LINE
  5
230
100
AcDbEntity
  8
3
100
AcDbLine
 62
7
  6
BYLAYER
 10
421.4788836263
 20
150.039501791
 11
466.4788836263
 21
150.039501791
  0
LINE
  5
231
100
AcDbEntity
  8
3
100
AcDbLine
 62
7
  6
BYLAYER
 10
462.1421689424
 20
153.687001791
 11
463.3867682042
 21
153.687001791
  0
LINE
  5
232
100
AcDbEntity
  8
3
100
AcDbLine
 62
7
  6
BYLAYER
 10
466.4788836263
 20
155.039501791
 11
463.4788836263
 21
155.039501791
  0
LINE
  5
233
100
AcDbEntity
  8
3
100
AcDbLine
 62
7
  6
BYLAYER
 10
462.0386840084
 20
155.3629646105
 11
459.0386840084
 21
155.3629646105
  0
LINE
  5
234
100
AcDbEntity
  8
3
100
AcDbLine
 62
7
  6
BYLAYER
 10
424.6788836263
 20
156.789501791
 11
438.1788836263
 21
156.789501791
  0
LINE
  5
235
100
AcDbEntity
  8
3
100
AcDbLine
 62
7
  6
BYLAYER
 10
454.768228601
 20
157.039501791
 11
459.0386840084
 21
157.039501791
  0
LINE
  5
236
100
AcDbEntity
  8
3
100
AcDbLine
 62
7
  6
BYLAYER
 10
462.0386840084
 20
157.039501791
 11
462.1421689424
 21
157.039501791
  0
LINE
  5
237
100
AcDbEntity
  8
3
100
AcDbLine
 62
7
  6
BYLAYER
 10
463.3867682042
 20
157.039501791
 11
463.4788836263
 21
157.039501791
  0
LINE
  5
238
100
AcDbEntity
  8
3
100
AcDbLine
 62
7
  6
BYLAYER
 10
466.4788836263
 20
157.039501791
 11
466.7207851785
 21
157.039501791
  0
LINE
  5
239
100
AcDbEntity
  8
3
100
AcDbLine
 62
7
  6
BYLAYER
 10
462.0386840084
 20
160.039501791
 11
459.0386840084
 21
160.039501791
  0
LINE
  5
23A
100
AcDbEntity
  8
3
100
AcDbLine
 62
7
  6
BYLAYER
 10
454.768228601
 20
163.039501791
 11
459.0386840084
 21
163.039501791
  0
LINE
  5
23B
100
AcDbEntity
  8
3
100
AcDbLine
 62
7
  6
BYLAYER
 10
462.0386840084
 20
163.039501791
 11
462.1421689424
 21
163.039501791
  0
LINE
  5
23C
100
AcDbEntity
  8
3
100
AcDbLine
 62
7
  6
BYLAYER
 10
463.3867682042
 20
163.039501791
 11
463.4788836263
 21
163.039501791
  0
LINE
  5
23D
100
AcDbEntity
  8
3
100
AcDbLine
 62
7
  6
BYLAYER
 10
466.4788836263
 20
163.039501791
 11
466.7207851785
 21
163.039501791
  0
LINE
  5
23E
100
AcDbEntity
  8
3
100
AcDbLine
 62
7
  6
BYLAYER
 10
438.1788836263
 20
163.289501791
 11
424.6788836263
 21
163.289501791
  0
LINE
  5
23F
100
AcDbEntity
  8
3
100
AcDbLine
 62
7
  6
BYLAYER
 10
462.0386840084
 20
164.7160389714
 11
459.0386840084
 21
164.7160389714
  0
LINE
  5
240
100
AcDbEntity
  8
3
100
AcDbLine
 62
7
  6
BYLAYER
 10
463.3867682042
 20
166.392001791
 11
462.1421689424
 21
166.392001791
  0
LINE
  5
241
100
AcDbEntity
  8
3
100
AcDbLine
 62
7
  6
BYLAYER
 10
462.1421689424
 20
183.687001791
 11
463.3867682042
 21
183.687001791
  0
LINE
  5
242
100
AcDbEntity
  8
3
100
AcDbLine
 62
7
  6
BYLAYER
 10
462.0386840084
 20
185.3629646105
 11
459.0386840084
 21
185.3629646105
  0
LINE
  5
243
100
AcDbEntity
  8
3
100
AcDbLine
 62
7
  6
BYLAYER
 10
424.6788836263
 20
186.789501791
 11
438.1788836263
 21
186.789501791
  0
LINE
  5
244
100
AcDbEntity
  8
3
100
AcDbLine
 62
7
  6
BYLAYER
 10
454.768228601
 20
187.039501791
 11
459.0386840084
 21
187.039501791
  0
LINE
  5
245
100
AcDbEntity
  8
3
100
AcDbLine
 62
7
  6
BYLAYER
 10
462.0386840084
 20
187.039501791
 11
462.1421689424
 21
187.039501791
  0
LINE
  5
246
100
AcDbEntity
  8
3
100
AcDbLine
 62
7
  6
BYLAYER
 10
463.3867682042
 20
187.039501791
 11
463.4788836263
 21
187.039501791
  0
LINE
  5
247
100
AcDbEntity
  8
3
100
AcDbLine
 62
7
  6
BYLAYER
 10
466.4788836263
 20
187.039501791
 11
466.7207851785
 21
187.039501791
  0
LINE
  5
248
100
AcDbEntity
  8
3
100
AcDbLine
 62
7
  6
BYLAYER
 10
462.0386840084
 20
190.039501791
 11
459.0386840084
 21
190.039501791
  0
LINE
  5
249
100
AcDbEntity
  8
3
100
AcDbLine
 62
7
  6
BYLAYER
 10
454.768228601
 20
193.039501791
 11
459.0386840084
 21
193.039501791
  0
LINE
  5
24A
100
AcDbEntity
  8
3
100
AcDbLine
 62
7
  6
BYLAYER
 10
462.0386840084
 20
193.039501791
 11
462.1421689424
 21
193.039501791
  0
LINE
  5
24B
100
AcDbEntity
  8
3
100
AcDbLine
 62
7
  6
BYLAYER
 10
463.3867682042
 20
193.039501791
 11
463.4788836263
 21
193.039501791
  0
LINE
  5
24C
100
AcDbEntity
  8
3
100
AcDbLine
 62
7
  6
BYLAYER
 10
466.4788836263
 20
193.039501791
 11
466.7207851785
 21
193.039501791
  0
LINE
  5
24D
100
AcDbEntity
  8
3
100
AcDbLine
 62
7
  6
BYLAYER
 10
438.1788836263
 20
193.289501791
 11
424.6788836263
 21
193.289501791
  0
LINE
  5
24E
100
AcDbEntity
  8
3
100
AcDbLine
 62
7
  6
BYLAYER
 10
462.0386840084
 20
194.7160389714
 11
459.0386840084
 21
194.7160389714
  0
LINE
  5
24F
100
AcDbEntity
  8
3
100
AcDbLine
 62
7
  6
BYLAYER
 10
463.4788836263
 20
195.039501791
 11
466.4788836263
 21
195.039501791
  0
LINE
  5
250
100
AcDbEntity
  8
3
100
AcDbLine
 62
7
  6
BYLAYER
 10
463.3867682042
 20
196.392001791
 11
462.1421689424
 21
196.392001791
  0
LINE
  5
251
100
AcDbEntity
  8
3
100
AcDbLine
 62
7
  6
BYLAYER
 10
421.4788836263
 20
200.039501791
 11
466.4788836263
 21
200.039501791
  0
LINE
  5
252
100
AcDbEntity
  8
0
100
AcDbLine
 62
7
  6
BYLAYER
 10
474.4705444413
 20
1184.6913266677
 11
474.9705444413
 21
1185.1913266677
  0
LINE
  5
253
100
AcDbEntity
  8
0
100
AcDbLine
 62
7
  6
BYLAYER
 10
498.7205428933
 20
1188.6913272783
 11
499.220543877
 21
1189.1913280821
  0
LINE
  5
254
100
AcDbEntity
  8
0
100
AcDbLine
 62
7
  6
BYLAYER
 10
496.9705444413
 20
1184.6913266677
 11
497.4705444413
 21
1185.1913266677
  0
LINE
  5
255
100
AcDbEntity
  8
3
100
AcDbLine
 62
7
  6
BYLAYER
 10
416.4788836263
 20
1131.3744042518
 11
416.4788836263
 21
1091.3744042518
  0
LINE
  5
256
100
AcDbEntity
  8
3
100
AcDbLine
 62
7
  6
BYLAYER
 10
416.4788836263
 20
195.039501791
 11
416.4788836263
 21
155.039501791
  0
LINE
  5
257
100
AcDbEntity
  8
3
100
AcDbLine
 62
7
  6
BYLAYER
 10
454.768228601
 20
157.0396247669
 11
454.768228601
 21
163.039378815
  0
LINE
  5
258
100
AcDbEntity
  8
3
100
AcDbLine
 62
7
  6
BYLAYER
 10
454.768228601
 20
187.0396247669
 11
454.768228601
 21
193.039378815
  0
LINE
  5
259
100
AcDbEntity
  8
3
100
AcDbLine
 62
7
  6
BYLAYER
 10
454.768228601
 20
1093.3745272277
 11
454.768228601
 21
1099.3742812759
  0
LINE
  5
25A
100
AcDbEntity
  8
3
100
AcDbLine
 62
7
  6
BYLAYER
 10
454.768228601
 20
1123.3745272277
 11
454.768228601
 21
1129.3742812759
  0
LINE
  5
25B
100
AcDbEntity
  8
3
100
AcDbLine
 62
7
  6
BYLAYER
 10
459.0386840084
 20
155.3629646105
 11
459.0386840084
 21
164.7160389714
  0
LINE
  5
25C
100
AcDbEntity
  8
3
100
AcDbLine
 62
7
  6
BYLAYER
 10
459.0386840084
 20
185.3629646105
 11
459.0386840084
 21
194.7160389714
  0
LINE
  5
25D
100
AcDbEntity
  8
3
100
AcDbLine
 62
7
  6
BYLAYER
 10
459.0386840084
 20
1091.6978670714
 11
459.0386840084
 21
1101.0509414322
  0
LINE
  5
25E
100
AcDbEntity
  8
3
100
AcDbLine
 62
7
  6
BYLAYER
 10
459.0386840084
 20
1121.6978670714
 11
459.0386840084
 21
1131.0509414322
  0
LINE
  5
25F
100
AcDbEntity
  8
3
100
AcDbLine
 62
7
  6
BYLAYER
 10
459.4788836263
 20
1136.3744042518
 11
459.4788836263
 21
1131.0509414322
  0
LINE
  5
260
100
AcDbEntity
  8
3
100
AcDbLine
 62
7
  6
BYLAYER
 10
459.4788836263
 20
1121.6978670714
 11
459.4788836263
 21
1101.0509414322
  0
LINE
  5
261
100
AcDbEntity
  8
3
100
AcDbLine
 62
7
  6
BYLAYER
 10
459.4788836263
 20
1091.6978670714
 11
459.4788836263
 21
1086.3744042518
  0
LINE
  5
262
100
AcDbEntity
  8
3
100
AcDbLine
 62
7
  6
BYLAYER
 10
459.4788836263
 20
200.039501791
 11
459.4788836263
 21
194.7160389714
  0
LINE
  5
263
100
AcDbEntity
  8
3
100
AcDbLine
 62
7
  6
BYLAYER
 10
459.4788836263
 20
185.3629646105
 11
459.4788836263
 21
164.7160389714
  0
LINE
  5
264
100
AcDbEntity
  8
3
100
AcDbLine
 62
7
  6
BYLAYER
 10
459.4788836263
 20
155.3629646105
 11
459.4788836263
 21
150.039501791
  0
LINE
  5
265
100
AcDbEntity
  8
3
100
AcDbLine
 62
7
  6
BYLAYER
 10
462.0386840084
 20
1131.0509414322
 11
462.0386840084
 21
1121.6978670714
  0
LINE
  5
266
100
AcDbEntity
  8
3
100
AcDbLine
 62
7
  6
BYLAYER
 10
462.0386840084
 20
1101.0509414322
 11
462.0386840084
 21
1091.6978670714
  0
LINE
  5
267
100
AcDbEntity
  8
3
100
AcDbLine
 62
7
  6
BYLAYER
 10
462.0386840084
 20
194.7160389714
 11
462.0386840084
 21
185.3629646105
  0
LINE
  5
268
100
AcDbEntity
  8
3
100
AcDbLine
 62
7
  6
BYLAYER
 10
462.0386840084
 20
164.7160389714
 11
462.0386840084
 21
155.3629646105
  0
LINE
  5
269
100
AcDbEntity
  8
3
100
AcDbLine
 62
7
  6
BYLAYER
 10
462.1421689424
 20
153.687001791
 11
462.1421689424
 21
166.392001791
  0
LINE
  5
26A
100
AcDbEntity
  8
3
100
AcDbLine
 62
7
  6
BYLAYER
 10
462.1421689424
 20
183.687001791
 11
462.1421689424
 21
196.392001791
  0
LINE
  5
26B
100
AcDbEntity
  8
3
100
AcDbLine
 62
7
  6
BYLAYER
 10
462.1421689424
 20
1090.0219042518
 11
462.1421689424
 21
1102.7269042518
  0
LINE
  5
26C
100
AcDbEntity
  8
3
100
AcDbLine
 62
7
  6
BYLAYER
 10
462.1421689424
 20
1120.0219042518
 11
462.1421689424
 21
1132.7269042518
  0
LINE
  5
26D
100
AcDbEntity
  8
3
100
AcDbLine
 62
7
  6
BYLAYER
 10
463.3867682042
 20
1132.7269042518
 11
463.3867682042
 21
1120.0219042518
  0
LINE
  5
26E
100
AcDbEntity
  8
3
100
AcDbLine
 62
7
  6
BYLAYER
 10
463.3867682042
 20
1102.7269042518
 11
463.3867682042
 21
1090.0219042518
  0
LINE
  5
26F
100
AcDbEntity
  8
3
100
AcDbLine
 62
7
  6
BYLAYER
 10
463.3867682042
 20
196.392001791
 11
463.3867682042
 21
183.687001791
  0
LINE
  5
270
100
AcDbEntity
  8
3
100
AcDbLine
 62
7
  6
BYLAYER
 10
463.3867682042
 20
166.392001791
 11
463.3867682042
 21
153.687001791
  0
LINE
  5
271
100
AcDbEntity
  8
3
100
AcDbLine
 62
7
  6
BYLAYER
 10
463.4788836263
 20
150.039501791
 11
463.4788836263
 21
200.039501791
  0
LINE
  5
272
100
AcDbEntity
  8
3
100
AcDbLine
 62
7
  6
BYLAYER
 10
463.4788836263
 20
1086.3744042518
 11
463.4788836263
 21
1136.3744042518
  0
LINE
  5
273
100
AcDbEntity
  8
3
100
AcDbLine
 62
7
  6
BYLAYER
 10
466.4788836263
 20
1136.3744042518
 11
466.4788836263
 21
1086.3744042518
  0
LINE
  5
274
100
AcDbEntity
  8
3
100
AcDbLine
 62
7
  6
BYLAYER
 10
466.4788836263
 20
200.039501791
 11
466.4788836263
 21
150.039501791
  0
LINE
  5
275
100
AcDbEntity
  8
0
100
AcDbLine
 62
7
  6
BYLAYER
 10
466.7203037041
 20
106.1912165292
 11
466.7203037041
 21
122.6912165292
  0
LINE
  5
276
100
AcDbEntity
  8
0
100
AcDbLine
 62
7
  6
BYLAYER
 10
466.7205444413
 20
1175.6913266677
 11
466.7205444413
 21
1161.1913266677
  0
LINE
  5
277
100
AcDbEntity
  8
0
100
AcDbLine
 62
7
  6
BYLAYER
 10
466.7205444413
 20
1177.6913266677
 11
466.7205444413
 21
1175.7033167139
  0
LINE
  5
278
100
AcDbEntity
  8
3
100
AcDbLine
 62
7
  6
BYLAYER
 10
466.7207851785
 20
1161.1913394762
 11
466.7207851785
 21
122.6913394762
  0
LINE
  5
279
100
AcDbEntity
  8
0
100
AcDbLine
 62
7
  6
BYLAYER
 10
467.7203037041
 20
105.1912165292
 11
467.7203037024
 21
107.1912165292
  0
LINE
  5
27A
100
AcDbEntity
  8
0
100
AcDbLine
 62
7
  6
BYLAYER
 10
467.7205444396
 20
1176.6913266677
 11
467.7205444413
 21
1178.6913266677
  0
LINE
  5
27B
100
AcDbEntity
  8
0
100
AcDbLine
 62
7
  6
BYLAYER
 10
467.9205444413
 20
1176.1913266677
 11
467.9205444413
 21
1177.7913266677
  0
LINE
  5
27C
100
AcDbEntity
  8
0
100
AcDbLine
 62
7
  6
BYLAYER
 10
467.9207906202
 20
107.6913266677
 11
467.9207906202
 21
106.0913266677
  0
LINE
  5
27D
100
AcDbEntity
  8
0
100
AcDbLine
 62
7
  6
BYLAYER
 10
470.7203037041
 20
107.6912165292
 11
470.7203037041
 21
122.6912165292
  0
LINE
  5
27E
100
AcDbEntity
  8
0
100
AcDbLine
 62
7
  6
BYLAYER
 10
470.7205444413
 20
1161.1913266677
 11
470.7205444413
 21
1176.1913266677
  0
LINE
  5
27F
100
AcDbEntity
  8
3
100
AcDbLine
 62
7
  6
BYLAYER
 10
470.7207851785
 20
122.6913394762
 11
470.7207851785
 21
1161.1913394762
  0
LINE
  5
280
100
AcDbEntity
  8
0
100
AcDbLine
 62
7
  6
BYLAYER
 10
474.2203036316
 20
108.1912165292
 11
474.2203036316
 21
107.6912165292
  0
LINE
  5
281
100
AcDbEntity
  8
0
100
AcDbLine
 62
7
  6
BYLAYER
 10
474.2205443684
 20
1176.1913266677
 11
474.2205443684
 21
1175.6913266677
  0
LINE
  5
282
100
AcDbEntity
  8
0
100
AcDbLine
 62
7
  6
BYLAYER
 10
474.4705444413
 20
1178.6913266677
 11
474.4705444413
 21
1184.6913266677
  0
LINE
  5
283
100
AcDbEntity
  8
0
100
AcDbLine
 62
7
  6
BYLAYER
 10
474.5205444413
 20
1176.2955091025
 11
474.5205444413
 21
1177.7913266677
  0
LINE
  5
284
100
AcDbEntity
  8
0
100
AcDbLine
 62
7
  6
BYLAYER
 10
474.5207906202
 20
107.5891307365
 11
474.5207906202
 21
106.0913266677
  0
LINE
  5
285
100
AcDbEntity
  8
0
100
AcDbLine
 62
7
  6
BYLAYER
 10
474.7203037041
 20
107.1912165292
 11
474.7203037041
 21
106.1912165292
  0
LINE
  5
286
100
AcDbEntity
  8
0
100
AcDbLine
 62
7
  6
BYLAYER
 10
474.7205444413
 20
1177.6913266677
 11
474.7205444413
 21
1176.6913266677
  0
LINE
  5
287
100
AcDbEntity
  8
0
100
AcDbLine
 62
7
  6
BYLAYER
 10
475.7203037041
 20
105.1912165292
 11
475.7203037041
 21
107.1912165292
  0
LINE
  5
288
100
AcDbEntity
  8
0
100
AcDbLine
 62
7
  6
BYLAYER
 10
475.7205444413
 20
1176.6913266677
 11
475.7205444413
 21
1178.6913266677
  0
LINE
  5
289
100
AcDbEntity
  8
0
100
AcDbLine
 62
7
  6
BYLAYER
 10
478.0968044413
 20
1186.3913266677
 11
478.0968044413
 21
1185.1913266677
  0
LINE
  5
28A
100
AcDbEntity
  8
0
100
AcDbLine
 62
7
  6
BYLAYER
 10
486.3468044413
 20
1186.3913266677
 11
486.3468044413
 21
1185.1913266677
  0
LINE
  5
28B
100
AcDbEntity
  8
0
100
AcDbLine
 62
7
  6
BYLAYER
 10
489.7203037041
 20
122.6912165292
 11
489.7203037041
 21
106.1912165292
  0
LINE
  5
28C
100
AcDbEntity
  8
0
100
AcDbLine
 62
7
  6
BYLAYER
 10
489.7205444413
 20
1177.6913266677
 11
489.7205444413
 21
1161.1913266677
  0
LINE
  5
28D
100
AcDbEntity
  8
3
100
AcDbLine
 62
7
  6
BYLAYER
 10
489.7208024934
 20
1161.1913394762
 11
489.7208024934
 21
122.6913394762
  0
LINE
  5
28E
100
AcDbEntity
  8
0
100
AcDbLine
 62
7
  6
BYLAYER
 10
489.9705444413
 20
1178.6913266677
 11
489.9705444413
 21
1184.6913266677
  0
LINE
  5
28F
100
AcDbEntity
  8
0
100
AcDbLine
 62
7
  6
BYLAYER
 10
490.2203037041
 20
106.1912165293
 11
490.2203037041
 21
122.6912165292
  0
LINE
  5
290
100
AcDbEntity
  8
0
100
AcDbLine
 62
7
  6
BYLAYER
 10
490.2205444413
 20
1161.1913266677
 11
490.2205444413
 21
1177.6913266677
  0
LINE
  5
291
100
AcDbEntity
  8
3
100
AcDbLine
 62
7
  6
BYLAYER
 10
490.2208024934
 20
122.6913394762
 11
490.2208024934
 21
1161.1913394762
  0
LINE
  5
292
100
AcDbEntity
  8
0
100
AcDbLine
 62
7
  6
BYLAYER
 10
496.9705444413
 20
1178.6913266677
 11
496.9705444413
 21
1184.6913266677
  0
LINE
  5
293
100
AcDbEntity
  8
0
100
AcDbLine
 62
7
  6
BYLAYER
 10
498.2203037041
 20
122.6912165292
 11
498.2203037041
 21
106.1912165293
  0
LINE
  5
294
100
AcDbEntity
  8
0
100
AcDbLine
 62
7
  6
BYLAYER
 10
498.2205444413
 20
1177.6913266677
 11
498.2205444413
 21
1161.1913266677
  0
LINE
  5
295
100
AcDbEntity
  8
3
100
AcDbLine
 62
7
  6
BYLAYER
 10
498.2208024934
 20
1161.1913394762
 11
498.2208024934
 21
122.6913394762
  0
LINE
  5
296
100
AcDbEntity
  8
0
100
AcDbLine
 62
7
  6
BYLAYER
 10
498.7203037041
 20
106.1912165292
 11
498.7203037041
 21
122.6912165292
  0
LINE
  5
297
100
AcDbEntity
  8
0
100
AcDbLine
 62
7
  6
BYLAYER
 10
498.7205444413
 20
1161.1913266677
 11
498.7205444413
 21
1177.6913266677
  0
LINE
  5
298
100
AcDbEntity
  8
0
100
AcDbLine
 62
7
  6
BYLAYER
 10
498.7205444413
 20
1185.1913266677
 11
498.7205444413
 21
1188.6913257303
  0
LINE
  5
299
100
AcDbEntity
  8
3
100
AcDbLine
 62
7
  6
BYLAYER
 10
498.7208024934
 20
122.6913394762
 11
498.7208024934
 21
1161.1913394762
  0
LINE
  5
29A
100
AcDbEntity
  8
0
100
AcDbLine
 62
7
  6
BYLAYER
 10
500.5961244413
 20
1186.3913266677
 11
500.5961244413
 21
1185.1913266677
  0
LINE
  5
29B
100
AcDbEntity
  8
0
100
AcDbLine
 62
7
  6
BYLAYER
 10
506.7203037041
 20
107.1912165292
 11
506.7203037041
 21
105.1912165292
  0
LINE
  5
29C
100
AcDbEntity
  8
0
100
AcDbLine
 62
7
  6
BYLAYER
 10
506.7205444413
 20
1178.6913266677
 11
506.7205444413
 21
1176.6913266677
  0
LINE
  5
29D
100
AcDbEntity
  8
0
100
AcDbLine
 62
7
  6
BYLAYER
 10
507.7203037041
 20
106.1912165292
 11
507.7203037041
 21
107.1912165292
  0
LINE
  5
29E
100
AcDbEntity
  8
0
100
AcDbLine
 62
7
  6
BYLAYER
 10
507.7205444413
 20
1176.6913266677
 11
507.7205444413
 21
1177.6913266677
  0
LINE
  5
29F
100
AcDbEntity
  8
0
100
AcDbLine
 62
7
  6
BYLAYER
 10
507.9205444413
 20
1176.2929255444
 11
507.9205444413
 21
1177.7913266677
  0
LINE
  5
2A0
100
AcDbEntity
  8
0
100
AcDbLine
 62
7
  6
BYLAYER
 10
507.9208024933
 20
107.5901164418
 11
507.9208024933
 21
106.0913266677
  0
LINE
  5
2A1
100
AcDbEntity
  8
0
100
AcDbLine
 62
7
  6
BYLAYER
 10
508.220303777
 20
107.6912165292
 11
508.220303777
 21
108.1912165292
  0
LINE
  5
2A2
100
AcDbEntity
  8
0
100
AcDbLine
 62
7
  6
BYLAYER
 10
508.2205445088
 20
1175.6913266677
 11
508.2205445088
 21
1176.1913266677
  0
LINE
  5
2A3
100
AcDbEntity
  8
0
100
AcDbLine
 62
7
  6
BYLAYER
 10
508.7862966394
 20
1185.1913266677
 11
508.7862966394
 21
1186.3913266677
  0
LINE
  5
2A4
100
AcDbEntity
  8
0
100
AcDbLine
 62
7
  6
BYLAYER
 10
510.7205444413
 20
1185.1913266677
 11
510.7205444413
 21
1188.6913257303
  0
LINE
  5
2A5
100
AcDbEntity
  8
0
100
AcDbLine
 62
7
  6
BYLAYER
 10
512.4705444413
 20
1178.7913266677
 11
512.4705444413
 21
1184.6913266677
  0
LINE
  5
2A6
100
AcDbEntity
  8
0
100
AcDbLine
 62
7
  6
BYLAYER
 10
513.3197542577
 20
122.6912165292
 11
513.3197542577
 21
107.6912165292
  0
LINE
  5
2A7
100
AcDbEntity
  8
0
100
AcDbLine
 62
7
  6
BYLAYER
 10
513.3199949949
 20
1176.1913266677
 11
513.3199949949
 21
1161.1913266677
  0
LINE
  5
2A8
100
AcDbEntity
  8
3
100
AcDbLine
 62
7
  6
BYLAYER
 10
513.320253047
 20
1161.1913394762
 11
513.320253047
 21
122.6913394762
  0
LINE
  5
2A9
100
AcDbEntity
  8
0
100
AcDbLine
 62
7
  6
BYLAYER
 10
514.5205444413
 20
1176.2929255444
 11
514.5205444413
 21
1177.7913266677
  0
LINE
  5
2AA
100
AcDbEntity
  8
0
100
AcDbLine
 62
7
  6
BYLAYER
 10
514.5208024933
 20
107.5891188634
 11
514.5208024933
 21
106.0913266677
  0
LINE
  5
2AB
100
AcDbEntity
  8
0
100
AcDbLine
 62
7
  6
BYLAYER
 10
514.7203037041
 20
107.1912165292
 11
514.7203037041
 21
106.1912165292
  0
LINE
  5
2AC
100
AcDbEntity
  8
0
100
AcDbLine
 62
7
  6
BYLAYER
 10
514.7205444413
 20
1177.6913266677
 11
514.7205444413
 21
1176.6913266677
  0
LINE
  5
2AD
100
AcDbEntity
  8
0
100
AcDbLine
 62
7
  6
BYLAYER
 10
516.0669655367
 20
108.1912165292
 11
516.0669655367
 21
122.6912165292
  0
LINE
  5
2AE
100
AcDbEntity
  8
0
100
AcDbLine
 62
7
  6
BYLAYER
 10
516.0672062739
 20
1161.1913266677
 11
516.0672062739
 21
1175.6913266677
  0
LINE
  5
2AF
100
AcDbEntity
  8
3
100
AcDbLine
 62
7
  6
BYLAYER
 10
516.0674643259
 20
122.6913394762
 11
516.0674643259
 21
1161.1913394762
  0
LINE
  5
2B0
100
AcDbEntity
  8
0
100
AcDbLine
 62
7
  6
BYLAYER
 10
516.632385396
 20
106.1912165292
 11
516.632385396
 21
108.1912165292
  0
LINE
  5
2B1
100
AcDbEntity
  8
0
100
AcDbLine
 62
7
  6
BYLAYER
 10
516.6326261331
 20
1175.6913266677
 11
516.6326261331
 21
1177.6913266677
  0
LINE
  5
2B2
100
AcDbEntity
  8
0
100
AcDbLine
 62
7
  6
BYLAYER
 10
520.2697459599
 20
122.6912165292
 11
520.2697459599
 21
106.1912165292
  0
LINE
  5
2B3
100
AcDbEntity
  8
0
100
AcDbLine
 62
7
  6
BYLAYER
 10
520.2699866971
 20
1177.6913266677
 11
520.2699866971
 21
1161.1913266677
  0
LINE
  5
2B4
100
AcDbEntity
  8
3
100
AcDbLine
 62
7
  6
BYLAYER
 10
520.2702447491
 20
1161.1913394762
 11
520.2702447491
 21
122.6913394762
  0
LINE
  5
2B5
100
AcDbEntity
  8
0
100
AcDbLine
 62
7
  6
BYLAYER
 10
521.7203037041
 20
106.1912165292
 11
521.7203037041
 21
122.6912165292
  0
LINE
  5
2B6
100
AcDbEntity
  8
0
100
AcDbLine
 62
7
  6
BYLAYER
 10
521.7205444413
 20
1161.1913266677
 11
521.7205444413
 21
1177.6913266677
  0
LINE
  5
2B7
100
AcDbEntity
  8
3
100
AcDbLine
 62
7
  6
BYLAYER
 10
521.7208024934
 20
1161.1913394762
 11
521.7208024934
 21
122.6913394762
  0
LINE
  5
2B8
100
AcDbEntity
  8
0
100
AcDbLine
 62
7
  6
BYLAYER
 10
489.4705444413
 20
1185.1913266677
 11
489.9705444413
 21
1184.6913266677
  0
LINE
  5
2B9
100
AcDbEntity
  8
3
100
AcDbLine
 62
7
  6
BYLAYER
 10
421.4788836263
 20
1086.3744042518
 11
466.4788836263
 21
1086.3744042518
  0
LINE
  5
2BA
100
AcDbEntity
  8
0
100
AcDbLine
 62
7
  6
BYLAYER
 10
511.9705444413
 20
1185.1913266677
 11
512.4705444413
 21
1184.6913266677
  0
LINE
  5
2BB
100
AcDbEntity
  8
0
100
AcDbLine
 62
7
  6
BYLAYER
 10
510.2205450056
 20
1189.1913280821
 11
510.7205459893
 21
1188.6913272783
  0
LINE
  5
2BC
100
AcDbEntity
  8
3
100
AcDbLine
 62
7
  6
BYLAYER
 10
462.1421689424
 20
1090.0219042518
 11
463.3867682042
 21
1090.0219042518
  0
LINE
  5
2BD
100
AcDbEntity
  8
3
100
AcDbLine
 62
7
  6
BYLAYER
 10
466.4788836263
 20
1091.3744042518
 11
463.4788836263
 21
1091.3744042518
  0
LINE
  5
2BE
100
AcDbEntity
  8
3
100
AcDbLine
 62
7
  6
BYLAYER
 10
462.0386840084
 20
1091.6978670714
 11
459.0386840084
 21
1091.6978670714
  0
LINE
  5
2BF
100
AcDbEntity
  8
3
100
AcDbLine
 62
7
  6
BYLAYER
 10
424.6788836263
 20
1093.1244042518
 11
438.1788836263
 21
1093.1244042518
  0
LINE
  5
2C0
100
AcDbEntity
  8
3
100
AcDbLine
 62
7
  6
BYLAYER
 10
454.768228601
 20
1093.3744042518
 11
459.0386840084
 21
1093.3744042518
  0
LINE
  5
2C1
100
AcDbEntity
  8
3
100
AcDbLine
 62
7
  6
BYLAYER
 10
462.0386840084
 20
1093.3744042518
 11
462.1421689424
 21
1093.3744042518
  0
LINE
  5
2C2
100
AcDbEntity
  8
3
100
AcDbLine
 62
7
  6
BYLAYER
 10
463.3867682042
 20
1093.3744042518
 11
463.4788836263
 21
1093.3744042518
  0
LINE
  5
2C3
100
AcDbEntity
  8
3
100
AcDbLine
 62
7
  6
BYLAYER
 10
466.4788836263
 20
1093.3744042518
 11
466.7207851785
 21
1093.3744042518
  0
LINE
  5
2C4
100
AcDbEntity
  8
3
100
AcDbLine
 62
7
  6
BYLAYER
 10
462.0386840084
 20
1096.3744042518
 11
459.0386840084
 21
1096.3744042518
  0
LINE
  5
2C5
100
AcDbEntity
  8
3
100
AcDbLine
 62
7
  6
BYLAYER
 10
454.768228601
 20
1099.3744042518
 11
459.0386840084
 21
1099.3744042518
  0
LINE
  5
2C6
100
AcDbEntity
  8
3
100
AcDbLine
 62
7
  6
BYLAYER
 10
462.0386840084
 20
1099.3744042518
 11
462.1421689424
 21
1099.3744042518
  0
LINE
  5
2C7
100
AcDbEntity
  8
3
100
AcDbLine
 62
7
  6
BYLAYER
 10
463.3867682042
 20
1099.3744042518
 11
463.4788836263
 21
1099.3744042518
  0
LINE
  5
2C8
100
AcDbEntity
  8
3
100
AcDbLine
 62
7
  6
BYLAYER
 10
466.4788836263
 20
1099.3744042518
 11
466.7207851785
 21
1099.3744042518
  0
LINE
  5
2C9
100
AcDbEntity
  8
3
100
AcDbLine
 62
7
  6
BYLAYER
 10
438.1788836263
 20
1099.6244042518
 11
424.6788836263
 21
1099.6244042518
  0
LINE
  5
2CA
100
AcDbEntity
  8
3
100
AcDbLine
 62
7
  6
BYLAYER
 10
462.0386840084
 20
1101.0509414322
 11
459.0386840084
 21
1101.0509414322
  0
LINE
  5
2CB
100
AcDbEntity
  8
3
100
AcDbLine
 62
7
  6
BYLAYER
 10
463.3867682042
 20
1102.7269042518
 11
462.1421689424
 21
1102.7269042518
  0
LINE
  5
2CC
100
AcDbEntity
  8
3
100
AcDbLine
 62
7
  6
BYLAYER
 10
462.1421689424
 20
1120.0219042518
 11
463.3867682042
 21
1120.0219042518
  0
LINE
  5
2CD
100
AcDbEntity
  8
3
100
AcDbLine
 62
7
  6
BYLAYER
 10
462.0386840084
 20
1121.6978670714
 11
459.0386840084
 21
1121.6978670714
  0
LINE
  5
2CE
100
AcDbEntity
  8
3
100
AcDbLine
 62
7
  6
BYLAYER
 10
424.6788836263
 20
1123.1244042518
 11
438.1788836263
 21
1123.1244042518
  0
LINE
  5
2CF
100
AcDbEntity
  8
3
100
AcDbLine
 62
7
  6
BYLAYER
 10
454.768228601
 20
1123.3744042518
 11
459.0386840084
 21
1123.3744042518
  0
LINE
  5
2D0
100
AcDbEntity
  8
3
100
AcDbLine
 62
7
  6
BYLAYER
 10
462.0386840084
 20
1123.3744042518
 11
462.1421689424
 21
1123.3744042518
  0
LINE
  5
2D1
100
AcDbEntity
  8
3
100
AcDbLine
 62
7
  6
BYLAYER
 10
463.3867682042
 20
1123.3744042518
 11
463.4788836263
 21
1123.3744042518
  0
LINE
  5
2D2
100
AcDbEntity
  8
3
100
AcDbLine
 62
7
  6
BYLAYER
 10
466.4788836263
 20
1123.3744042518
 11
466.7207851785
 21
1123.3744042518
  0
LINE
  5
2D3
100
AcDbEntity
  8
3
100
AcDbLine
 62
7
  6
BYLAYER
 10
462.0386840084
 20
1126.3744042518
 11
459.0386840084
 21
1126.3744042518
  0
LINE
  5
2D4
100
AcDbEntity
  8
3
100
AcDbLine
 62
7
  6
BYLAYER
 10
454.768228601
 20
1129.3744042518
 11
459.0386840084
 21
1129.3744042518
  0
LINE
  5
2D5
100
AcDbEntity
  8
3
100
AcDbLine
 62
7
  6
BYLAYER
 10
462.0386840084
 20
1129.3744042518
 11
462.1421689424
 21
1129.3744042518
  0
LINE
  5
2D6
100
AcDbEntity
  8
3
100
AcDbLine
 62
7
  6
BYLAYER
 10
463.3867682042
 20
1129.3744042518
 11
463.4788836263
 21
1129.3744042518
  0
LINE
  5
2D7
100
AcDbEntity
  8
3
100
AcDbLine
 62
7
  6
BYLAYER
 10
466.4788836263
 20
1129.3744042518
 11
466.7207851785
 21
1129.3744042518
  0
LINE
  5
2D8
100
AcDbEntity
  8
3
100
AcDbLine
 62
7
  6
BYLAYER
 10
438.1788836263
 20
1129.6244042518
 11
424.6788836263
 21
1129.6244042518
  0
LINE
  5
2D9
100
AcDbEntity
  8
3
100
AcDbLine
 62
7
  6
BYLAYER
 10
462.0386840084
 20
1131.0509414322
 11
459.0386840084
 21
1131.0509414322
  0
LINE
  5
2DA
100
AcDbEntity
  8
3
100
AcDbLine
 62
7
  6
BYLAYER
 10
463.4788836263
 20
1131.3744042518
 11
466.4788836263
 21
1131.3744042518
  0
LINE
  5
2DB
100
AcDbEntity
  8
3
100
AcDbLine
 62
7
  6
BYLAYER
 10
463.3867682042
 20
1132.7269042518
 11
462.1421689424
 21
1132.7269042518
  0
LINE
  5
2DC
100
AcDbEntity
  8
3
100
AcDbLine
 62
7
  6
BYLAYER
 10
421.4788836263
 20
1136.3744042518
 11
466.4788836263
 21
1136.3744042518
  0
LINE
  5
2DD
100
AcDbEntity
  8
0
100
AcDbLine
 62
7
  6
BYLAYER
 10
466.7205444413
 20
1161.1913266677
 11
521.7205444413
 21
1161.1913266677
  0
LINE
  5
2DE
100
AcDbEntity
  8
3
100
AcDbLine
 62
7
  6
BYLAYER
 10
466.7207851785
 20
1161.1913394762
 11
521.7208024934
 21
1161.1913394762
  0
LINE
  5
2DF
100
AcDbEntity
  8
0
100
AcDbLine
 62
7
  6
BYLAYER
 10
504.7369463498
 20
1174.6913266677
 11
496.7205444413
 21
1174.6913266677
  0
LINE
  5
2E0
100
AcDbEntity
  8
0
100
AcDbLine
 62
7
  6
BYLAYER
 10
482.2041425328
 20
1174.6913266677
 11
490.2205444413
 21
1174.6913266677
  0
LINE
  5
2E1
100
AcDbEntity
  8
0
100
AcDbLine
 62
7
  6
BYLAYER
 10
504.7367306462
 20
1174.7025209187
 11
496.8257534702
 21
1174.7025209187
  0
LINE
  5
2E2
100
AcDbEntity
  8
0
100
AcDbLine
 62
7
  6
BYLAYER
 10
482.2043584157
 20
1174.7025397506
 11
490.1152479566
 21
1174.7025397506
  0
LINE
  5
2E3
100
AcDbEntity
  8
0
100
AcDbLine
 62
7
  6
BYLAYER
 10
482.2039262436
 20
1175.680070851
 11
490.3260391015
 21
1175.680070851
  0
LINE
  5
2E4
100
AcDbEntity
  8
0
100
AcDbLine
 62
7
  6
BYLAYER
 10
504.7371620534
 20
1175.6801324167
 11
496.6153354124
 21
1175.6801324167
  0
LINE
  5
2E5
100
AcDbEntity
  8
0
100
AcDbLine
 62
7
  6
BYLAYER
 10
466.7205444413
 20
1175.6913266677
 11
474.2205444413
 21
1175.6913266677
  0
LINE
  5
2E6
100
AcDbEntity
  8
0
100
AcDbLine
 62
7
  6
BYLAYER
 10
508.2205444413
 20
1175.6913266677
 11
516.6326261331
 21
1175.6913266677
  0
LINE
  5
2E7
100
AcDbEntity
  8
0
100
AcDbLine
 62
7
  6
BYLAYER
 10
467.2205444413
 20
1176.1913266677
 11
474.2205444413
 21
1176.1913266677
  0
LINE
  5
2E8
100
AcDbEntity
  8
0
100
AcDbLine
 62
7
  6
BYLAYER
 10
508.2205444413
 20
1176.1913266677
 11
514.7702979349
 21
1176.1913266677
  0
LINE
  5
2E9
100
AcDbEntity
  8
0
100
AcDbLine
 62
7
  6
BYLAYER
 10
515.1328596708
 20
1176.6913266677
 11
514.5205444413
 21
1176.6913266677
  0
LINE
  5
2EA
100
AcDbEntity
  8
0
100
AcDbLine
 62
7
  6
BYLAYER
 10
507.9205444413
 20
1176.6913266677
 11
506.7205444413
 21
1176.6913267249
  0
LINE
  5
2EB
100
AcDbEntity
  8
0
100
AcDbLine
 62
7
  6
BYLAYER
 10
475.7205444413
 20
1176.6913267366
 11
474.5205444413
 21
1176.6913266677
  0
LINE
  5
2EC
100
AcDbEntity
  8
0
100
AcDbLine
 62
7
  6
BYLAYER
 10
467.9205444413
 20
1176.6913266677
 11
466.7205444413
 21
1176.6913267367
  0
LINE
  5
2ED
100
AcDbEntity
  8
0
100
AcDbLine
 62
7
  6
BYLAYER
 10
466.7205444413
 20
1177.6913266677
 11
467.9205444413
 21
1177.6913266677
  0
LINE
  5
2EE
100
AcDbEntity
  8
0
100
AcDbLine
 62
7
  6
BYLAYER
 10
474.5205444413
 20
1177.6913266677
 11
490.2205444413
 21
1177.6913266611
  0
LINE
  5
2EF
100
AcDbEntity
  8
0
100
AcDbLine
 62
7
  6
BYLAYER
 10
498.2205444413
 20
1177.6913266677
 11
507.9205444413
 21
1177.6913266677
  0
LINE
  5
2F0
100
AcDbEntity
  8
0
100
AcDbLine
 62
7
  6
BYLAYER
 10
514.5205444413
 20
1177.6913266677
 11
521.7205444413
 21
1177.6913266677
  0
LINE
  5
2F1
100
AcDbEntity
  8
0
100
AcDbLine
 62
7
  6
BYLAYER
 10
467.9205444413
 20
1177.7913266677
 11
474.5205444413
 21
1177.7913266677
  0
LINE
  5
2F2
100
AcDbEntity
  8
0
100
AcDbLine
 62
7
  6
BYLAYER
 10
507.9205444413
 20
1177.7913266677
 11
514.5205444413
 21
1177.7913266677
  0
LINE
  5
2F3
100
AcDbEntity
  8
0
100
AcDbLine
 62
7
  6
BYLAYER
 10
490.0790962612
 20
1178.1913266677
 11
498.3610280955
 21
1178.1913266677
  0
LINE
  5
2F4
100
AcDbEntity
  8
0
100
AcDbLine
 62
7
  6
BYLAYER
 10
468.5473392378
 20
1178.6913266677
 11
467.7205444413
 21
1178.6913266677
  0
LINE
  5
2F5
100
AcDbEntity
  8
0
100
AcDbLine
 62
7
  6
BYLAYER
 10
473.8937496448
 20
1178.6913266677
 11
508.5473392378
 21
1178.6913266677
  0
LINE
  5
2F6
100
AcDbEntity
  8
0
100
AcDbLine
 62
7
  6
BYLAYER
 10
513.8937496448
 20
1178.6913266677
 11
520.7205444413
 21
1178.6913266677
  0
LINE
  5
2F7
100
AcDbEntity
  8
0
100
AcDbLine
 62
7
  6
BYLAYER
 10
468.9206370404
 20
1178.7913266677
 11
473.5204603427
 21
1178.7913266677
  0
LINE
  5
2F8
100
AcDbEntity
  8
0
100
AcDbLine
 62
7
  6
BYLAYER
 10
508.9206370404
 20
1178.7913266677
 11
513.5204603427
 21
1178.7913266677
  0
LINE
  5
2F9
100
AcDbEntity
  8
0
100
AcDbLine
 62
7
  6
BYLAYER
 10
512.4704801445
 20
1180.1913266677
 11
496.9706087381
 21
1180.1913266677
  0
LINE
  5
2FA
100
AcDbEntity
  8
0
100
AcDbLine
 62
7
  6
BYLAYER
 10
489.9704801445
 20
1180.1913266677
 11
474.4706087381
 21
1180.1913266677
  0
LINE
  5
2FB
100
AcDbEntity
  8
0
100
AcDbLine
 62
7
  6
BYLAYER
 10
512.4705444413
 20
1183.1913266677
 11
496.9705444413
 21
1183.1913266677
  0
LINE
  5
2FC
100
AcDbEntity
  8
0
100
AcDbLine
 62
7
  6
BYLAYER
 10
489.9705444413
 20
1183.1913266677
 11
474.4705444413
 21
1183.1913266677
  0
LINE
  5
2FD
100
AcDbEntity
  8
0
100
AcDbLine
 62
7
  6
BYLAYER
 10
474.4705444413
 20
1184.6913266677
 11
489.9705444413
 21
1184.6913266677
  0
LINE
  5
2FE
100
AcDbEntity
  8
0
100
AcDbLine
 62
7
  6
BYLAYER
 10
496.9705444413
 20
1184.6913266677
 11
512.4705444413
 21
1184.6913266677
  0
LINE
  5
2FF
100
AcDbEntity
  8
0
100
AcDbLine
 62
7
  6
BYLAYER
 10
474.9705444413
 20
1185.1913266677
 11
489.4705444413
 21
1185.1913266677
  0
LINE
  5
300
100
AcDbEntity
  8
0
100
AcDbLine
 62
7
  6
BYLAYER
 10
497.4705444413
 20
1185.1913266677
 11
511.9705444413
 21
1185.1913266677
  0
LINE
  5
301
100
AcDbEntity
  8
0
100
AcDbLine
 62
7
  6
BYLAYER
 10
478.0968044413
 20
1186.3913266677
 11
486.3468044413
 21
1186.3913266677
  0
LINE
  5
302
100
AcDbEntity
  8
0
100
AcDbLine
 62
7
  6
BYLAYER
 10
500.5961244413
 20
1186.3913266677
 11
508.7862966394
 21
1186.3913266677
  0
LINE
  5
303
100
AcDbEntity
  8
0
100
AcDbLine
 62
7
  6
BYLAYER
 10
478.3968919174
 20
1186.6913266677
 11
486.0468230584
 21
1186.6913266677
  0
LINE
  5
304
100
AcDbEntity
  8
0
100
AcDbLine
 62
7
  6
BYLAYER
 10
500.8961331056
 20
1186.6913266677
 11
508.4815190753
 21
1186.6913266677
  0
LINE
  5
305
100
AcDbEntity
  8
0
100
AcDbLine
 62
7
  6
BYLAYER
 10
498.7205444413
 20
1188.6913257303
 11
510.7205444413
 21
1188.6913257303
  0
LINE
  5
306
100
AcDbEntity
  8
0
100
AcDbLine
 62
7
  6
BYLAYER
 10
499.220543877
 20
1189.1913266677
 11
510.2205450056
 21
1189.1913266677
  0
ARC
  5
307
100
AcDbEntity
  8
3
100
AcDbCircle
 62
7
  6
BYLAYER
 10
421.4788836263
 20
195.039501791
 40
5.0
100
AcDbArc
 50
90.0
 51
180.0
  0
ARC
  5
308
100
AcDbEntity
  8
3
100
AcDbCircle
 62
7
  6
BYLAYER
 10
421.4788836263
 20
155.039501791
 40
5.0
100
AcDbArc
 50
180.0
 51
270.0
  0
ARC
  5
309
100
AcDbEntity
  8
3
100
AcDbCircle
 62
7
  6
BYLAYER
 10
424.6788836263
 20
160.039501791
 40
3.25
100
AcDbArc
 50
90.0
 51
270.0
  0
ARC
  5
30A
100
AcDbEntity
  8
3
100
AcDbCircle
 62
7
  6
BYLAYER
 10
438.1788836263
 20
160.039501791
 40
3.25
100
AcDbArc
 50
270.0
 51
90.0
  0
ARC
  5
30B
100
AcDbEntity
  8
3
100
AcDbCircle
 62
7
  6
BYLAYER
 10
424.6788836263
 20
190.039501791
 40
3.25
100
AcDbArc
 50
90.0
 51
270.0
  0
ARC
  5
30C
100
AcDbEntity
  8
3
100
AcDbCircle
 62
7
  6
BYLAYER
 10
438.1788836263
 20
190.039501791
 40
3.25
100
AcDbArc
 50
270.0
 51
90.0
  0
ARC
  5
30D
100
AcDbEntity
  8
0
100
AcDbCircle
 62
7
  6
BYLAYER
 10
468.9207906202
 20
106.0913266677
 40
1.0
100
AcDbArc
 50
180.0
 51
270.0
  0
ARC
  5
30E
100
AcDbEntity
  8
0
100
AcDbCircle
 62
7
  6
BYLAYER
 10
467.7203037041
 20
106.1912165292
 40
1.0
100
AcDbArc
 50
180.0000000001
 51
270.0
  0
ARC
  5
30F
100
AcDbEntity
  8
0
100
AcDbCircle
 62
7
  6
BYLAYER
 10
467.2203037041
 20
108.1912165292
 40
0.5
100
AcDbArc
 50
180.0
 51
270.0
  0
ARC
  5
310
100
AcDbEntity
  8
3
100
AcDbCircle
 62
7
  6
BYLAYER
 10
421.4788836263
 20
1131.3744042518
 40
5.0
100
AcDbArc
 50
90.0
 51
180.0
  0
ARC
  5
311
100
AcDbEntity
  8
3
100
AcDbCircle
 62
7
  6
BYLAYER
 10
421.4788836263
 20
1091.3744042518
 40
5.0
100
AcDbArc
 50
180.0
 51
270.0
  0
ARC
  5
312
100
AcDbEntity
  8
3
100
AcDbCircle
 62
7
  6
BYLAYER
 10
424.6788836263
 20
1096.3744042518
 40
3.25
100
AcDbArc
 50
90.0
 51
270.0
  0
ARC
  5
313
100
AcDbEntity
  8
3
100
AcDbCircle
 62
7
  6
BYLAYER
 10
438.1788836263
 20
1096.3744042518
 40
3.25
100
AcDbArc
 50
270.0
 51
90.0
  0
ARC
  5
314
100
AcDbEntity
  8
3
100
AcDbCircle
 62
7
  6
BYLAYER
 10
424.6788836263
 20
1126.3744042518
 40
3.25
100
AcDbArc
 50
90.0
 51
270.0
  0
ARC
  5
315
100
AcDbEntity
  8
3
100
AcDbCircle
 62
7
  6
BYLAYER
 10
438.1788836263
 20
1126.3744042518
 40
3.25
100
AcDbArc
 50
270.0
 51
90.0
  0
ARC
  5
316
100
AcDbEntity
  8
0
100
AcDbCircle
 62
7
  6
BYLAYER
 10
468.9205444413
 20
1177.7913266677
 40
1.0
100
AcDbArc
 50
90.0
 51
180.0
  0
ARC
  5
317
100
AcDbEntity
  8
0
100
AcDbCircle
 62
7
  6
BYLAYER
 10
467.7205444413
 20
1177.6913266677
 40
1.0
100
AcDbArc
 50
90.0
 51
180.0
  0
ARC
  5
318
100
AcDbEntity
  8
0
100
AcDbCircle
 62
7
  6
BYLAYER
 10
467.2205444413
 20
1175.6913266677
 40
0.5
100
AcDbArc
 50
90.0
 51
180.0
  0
ARC
  5
319
100
AcDbEntity
  8
0
100
AcDbCircle
 62
7
  6
BYLAYER
 10
494.4471062935
 20
93.6166878442
 40
25.949203353
100
AcDbArc
 50
33.0803197527
 51
33.6236390969
  0
ARC
  5
31A
100
AcDbEntity
  8
0
100
AcDbCircle
 62
7
  6
BYLAYER
 10
473.5207906202
 20
106.0913266677
 40
1.0
100
AcDbArc
 50
270.0
 51
360.0
  0
ARC
  5
31B
100
AcDbEntity
  8
0
100
AcDbCircle
 62
7
  6
BYLAYER
 10
489.2203037041
 20
106.1912165292
 40
1.0
100
AcDbArc
 50
270.0
 51
360.0
  0
ARC
  5
31C
100
AcDbEntity
  8
0
100
AcDbCircle
 62
7
  6
BYLAYER
 10
475.7203037041
 20
106.1912165292
 40
1.0
100
AcDbArc
 50
180.0
 51
270.0
  0
ARC
  5
31D
100
AcDbEntity
  8
0
100
AcDbCircle
 62
7
  6
BYLAYER
 10
474.2203037041
 20
107.1912165292
 40
0.5
100
AcDbArc
 50
0.0
 51
90.0
  0
ARC
  5
31E
100
AcDbEntity
  8
0
100
AcDbCircle
 62
7
  6
BYLAYER
 10
508.9208024933
 20
106.0913266677
 40
1.0
100
AcDbArc
 50
180.0
 51
270.0
  0
ARC
  5
31F
100
AcDbEntity
  8
0
100
AcDbCircle
 62
7
  6
BYLAYER
 10
513.5208024933
 20
106.0913266677
 40
1.0
100
AcDbArc
 50
270.0
 51
360.0
  0
ARC
  5
320
100
AcDbEntity
  8
0
100
AcDbCircle
 62
7
  6
BYLAYER
 10
499.2203037041
 20
106.1912165292
 40
1.0
100
AcDbArc
 50
179.9999999984
 51
270.0
  0
ARC
  5
321
100
AcDbEntity
  8
0
100
AcDbCircle
 62
7
  6
BYLAYER
 10
506.7203037041
 20
106.1912165292
 40
1.0
100
AcDbArc
 50
270.0
 51
360.0
  0
ARC
  5
322
100
AcDbEntity
  8
0
100
AcDbCircle
 62
7
  6
BYLAYER
 10
515.7203037041
 20
106.1912165292
 40
1.0
100
AcDbArc
 50
180.0
 51
270.0
  0
ARC
  5
323
100
AcDbEntity
  8
0
100
AcDbCircle
 62
7
  6
BYLAYER
 10
520.7203037041
 20
106.1912165292
 40
1.0
100
AcDbArc
 50
270.0000000017
 51
360.0
  0
ARC
  5
324
100
AcDbEntity
  8
0
100
AcDbCircle
 62
7
  6
BYLAYER
 10
508.2203037041
 20
107.1912165292
 40
0.5
100
AcDbArc
 50
90.0
 51
180.0
  0
ARC
  5
325
100
AcDbEntity
  8
0
100
AcDbCircle
 62
7
  6
BYLAYER
 10
514.2203037041
 20
107.1912165292
 40
0.5
100
AcDbArc
 50
0.0
 51
90.0
  0
ARC
  5
326
100
AcDbEntity
  8
0
100
AcDbCircle
 62
7
  6
BYLAYER
 10
473.5205444413
 20
1177.7913266677
 40
1.0
100
AcDbArc
 50
0.0
 51
90.0
  0
ARC
  5
327
100
AcDbEntity
  8
0
100
AcDbCircle
 62
7
  6
BYLAYER
 10
475.7205444413
 20
1177.6913266677
 40
1.0
100
AcDbArc
 50
90.0
 51
180.0
  0
ARC
  5
328
100
AcDbEntity
  8
0
100
AcDbCircle
 62
7
  6
BYLAYER
 10
489.2205444413
 20
1177.6913266677
 40
1.0
100
AcDbArc
 50
0.0
 51
90.0
  0
ARC
  5
329
100
AcDbEntity
  8
0
100
AcDbCircle
 62
7
  6
BYLAYER
 10
474.2205444413
 20
1176.6913266677
 40
0.5
100
AcDbArc
 50
270.0
 51
360.0
  0
ARC
  5
32A
100
AcDbEntity
  8
0
100
AcDbCircle
 62
7
  6
BYLAYER
 10
496.7205444413
 20
1175.1913266677
 40
0.5
100
AcDbArc
 50
102.1468526144
 51
282.1468526144
  0
ARC
  5
32B
100
AcDbEntity
  8
0
100
AcDbCircle
 62
7
  6
BYLAYER
 10
490.2205444413
 20
1175.1913266677
 40
0.5
100
AcDbArc
 50
257.8196647598
 51
77.8196647598
  0
ARC
  5
32C
100
AcDbEntity
  8
0
100
AcDbCircle
 62
7
  6
BYLAYER
 10
492.9935564058
 20
1191.2227064111
 40
27.6896077065
100
AcDbArc
 50
326.3934359327
 51
326.9026052163
  0
ARC
  5
32D
100
AcDbEntity
  8
0
100
AcDbCircle
 62
7
  6
BYLAYER
 10
478.3968044413
 20
1186.3913266677
 40
0.3
100
AcDbArc
 50
90.0
 51
180.0
  0
ARC
  5
32E
100
AcDbEntity
  8
0
100
AcDbCircle
 62
7
  6
BYLAYER
 10
486.0468044413
 20
1186.3913266677
 40
0.3
100
AcDbArc
 50
0.0000000001
 51
90.0
  0
ARC
  5
32F
100
AcDbEntity
  8
0
100
AcDbCircle
 62
7
  6
BYLAYER
 10
508.9205444413
 20
1177.7913266677
 40
1.0
100
AcDbArc
 50
90.0
 51
180.0
  0
ARC
  5
330
100
AcDbEntity
  8
0
100
AcDbCircle
 62
7
  6
BYLAYER
 10
513.5205444413
 20
1177.7913266677
 40
1.0
100
AcDbArc
 50
0.0
 51
90.0
  0
ARC
  5
331
100
AcDbEntity
  8
0
100
AcDbCircle
 62
7
  6
BYLAYER
 10
499.2205444413
 20
1177.6913266677
 40
1.0
100
AcDbArc
 50
90.0
 51
180.0000000008
  0
ARC
  5
332
100
AcDbEntity
  8
0
100
AcDbCircle
 62
7
  6
BYLAYER
 10
520.7205444413
 20
1177.6913266677
 40
1.0
100
AcDbArc
 50
0.0000000002
 51
90.0000000009
  0
ARC
  5
333
100
AcDbEntity
  8
0
100
AcDbCircle
 62
7
  6
BYLAYER
 10
506.7205444413
 20
1177.6913266677
 40
1.0
100
AcDbArc
 50
0.0
 51
90.0
  0
ARC
  5
334
100
AcDbEntity
  8
0
100
AcDbCircle
 62
7
  6
BYLAYER
 10
515.7205444413
 20
1177.6913266677
 40
1.0
100
AcDbArc
 50
90.0000000003
 51
180.0
  0
ARC
  5
335
100
AcDbEntity
  8
0
100
AcDbCircle
 62
7
  6
BYLAYER
 10
514.2205444413
 20
1176.6913266677
 40
0.5
100
AcDbArc
 50
270.0
 51
360.0
  0
ARC
  5
336
100
AcDbEntity
  8
0
100
AcDbCircle
 62
7
  6
BYLAYER
 10
508.2205444413
 20
1176.6913266677
 40
0.5
100
AcDbArc
 50
179.9999999999
 51
270.0
  0
ARC
  5
337
100
AcDbEntity
  8
0
100
AcDbCircle
 62
7
  6
BYLAYER
 10
508.4833890561
 20
1186.3865565837
 40
0.3044707676
100
AcDbArc
 50
36.4827958938
 51
54.5150619297
  0
ARC
  5
338
100
AcDbEntity
  8
0
100
AcDbCircle
 62
7
  6
BYLAYER
 10
500.8961244413
 20
1186.3913266677
 40
0.3
100
AcDbArc
 50
90.0
 51
180.0
  0
SPLINE
  5
339
100
AcDbEntity
  8
0
100
AcDbSpline
 62
7
  6
BYLAYER
 70
0
 71
3
 72
8
 73
4
 74
0
 42
0.0000001
 43
0.0000001
 44
0.0000000001
 40
0.0
 40
0.0
 40
0.0
 40
0.0
 40
1.0
 40
1.0
 40
1.0
 40
1.0
 10
508.7862966394
 20
1186.3913266677
 30
0.0
 10
508.7862966394
 20
1186.4531906491
 30
0.0
 10
508.7649109015
 20
1186.5177992123
 30
0.0
 10
508.7281943409
 20
1186.567589235
 30
0.0
  0
SPLINE
  5
33A
100
AcDbEntity
  8
0
100
AcDbSpline
 62
7
  6
BYLAYER
 70
0
 71
3
 72
8
 73
4
 74
0
 42
0.0000001
 43
0.0000001
 44
0.0000000001
 40
0.0
 40
0.0
 40
0.0
 40
0.0
 40
1.0
 40
1.0
 40
1.0
 40
1.0
 10
508.6601309634
 20
1186.634477431
 30
0.0
 10
508.6092323149
 20
1186.6707142228
 30
0.0
 10
508.5439994175
 20
1186.6913281736
 30
0.0
 10
508.4815192007
 20
1186.6913266677
 30
0.0
  0
SPLINE
  5
33B
100
AcDbEntity
  8
0
100
AcDbSpline
 62
7
  6
BYLAYER
 70
0
 71
3
 72
16
 73
12
 74
0
 42
0.0000001
 43
0.0000001
 44
0.0000000001
 40
0.0
 40
0.0
 40
0.0
 40
0.0
 40
0.2636273647
 40
0.4178764038
 40
0.5741876959
 40
0.7240052304
 40
0.8563237188
 40
0.9120390276
 40
0.957262702
 40
0.9883504454
 40
1.0
 40
1.0
 40
1.0
 40
1.0
 10
467.720544453
 20
1176.6913266677
 30
0.0
 10
467.720544298
 20
1176.628032653
 30
0.0
 10
467.6509981211
 20
1176.5381070692
 30
0.0
 10
467.5546306737
 20
1176.4438531705
 30
0.0
 10
467.4698455349
 20
1176.3717880735
 30
0.0
 10
467.3879154476
 20
1176.3059718086
 30
0.0
 10
467.3227858138
 20
1176.2574850348
 30
0.0
 10
467.2770537634
 20
1176.2252322868
 30
0.0
 10
467.2497553662
 20
1176.208820248
 30
0.0
 10
467.232999129
 20
1176.1963517747
 30
0.0
 10
467.2222824497
 20
1176.1935180557
 30
0.0
 10
467.2205444496
 20
1176.1913266706
 30
0.0
  0
SPLINE
  5
33C
100
AcDbEntity
  8
0
100
AcDbSpline
 62
7
  6
BYLAYER
 70
0
 71
3
 72
11
 73
7
 74
0
 42
0.0000001
 43
0.0000001
 44
0.0000000001
 40
0.0
 40
0.0
 40
0.0
 40
0.0
 40
0.3404385698
 40
0.6266185405
 40
0.8401374976
 40
1.0
 40
1.0
 40
1.0
 40
1.0
 10
489.7205430181
 20
1177.6913266677
 30
0.0
 10
489.7205430177
 20
1177.8279276859
 30
0.0
 10
489.6956815037
 20
1178.0805754759
 30
0.0
 10
489.5879319335
 20
1178.4028388039
 30
0.0
 10
489.4334516685
 20
1178.6257435131
 30
0.0
 10
489.2846863476
 20
1178.6913121744
 30
0.0
 10
489.2205415005
 20
1178.6913266682
 30
0.0
  0
SPLINE
  5
33D
100
AcDbEntity
  8
0
100
AcDbSpline
 62
7
  6
BYLAYER
 70
0
 71
3
 72
12
 73
8
 74
0
 42
0.0000001
 43
0.0000001
 44
0.0000000001
 40
0.0
 40
0.0
 40
0.0
 40
0.0
 40
0.1249607169
 40
0.2501491118
 40
0.4995020359
 40
0.7494105011
 40
1.0
 40
1.0
 40
1.0
 40
1.0
 10
506.7205444413
 20
1176.6913266677
 30
0.0
 10
506.720544577
 20
1176.6083185854
 30
0.0
 10
506.7526910035
 20
1176.4410563851
 30
0.0
 10
506.915579898
 20
1176.1478202499
 30
0.0
 10
507.2403608993
 20
1175.8692245501
 30
0.0
 10
507.7187474571
 20
1175.698246445
 30
0.0
 10
508.0540844989
 20
1175.69132666
 30
0.0
 10
508.2205444413
 20
1175.6913266677
 30
0.0
  0
SPLINE
  5
33E
100
AcDbEntity
  8
0
100
AcDbSpline
 62
7
  6
BYLAYER
 70
0
 71
3
 72
12
 73
8
 74
0
 42
0.0000001
 43
0.0000001
 44
0.0000000001
 40
0.0
 40
0.0
 40
0.0
 40
0.0
 40
0.1204115357
 40
0.2167519688
 40
0.3384069038
 40
0.6443218671
 40
1.0
 40
1.0
 40
1.0
 40
1.0
 10
519.9952655692
 20
1178.6913266677
 30
0.0
 10
520.0385311226
 20
1178.6913266677
 30
0.0
 10
520.1034175575
 20
1178.6227107551
 30
0.0
 10
520.1530100409
 20
1178.5161921796
 30
0.0
 10
520.2122375379
 20
1178.3351270166
 30
0.0
 10
520.2573920174
 20
1178.0572115812
 30
0.0
 10
520.2699866971
 20
1177.8191268087
 30
0.0
 10
520.2699866971
 20
1177.6913266677
 30
0.0
  0
SPLINE
  5
33F
100
AcDbEntity
  8
0
100
AcDbSpline
 62
7
  6
BYLAYER
 70
0
 71
3
 72
9
 73
5
 74
0
 42
0.0000001
 43
0.0000001
 44
0.0000000001
 40
0.0
 40
0.0
 40
0.0
 40
0.0
 40
0.2472785885
 40
1.0
 40
1.0
 40
1.0
 40
1.0
 10
516.6326261331
 20
1175.6913266677
 30
0.0
 10
516.5851972062
 20
1175.7087609535
 30
0.0
 10
516.3932829004
 20
1175.7789592045
 30
0.0
 10
516.2007066177
 20
1175.8473870859
 30
0.0
 10
516.0550631651
 20
1175.8968693717
 30
0.0
  0
SPLINE
  5
340
100
AcDbEntity
  8
0
100
AcDbSpline
 62
7
  6
BYLAYER
 70
0
 71
3
 72
8
 73
4
 74
0
 42
0.0000001
 43
0.0000001
 44
0.0000000001
 40
0.0
 40
0.0
 40
0.0
 40
0.0
 40
1.0
 40
1.0
 40
1.0
 40
1.0
 10
516.1903466694
 20
1176.1024121837
 30
0.0
 10
516.3422327028
 20
1175.9703439694
 30
0.0
 10
516.4889123473
 20
1175.8322441271
 30
0.0
 10
516.6326262275
 20
1175.6913267718
 30
0.0
  0
SPLINE
  5
341
100
AcDbEntity
  8
0
100
AcDbSpline
 62
7
  6
BYLAYER
 70
0
 71
3
 72
10
 73
6
 74
0
 42
0.0000001
 43
0.0000001
 44
0.0000000001
 40
0.0
 40
0.0
 40
0.0
 40
0.0
 40
0.2114258548
 40
0.4596612947
 40
1.0
 40
1.0
 40
1.0
 40
1.0
 10
515.1328596708
 20
1176.6913266677
 30
0.0
 10
515.2192606739
 20
1176.6913260812
 30
0.0
 10
515.4045547814
 20
1176.6355717064
 30
0.0
 10
515.7634950371
 20
1176.442190002
 30
0.0
 10
516.0237008311
 20
1176.2472846228
 30
0.0
 10
516.1903465755
 20
1176.1024120757
 30
0.0
  0
SPLINE
  5
342
100
AcDbEntity
  8
0
100
AcDbSpline
 62
7
  6
BYLAYER
 70
0
 71
3
 72
10
 73
6
 74
0
 42
0.0000001
 43
0.0000001
 44
0.0000000001
 40
0.0
 40
0.0
 40
0.0
 40
0.0
 40
0.5192781373
 40
0.7706703291
 40
1.0
 40
1.0
 40
1.0
 40
1.0
 10
516.0550632245
 20
1175.8968695774
 30
0.0
 10
515.8393489447
 20
1175.9733727657
 30
0.0
 10
515.5135453093
 20
1176.0724157534
 30
0.0
 10
515.0829534289
 20
1176.166311659
 30
0.0
 10
514.8713780381
 20
1176.1913264302
 30
0.0
 10
514.7702980241
 20
1176.1913266677
 30
0.0
  0
SPLINE
  5
343
100
AcDbEntity
  8
0
100
AcDbSpline
 62
7
  6
BYLAYER
 70
0
 71
3
 72
9
 73
5
 74
0
 42
0.0000001
 43
0.0000001
 44
0.0000000001
 40
0.0
 40
0.0
 40
0.0
 40
0.0
 40
0.2566268573
 40
1.0
 40
1.0
 40
1.0
 40
1.0
 10
516.0672062739
 20
1175.6913266677
 30
0.0
 10
516.0672062739
 20
1175.7089459234
 30
0.0
 10
516.0662015135
 20
1175.7775954739
 30
0.0
 10
516.0613380569
 20
1175.8462187326
 30
0.0
 10
516.0550631651
 20
1175.8968693717
 30
0.0
  0
SPLINE
  5
344
100
AcDbEntity
  8
0
100
AcDbSpline
 62
7
  6
BYLAYER
 70
0
 71
3
 72
12
 73
8
 74
0
 42
0.0000001
 43
0.0000001
 44
0.0000000001
 40
0.0
 40
0.0
 40
0.0
 40
0.0
 40
0.3555601317
 40
0.6614267398
 40
0.7831217149
 40
0.8795320322
 40
1.0
 40
1.0
 40
1.0
 40
1.0
 10
516.6326261331
 20
1177.6913266677
 30
0.0
 10
516.6326261331
 20
1177.8190839491
 30
0.0
 10
516.6200396034
 20
1178.0571084475
 30
0.0
 10
516.5749066874
 20
1178.3349780709
 30
0.0
 10
516.5156975695
 20
1178.5160732458
 30
0.0
 10
516.4661010908
 20
1178.6226485496
 30
0.0
 10
516.4011906796
 20
1178.6913266677
 30
0.0
 10
516.3579050052
 20
1178.6913266677
 30
0.0
  0
SPLINE
  5
345
100
AcDbEntity
  8
0
100
AcDbSpline
 62
7
  6
BYLAYER
 70
0
 71
3
 72
11
 73
7
 74
0
 42
0.0000001
 43
0.0000001
 44
0.0000000001
 40
0.0
 40
0.0
 40
0.0
 40
0.0
 40
0.2742864213
 40
0.5514542927
 40
0.7962818329
 40
1.0
 40
1.0
 40
1.0
 40
1.0
 10
515.1328596717
 20
1176.6913266677
 30
0.0
 10
515.1328596651
 20
1176.6293935143
 30
0.0
 10
515.1161659859
 20
1176.504191751
 30
0.0
 10
515.0404082136
 20
1176.3376073565
 30
0.0
 10
514.9187808575
 20
1176.2199667027
 30
0.0
 10
514.8162970551
 20
1176.1913266674
 30
0.0
 10
514.7702980281
 20
1176.1913266677
 30
0.0
  0
SPLINE
  5
346
100
AcDbEntity
  8
0
100
AcDbSpline
 62
7
  6
BYLAYER
 70
0
 71
3
 72
11
 73
7
 74
0
 42
0.0000001
 43
0.0000001
 44
0.0000000001
 40
0.0
 40
0.0
 40
0.0
 40
0.0
 40
0.1598605771
 40
0.3733762137
 40
0.6595504004
 40
1.0
 40
1.0
 40
1.0
 40
1.0
 10
499.2205464755
 20
1178.6913266681
 30
0.0
 10
499.1564023944
 20
1178.6913135368
 30
0.0
 10
499.0076389849
 20
1178.62574446
 30
0.0
 10
498.8531596706
 20
1178.4028457879
 30
0.0
 10
498.7454070614
 20
1178.0805820823
 30
0.0
 10
498.7205456271
 20
1177.8279321248
 30
0.0
 10
498.7205449821
 20
1177.6913266678
 30
0.0
  0
SPLINE
  5
347
100
AcDbEntity
  8
0
100
AcDbSpline
 62
7
  6
BYLAYER
 70
0
 71
3
 72
12
 73
8
 74
0
 42
0.0000001
 43
0.0000001
 44
0.0000000001
 40
0.0
 40
0.0
 40
0.0
 40
0.0
 40
0.1249612752
 40
0.2501494132
 40
0.4995021241
 40
0.7494103699
 40
1.0
 40
1.0
 40
1.0
 40
1.0
 10
475.7205444413
 20
1176.6913266677
 30
0.0
 10
475.720544221
 20
1176.608318214
 30
0.0
 10
475.6883977377
 20
1176.4410558015
 30
0.0
 10
475.5255084878
 20
1176.1478197952
 30
0.0
 10
475.2007278064
 20
1175.8692245222
 30
0.0
 10
474.7223414669
 20
1175.6982464315
 30
0.0
 10
474.3870044721
 20
1175.6913266264
 30
0.0
 10
474.2205444413
 20
1175.6913266677
 30
0.0
  0
SPLINE
  5
348
100
AcDbEntity
  8
0
100
AcDbSpline
 62
7
  6
BYLAYER
 70
0
 71
3
 72
11
 73
7
 74
0
 42
0.0000001
 43
0.0000001
 44
0.0000000001
 40
0.0
 40
0.0
 40
0.0
 40
0.0
 40
0.3404385908
 40
0.6266185618
 40
0.8401375074
 40
1.0
 40
1.0
 40
1.0
 40
1.0
 10
498.7203050119
 20
106.1912165292
 30
0.0
 10
498.7203050123
 20
106.0546155004
 30
0.0
 10
498.7451665296
 20
105.8019676974
 30
0.0
 10
498.8529161082
 20
105.4797043624
 30
0.0
 10
499.0073963802
 20
105.2567996607
 30
0.0
 10
499.1561617027
 20
105.191231016
 30
0.0
 10
499.220306547
 20
105.1912165288
 30
0.0
  0
SPLINE
  5
349
100
AcDbEntity
  8
0
100
AcDbSpline
 62
7
  6
BYLAYER
 70
0
 71
3
 72
12
 73
8
 74
0
 42
0.0000001
 43
0.0000001
 44
0.0000000001
 40
0.0
 40
0.0
 40
0.0
 40
0.0
 40
0.1204115357
 40
0.2167519688
 40
0.3384069038
 40
0.6443218671
 40
1.0
 40
1.0
 40
1.0
 40
1.0
 10
516.3576642681
 20
105.1912165292
 30
0.0
 10
516.4009298214
 20
105.1912165292
 30
0.0
 10
516.4658162564
 20
105.2598324419
 30
0.0
 10
516.5154087398
 20
105.3663510174
 30
0.0
 10
516.5746362367
 20
105.5474161804
 30
0.0
 10
516.6197907163
 20
105.8253316158
 30
0.0
 10
516.632385396
 20
106.0634163882
 30
0.0
 10
516.632385396
 20
106.1912165292
 30
0.0
  0
SPLINE
  5
34A
100
AcDbEntity
  8
0
100
AcDbSpline
 62
7
  6
BYLAYER
 70
0
 71
3
 72
16
 73
12
 74
0
 42
0.0000001
 43
0.0000001
 44
0.0000000001
 40
0.0
 40
0.0
 40
0.0
 40
0.0
 40
0.0116495546
 40
0.042737298
 40
0.0879609725
 40
0.1436762813
 40
0.2759947698
 40
0.4258123044
 40
0.5821235967
 40
0.7363726357
 40
1.0
 40
1.0
 40
1.0
 40
1.0
 10
467.2203037115
 20
107.6912165264
 30
0.0
 10
467.2220398089
 20
107.6890236335
 30
0.0
 10
467.2327608156
 20
107.6861933436
 30
0.0
 10
467.2495133161
 20
107.6737219092
 30
0.0
 10
467.2768135222
 20
107.6573113039
 30
0.0
 10
467.3225447029
 20
107.6250578667
 30
0.0
 10
467.3876748604
 20
107.5765715079
 30
0.0
 10
467.469604752
 20
107.5107550879
 30
0.0
 10
467.554389947
 20
107.4386900354
 30
0.0
 10
467.6507573764
 20
107.3444361226
 30
0.0
 10
467.7203035591
 20
107.2545105438
 30
0.0
 10
467.720303714
 20
107.1912165292
 30
0.0
  0
SPLINE
  5
34B
100
AcDbEntity
  8
0
100
AcDbSpline
 62
7
  6
BYLAYER
 70
0
 71
3
 72
12
 73
8
 74
0
 42
0.0000001
 43
0.0000001
 44
0.0000000001
 40
0.0
 40
0.0
 40
0.0
 40
0.0
 40
0.1249608927
 40
0.2501492077
 40
0.4995019733
 40
0.7494104792
 40
1.0
 40
1.0
 40
1.0
 40
1.0
 10
475.7203037041
 20
107.1912165292
 30
0.0
 10
475.7203034838
 20
107.2742247285
 30
0.0
 10
475.6881571258
 20
107.4414869964
 30
0.0
 10
475.5252681112
 20
107.734723041
 30
0.0
 10
475.2004872435
 20
108.0133186306
 30
0.0
 10
474.7221007461
 20
108.184296742
 30
0.0
 10
474.3867636615
 20
108.1912165706
 30
0.0
 10
474.2203037041
 20
108.1912165292
 30
0.0
  0
SPLINE
  5
34C
100
AcDbEntity
  8
0
100
AcDbSpline
 62
7
  6
BYLAYER
 70
0
 71
3
 72
11
 73
7
 74
0
 42
0.0000001
 43
0.0000001
 44
0.0000000001
 40
0.0
 40
0.0
 40
0.0
 40
0.0
 40
0.1598605678
 40
0.3733761936
 40
0.6595503807
 40
1.0
 40
1.0
 40
1.0
 40
1.0
 10
489.2203017622
 20
105.1912165289
 30
0.0
 10
489.2844458406
 20
105.1912296531
 30
0.0
 10
489.4332092516
 20
105.2567987156
 30
0.0
 10
489.5876885725
 20
105.4796973799
 30
0.0
 10
489.6954411897
 20
105.8019610924
 30
0.0
 10
489.7203026272
 20
106.0546110621
 30
0.0
 10
489.7203032721
 20
106.1912165292
 30
0.0
  0
SPLINE
  5
34D
100
AcDbEntity
  8
0
100
AcDbSpline
 62
7
  6
BYLAYER
 70
0
 71
3
 72
12
 73
8
 74
0
 42
0.0000001
 43
0.0000001
 44
0.0000000001
 40
0.0
 40
0.0
 40
0.0
 40
0.0
 40
0.1249612752
 40
0.2501494132
 40
0.4995021241
 40
0.7494103699
 40
1.0
 40
1.0
 40
1.0
 40
1.0
 10
506.7203037041
 20
107.1912165292
 30
0.0
 10
506.7203039244
 20
107.274224983
 30
0.0
 10
506.7524504077
 20
107.4414873955
 30
0.0
 10
506.9153396576
 20
107.7347234018
 30
0.0
 10
507.240120339
 20
108.0133186748
 30
0.0
 10
507.7185066785
 20
108.1842967655
 30
0.0
 10
508.0538436733
 20
108.1912165706
 30
0.0
 10
508.2203037041
 20
108.1912165292
 30
0.0
  0
SPLINE
  5
34E
100
AcDbEntity
  8
0
100
AcDbSpline
 62
7
  6
BYLAYER
 70
0
 71
3
 72
8
 73
4
 74
0
 42
0.0000001
 43
0.0000001
 44
0.0000000001
 40
0.0
 40
0.0
 40
0.0
 40
0.0
 40
1.0
 40
1.0
 40
1.0
 40
1.0
 10
516.6323855281
 20
108.1912163834
 30
0.0
 10
516.4886716096
 20
108.0502990667
 30
0.0
 10
516.3419920023
 20
107.912199186
 30
0.0
 10
516.1901059699
 20
107.78013097
 30
0.0
  0
SPLINE
  5
34F
100
AcDbEntity
  8
0
100
AcDbSpline
 62
7
  6
BYLAYER
 70
0
 71
3
 72
9
 73
5
 74
0
 42
0.0000001
 43
0.0000001
 44
0.0000000001
 40
0.0
 40
0.0
 40
0.0
 40
0.0
 40
0.2472783312
 40
1.0
 40
1.0
 40
1.0
 40
1.0
 10
516.632385396
 20
108.1912165292
 30
0.0
 10
516.5849565166
 20
108.173782274
 30
0.0
 10
516.3930396327
 20
108.1035911229
 30
0.0
 10
516.2004659254
 20
108.0351561176
 30
0.0
 10
516.0548224279
 20
107.9856738252
 30
0.0
  0
SPLINE
  5
350
100
AcDbEntity
  8
0
100
AcDbSpline
 62
7
  6
BYLAYER
 70
0
 71
3
 72
10
 73
6
 74
0
 42
0.0000001
 43
0.0000001
 44
0.0000000001
 40
0.0
 40
0.0
 40
0.0
 40
0.0
 40
0.2114262679
 40
0.4596614222
 40
1.0
 40
1.0
 40
1.0
 40
1.0
 10
515.1326189129
 20
107.1912165292
 30
0.0
 10
515.2190200857
 20
107.1912171116
 30
0.0
 10
515.4043142347
 20
107.2469716033
 30
0.0
 10
515.7632544587
 20
107.4403533343
 30
0.0
 10
516.0234601448
 20
107.6352585919
 30
0.0
 10
516.1901058384
 20
107.7801311212
 30
0.0
  0
SPLINE
  5
351
100
AcDbEntity
  8
0
100
AcDbSpline
 62
7
  6
BYLAYER
 70
0
 71
3
 72
11
 73
7
 74
0
 42
0.0000001
 43
0.0000001
 44
0.0000000001
 40
0.0
 40
0.0
 40
0.0
 40
0.0
 40
0.2037181708
 40
0.4485457117
 40
0.7257135813
 40
1.0
 40
1.0
 40
1.0
 40
1.0
 10
514.7700572729
 20
107.6912165292
 30
0.0
 10
514.8160563007
 20
107.6912165296
 30
0.0
 10
514.9185401045
 20
107.6625764945
 30
0.0
 10
515.0401674613
 20
107.5449358398
 30
0.0
 10
515.1159252316
 20
107.378351445
 30
0.0
 10
515.1326189086
 20
107.2531496821
 30
0.0
 10
515.1326189141
 20
107.1912165292
 30
0.0
  0
SPLINE
  5
352
100
AcDbEntity
  8
0
100
AcDbSpline
 62
7
  6
BYLAYER
 70
0
 71
3
 72
9
 73
5
 74
0
 42
0.0000001
 43
0.0000001
 44
0.0000000001
 40
0.0
 40
0.0
 40
0.0
 40
0.0
 40
0.2408658181
 40
1.0
 40
1.0
 40
1.0
 40
1.0
 10
516.0548224279
 20
107.9856738252
 30
0.0
 10
516.056855632
 20
108.0020857552
 30
0.0
 10
516.0640946142
 20
108.0703688317
 30
0.0
 10
516.0669655367
 20
108.1390958078
 30
0.0
 10
516.0669655367
 20
108.1912165292
 30
0.0
  0
SPLINE
  5
353
100
AcDbEntity
  8
0
100
AcDbSpline
 62
7
  6
BYLAYER
 70
0
 71
3
 72
10
 73
6
 74
0
 42
0.0000001
 43
0.0000001
 44
0.0000000001
 40
0.0
 40
0.0
 40
0.0
 40
0.0
 40
0.2293296864
 40
0.4807218845
 40
1.0
 40
1.0
 40
1.0
 40
1.0
 10
514.7700572935
 20
107.6912165292
 30
0.0
 10
514.8711373139
 20
107.6912167657
 30
0.0
 10
515.0827127137
 20
107.7162315368
 30
0.0
 10
515.5133045921
 20
107.8101274421
 30
0.0
 10
515.8391082216
 20
107.9091704213
 30
0.0
 10
516.0548224904
 20
107.9856736088
 30
0.0
  0
SPLINE
  5
354
100
AcDbEntity
  8
0
100
AcDbSpline
 62
7
  6
BYLAYER
 70
0
 71
3
 72
12
 73
8
 74
0
 42
0.0000001
 43
0.0000001
 44
0.0000000001
 40
0.0
 40
0.0
 40
0.0
 40
0.0
 40
0.3555601317
 40
0.6614267398
 40
0.7831217149
 40
0.8795320322
 40
1.0
 40
1.0
 40
1.0
 40
1.0
 10
520.2697459599
 20
106.1912165292
 30
0.0
 10
520.2697459599
 20
106.0634592479
 30
0.0
 10
520.2571594302
 20
105.8254347494
 30
0.0
 10
520.2120265142
 20
105.547565126
 30
0.0
 10
520.1528173962
 20
105.3664699512
 30
0.0
 10
520.1032209175
 20
105.2598946474
 30
0.0
 10
520.0383105063
 20
105.1912165292
 30
0.0
 10
519.995024832
 20
105.1912165292
 30
0.0
  0
SPLINE
  5
355
100
AcDbEntity
  8
0
100
AcDbSpline
 62
7
  6
BYLAYER
 70
0
 71
3
 72
16
 73
12
 74
0
 42
0.0000001
 43
0.0000001
 44
0.0000000001
 40
0.0
 40
0.0
 40
0.0
 40
0.0
 40
0.0660819509
 40
0.1837076052
 40
0.3386899351
 40
0.5123359223
 40
0.6837013925
 40
0.8321172397
 40
0.9396824817
 40
0.9934236715
 40
1.0
 40
1.0
 40
1.0
 40
1.0
 10
504.7039268292
 20
1175.6801324167
 30
0.0
 10
504.7037189826
 20
1175.6583123962
 30
0.0
 10
504.7035441307
 20
1175.5976590951
 30
0.0
 10
504.7032771389
 20
1175.4857415975
 30
0.0
 10
504.7031585798
 20
1175.3388141864
 30
0.0
 10
504.7030479033
 20
1175.1718448901
 30
0.0
 10
504.7033380351
 20
1175.0156099871
 30
0.0
 10
504.7028517985
 20
1174.8546682101
 30
0.0
 10
504.7045767855
 20
1174.7975087281
 30
0.0
 10
504.7026728198
 20
1174.6768302952
 30
0.0
 10
504.704337552
 20
1174.7003494389
 30
0.0
 10
504.7043582364
 20
1174.7025209187
 30
0.0
  0
SPLINE
  5
356
100
AcDbEntity
  8
0
100
AcDbSpline
 62
7
  6
BYLAYER
 70
0
 71
3
 72
16
 73
12
 74
0
 42
0.0000001
 43
0.0000001
 44
0.0000000001
 40
0.0
 40
0.0
 40
0.0
 40
0.0
 40
0.0660819509
 40
0.1837076052
 40
0.3386899351
 40
0.5123359223
 40
0.6837013925
 40
0.8321172397
 40
0.9396824817
 40
0.9934236715
 40
1.0
 40
1.0
 40
1.0
 40
1.0
 10
504.7371620534
 20
1175.6801324167
 30
0.0
 10
504.7373699
 20
1175.6583123962
 30
0.0
 10
504.7375447519
 20
1175.5976590951
 30
0.0
 10
504.7378117437
 20
1175.4857415975
 30
0.0
 10
504.7379303028
 20
1175.3388141864
 30
0.0
 10
504.7380409793
 20
1175.1718448901
 30
0.0
 10
504.7377508475
 20
1175.0156099871
 30
0.0
 10
504.7382370841
 20
1174.8546682101
 30
0.0
 10
504.7365120971
 20
1174.7975087281
 30
0.0
 10
504.7384160628
 20
1174.6768302952
 30
0.0
 10
504.7367513306
 20
1174.7003494389
 30
0.0
 10
504.7367306462
 20
1174.7025209187
 30
0.0
  0
SPLINE
  5
357
100
AcDbEntity
  8
0
100
AcDbSpline
 62
7
  6
BYLAYER
 70
0
 71
3
 72
16
 73
12
 74
0
 42
0.0000001
 43
0.0000001
 44
0.0000000001
 40
0.0
 40
0.0
 40
0.0
 40
0.0
 40
0.0660819509
 40
0.1837076052
 40
0.3386899351
 40
0.5123359223
 40
0.6837013925
 40
0.8321172397
 40
0.9396824817
 40
0.9934236715
 40
1.0
 40
1.0
 40
1.0
 40
1.0
 10
504.7039268292
 20
1175.6801324167
 30
0.0
 10
504.7037189826
 20
1175.6583123962
 30
0.0
 10
504.7035441307
 20
1175.5976590951
 30
0.0
 10
504.7032771389
 20
1175.4857415975
 30
0.0
 10
504.7031585798
 20
1175.3388141864
 30
0.0
 10
504.7030479033
 20
1175.1718448901
 30
0.0
 10
504.7033380351
 20
1175.0156099871
 30
0.0
 10
504.7028517985
 20
1174.8546682101
 30
0.0
 10
504.7045767855
 20
1174.7975087281
 30
0.0
 10
504.7026728198
 20
1174.6768302952
 30
0.0
 10
504.704337552
 20
1174.7003494389
 30
0.0
 10
504.7043582364
 20
1174.7025209187
 30
0.0
  0
SPLINE
  5
358
100
AcDbEntity
  8
0
100
AcDbSpline
 62
7
  6
BYLAYER
 70
0
 71
3
 72
16
 73
12
 74
0
 42
0.0000001
 43
0.0000001
 44
0.0000000001
 40
0.0
 40
0.0
 40
0.0
 40
0.0
 40
0.0660819509
 40
0.1837076052
 40
0.3386899351
 40
0.5123359223
 40
0.6837013925
 40
0.8321172397
 40
0.9396824817
 40
0.9934236715
 40
1.0
 40
1.0
 40
1.0
 40
1.0
 10
504.7371620534
 20
1175.6801324167
 30
0.0
 10
504.7373699
 20
1175.6583123962
 30
0.0
 10
504.7375447519
 20
1175.5976590951
 30
0.0
 10
504.7378117437
 20
1175.4857415975
 30
0.0
 10
504.7379303028
 20
1175.3388141864
 30
0.0
 10
504.7380409793
 20
1175.1718448901
 30
0.0
 10
504.7377508475
 20
1175.0156099871
 30
0.0
 10
504.7382370841
 20
1174.8546682101
 30
0.0
 10
504.7365120971
 20
1174.7975087281
 30
0.0
 10
504.7384160628
 20
1174.6768302952
 30
0.0
 10
504.7367513306
 20
1174.7003494389
 30
0.0
 10
504.7367306462
 20
1174.7025209187
 30
0.0
  0
SPLINE
  5
359
100
AcDbEntity
  8
0
100
AcDbSpline
 62
7
  6
BYLAYER
 70
0
 71
3
 72
16
 73
12
 74
0
 42
0.0000001
 43
0.0000001
 44
0.0000000001
 40
0.0
 40
0.0
 40
0.0
 40
0.0
 40
0.066109371
 40
0.1837553808
 40
0.338748546
 40
0.5123945412
 40
0.6837491914
 40
0.8321446955
 40
0.9396825251
 40
0.9933925399
 40
1.0
 40
1.0
 40
1.0
 40
1.0
 10
482.2371622327
 20
1175.6801135848
 30
0.0
 10
482.23736999
 20
1175.6582839712
 30
0.0
 10
482.2375449332
 20
1175.5976134046
 30
0.0
 10
482.237811804
 20
1175.4856737979
 30
0.0
 10
482.2379304361
 20
1175.3387323938
 30
0.0
 10
482.2380406589
 20
1175.1717594933
 30
0.0
 10
482.2377518783
 20
1175.01552856
 30
0.0
 10
482.2382338429
 20
1174.8546116524
 30
0.0
 10
482.2365187054
 20
1174.7974474533
 30
0.0
 10
482.2384082509
 20
1174.6768202415
 30
0.0
 10
482.2367512317
 20
1174.7003579374
 30
0.0
 10
482.2367304669
 20
1174.7025397506
 30
0.0
  0
SPLINE
  5
35A
100
AcDbEntity
  8
0
100
AcDbSpline
 62
7
  6
BYLAYER
 70
0
 71
3
 72
16
 73
12
 74
0
 42
0.0000001
 43
0.0000001
 44
0.0000000001
 40
0.0
 40
0.0
 40
0.0
 40
0.0
 40
0.066109371
 40
0.1837553808
 40
0.338748546
 40
0.5123945412
 40
0.6837491914
 40
0.8321446955
 40
0.9396825251
 40
0.9933925399
 40
1.0
 40
1.0
 40
1.0
 40
1.0
 10
482.2039266499
 20
1175.6801135848
 30
0.0
 10
482.2037188926
 20
1175.6582839712
 30
0.0
 10
482.2035439494
 20
1175.5976134046
 30
0.0
 10
482.2032770786
 20
1175.4856737979
 30
0.0
 10
482.2031584465
 20
1175.3387323938
 30
0.0
 10
482.2030482237
 20
1175.1717594933
 30
0.0
 10
482.2033370042
 20
1175.01552856
 30
0.0
 10
482.2028550397
 20
1174.8546116524
 30
0.0
 10
482.2045701772
 20
1174.7974474533
 30
0.0
 10
482.2026806317
 20
1174.6768202415
 30
0.0
 10
482.2043376509
 20
1174.7003579374
 30
0.0
 10
482.2043584157
 20
1174.7025397506
 30
0.0
  0
SPLINE
  5
35B
100
AcDbEntity
  8
0
100
AcDbSpline
 62
7
  6
BYLAYER
 70
0
 71
3
 72
16
 73
12
 74
0
 42
0.0000001
 43
0.0000001
 44
0.0000000001
 40
0.0
 40
0.0
 40
0.0
 40
0.0
 40
0.0661715043
 40
0.1838636386
 40
0.3388813558
 40
0.5125273691
 40
0.6838575011
 40
0.8322069082
 40
0.9396826219
 40
0.9933219952
 40
1.0
 40
1.0
 40
1.0
 40
1.0
 10
482.237162639
 20
1175.680070851
 30
0.0
 10
482.2373701943
 20
1175.6582195005
 30
0.0
 10
482.2375453435
 20
1175.5975098148
 30
0.0
 10
482.2378119413
 20
1175.4855201189
 30
0.0
 10
482.2379307356
 20
1175.3385470215
 30
0.0
 10
482.2380399434
 20
1175.1715659753
 30
0.0
 10
482.2377541768
 20
1175.0153440501
 30
0.0
 10
482.238226606
 20
1174.8544835327
 30
0.0
 10
482.2365334455
 20
1174.797308642
 30
0.0
 10
482.2383908131
 20
1174.67679753
 30
0.0
 10
482.236751007
 20
1174.7003772539
 30
0.0
 10
482.2367300606
 20
1174.7025824845
 30
0.0
  0
SPLINE
  5
35C
100
AcDbEntity
  8
0
100
AcDbSpline
 62
7
  6
BYLAYER
 70
0
 71
3
 72
16
 73
12
 74
0
 42
0.0000001
 43
0.0000001
 44
0.0000000001
 40
0.0
 40
0.0
 40
0.0
 40
0.0
 40
0.0661715043
 40
0.1838636386
 40
0.3388813558
 40
0.5125273691
 40
0.6838575011
 40
0.8322069082
 40
0.9396826219
 40
0.9933219952
 40
1.0
 40
1.0
 40
1.0
 40
1.0
 10
482.2039262436
 20
1175.680070851
 30
0.0
 10
482.2037186883
 20
1175.6582195005
 30
0.0
 10
482.2035435391
 20
1175.5975098148
 30
0.0
 10
482.2032769413
 20
1175.4855201189
 30
0.0
 10
482.203158147
 20
1175.3385470215
 30
0.0
 10
482.2030489392
 20
1175.1715659753
 30
0.0
 10
482.2033347058
 20
1175.0153440501
 30
0.0
 10
482.2028622766
 20
1174.8544835327
 30
0.0
 10
482.2045554371
 20
1174.797308642
 30
0.0
 10
482.2026980695
 20
1174.67679753
 30
0.0
 10
482.2043378756
 20
1174.7003772539
 30
0.0
 10
482.204358822
 20
1174.7025824845
 30
0.0
  0
SPLINE
  5
35D
100
AcDbEntity
  8
0
100
AcDbSpline
 62
7
  6
BYLAYER
 70
0
 71
3
 72
16
 73
12
 74
0
 42
0.0000001
 43
0.0000001
 44
0.0000000001
 40
0.0
 40
0.0
 40
0.0
 40
0.0
 40
0.0660819509
 40
0.1837076052
 40
0.3386899351
 40
0.5123359223
 40
0.6837013925
 40
0.8321172397
 40
0.9396824817
 40
0.9934236715
 40
1.0
 40
1.0
 40
1.0
 40
1.0
 10
504.7039268292
 20
1175.6801324167
 30
0.0
 10
504.7037189826
 20
1175.6583123962
 30
0.0
 10
504.7035441307
 20
1175.5976590951
 30
0.0
 10
504.7032771389
 20
1175.4857415975
 30
0.0
 10
504.7031585798
 20
1175.3388141864
 30
0.0
 10
504.7030479033
 20
1175.1718448901
 30
0.0
 10
504.7033380351
 20
1175.0156099871
 30
0.0
 10
504.7028517985
 20
1174.8546682101
 30
0.0
 10
504.7045767855
 20
1174.7975087281
 30
0.0
 10
504.7026728198
 20
1174.6768302952
 30
0.0
 10
504.704337552
 20
1174.7003494389
 30
0.0
 10
504.7043582364
 20
1174.7025209187
 30
0.0
  0
SPLINE
  5
35E
100
AcDbEntity
  8
0
100
AcDbSpline
 62
7
  6
BYLAYER
 70
0
 71
3
 72
16
 73
12
 74
0
 42
0.0000001
 43
0.0000001
 44
0.0000000001
 40
0.0
 40
0.0
 40
0.0
 40
0.0
 40
0.0660819509
 40
0.1837076052
 40
0.3386899351
 40
0.5123359223
 40
0.6837013925
 40
0.8321172397
 40
0.9396824817
 40
0.9934236715
 40
1.0
 40
1.0
 40
1.0
 40
1.0
 10
504.7371620534
 20
1175.6801324167
 30
0.0
 10
504.7373699
 20
1175.6583123962
 30
0.0
 10
504.7375447519
 20
1175.5976590951
 30
0.0
 10
504.7378117437
 20
1175.4857415975
 30
0.0
 10
504.7379303028
 20
1175.3388141864
 30
0.0
 10
504.7380409793
 20
1175.1718448901
 30
0.0
 10
504.7377508475
 20
1175.0156099871
 30
0.0
 10
504.7382370841
 20
1174.8546682101
 30
0.0
 10
504.7365120971
 20
1174.7975087281
 30
0.0
 10
504.7384160628
 20
1174.6768302952
 30
0.0
 10
504.7367513306
 20
1174.7003494389
 30
0.0
 10
504.7367306462
 20
1174.7025209187
 30
0.0
  0
SPLINE
  5
35F
100
AcDbEntity
  8
0
100
AcDbSpline
 62
7
  6
BYLAYER
 70
0
 71
3
 72
16
 73
12
 74
0
 42
0.0000001
 43
0.0000001
 44
0.0000000001
 40
0.0
 40
0.0
 40
0.0
 40
0.0
 40
0.0660819509
 40
0.1837076052
 40
0.3386899351
 40
0.5123359223
 40
0.6837013925
 40
0.8321172397
 40
0.9396824817
 40
0.9934236715
 40
1.0
 40
1.0
 40
1.0
 40
1.0
 10
504.7039268292
 20
1175.6801324167
 30
0.0
 10
504.7037189826
 20
1175.6583123962
 30
0.0
 10
504.7035441307
 20
1175.5976590951
 30
0.0
 10
504.7032771389
 20
1175.4857415975
 30
0.0
 10
504.7031585798
 20
1175.3388141864
 30
0.0
 10
504.7030479033
 20
1175.1718448901
 30
0.0
 10
504.7033380351
 20
1175.0156099871
 30
0.0
 10
504.7028517985
 20
1174.8546682101
 30
0.0
 10
504.7045767855
 20
1174.7975087281
 30
0.0
 10
504.7026728198
 20
1174.6768302952
 30
0.0
 10
504.704337552
 20
1174.7003494389
 30
0.0
 10
504.7043582364
 20
1174.7025209187
 30
0.0
  0
SPLINE
  5
360
100
AcDbEntity
  8
0
100
AcDbSpline
 62
7
  6
BYLAYER
 70
0
 71
3
 72
16
 73
12
 74
0
 42
0.0000001
 43
0.0000001
 44
0.0000000001
 40
0.0
 40
0.0
 40
0.0
 40
0.0
 40
0.0660819509
 40
0.1837076052
 40
0.3386899351
 40
0.5123359223
 40
0.6837013925
 40
0.8321172397
 40
0.9396824817
 40
0.9934236715
 40
1.0
 40
1.0
 40
1.0
 40
1.0
 10
504.7371620534
 20
1175.6801324167
 30
0.0
 10
504.7373699
 20
1175.6583123962
 30
0.0
 10
504.7375447519
 20
1175.5976590951
 30
0.0
 10
504.7378117437
 20
1175.4857415975
 30
0.0
 10
504.7379303028
 20
1175.3388141864
 30
0.0
 10
504.7380409793
 20
1175.1718448901
 30
0.0
 10
504.7377508475
 20
1175.0156099871
 30
0.0
 10
504.7382370841
 20
1174.8546682101
 30
0.0
 10
504.7365120971
 20
1174.7975087281
 30
0.0
 10
504.7384160628
 20
1174.6768302952
 30
0.0
 10
504.7367513306
 20
1174.7003494389
 30
0.0
 10
504.7367306462
 20
1174.7025209187
 30
0.0
  0
SPLINE
  5
361
100
AcDbEntity
  8
0
100
AcDbSpline
 62
7
  6
BYLAYER
 70
0
 71
3
 72
16
 73
12
 74
0
 42
0.0000001
 43
0.0000001
 44
0.0000000001
 40
0.0
 40
0.0
 40
0.0
 40
0.0
 40
0.066109371
 40
0.1837553808
 40
0.338748546
 40
0.5123945412
 40
0.6837491914
 40
0.8321446955
 40
0.9396825251
 40
0.9933925399
 40
1.0
 40
1.0
 40
1.0
 40
1.0
 10
482.2371622327
 20
1175.6801135848
 30
0.0
 10
482.23736999
 20
1175.6582839712
 30
0.0
 10
482.2375449332
 20
1175.5976134046
 30
0.0
 10
482.237811804
 20
1175.4856737979
 30
0.0
 10
482.2379304361
 20
1175.3387323938
 30
0.0
 10
482.2380406589
 20
1175.1717594933
 30
0.0
 10
482.2377518783
 20
1175.01552856
 30
0.0
 10
482.2382338429
 20
1174.8546116524
 30
0.0
 10
482.2365187054
 20
1174.7974474533
 30
0.0
 10
482.2384082509
 20
1174.6768202415
 30
0.0
 10
482.2367512317
 20
1174.7003579374
 30
0.0
 10
482.2367304669
 20
1174.7025397506
 30
0.0
  0
SPLINE
  5
362
100
AcDbEntity
  8
0
100
AcDbSpline
 62
7
  6
BYLAYER
 70
0
 71
3
 72
16
 73
12
 74
0
 42
0.0000001
 43
0.0000001
 44
0.0000000001
 40
0.0
 40
0.0
 40
0.0
 40
0.0
 40
0.066109371
 40
0.1837553808
 40
0.338748546
 40
0.5123945412
 40
0.6837491914
 40
0.8321446955
 40
0.9396825251
 40
0.9933925399
 40
1.0
 40
1.0
 40
1.0
 40
1.0
 10
482.2039266499
 20
1175.6801135848
 30
0.0
 10
482.2037188926
 20
1175.6582839712
 30
0.0
 10
482.2035439494
 20
1175.5976134046
 30
0.0
 10
482.2032770786
 20
1175.4856737979
 30
0.0
 10
482.2031584465
 20
1175.3387323938
 30
0.0
 10
482.2030482237
 20
1175.1717594933
 30
0.0
 10
482.2033370042
 20
1175.01552856
 30
0.0
 10
482.2028550397
 20
1174.8546116524
 30
0.0
 10
482.2045701772
 20
1174.7974474533
 30
0.0
 10
482.2026806317
 20
1174.6768202415
 30
0.0
 10
482.2043376509
 20
1174.7003579374
 30
0.0
 10
482.2043584157
 20
1174.7025397506
 30
0.0
  0
SPLINE
  5
363
100
AcDbEntity
  8
0
100
AcDbSpline
 62
7
  6
BYLAYER
 70
0
 71
3
 72
16
 73
12
 74
0
 42
0.0000001
 43
0.0000001
 44
0.0000000001
 40
0.0
 40
0.0
 40
0.0
 40
0.0
 40
0.0661715043
 40
0.1838636386
 40
0.3388813558
 40
0.5125273691
 40
0.6838575011
 40
0.8322069082
 40
0.9396826219
 40
0.9933219952
 40
1.0
 40
1.0
 40
1.0
 40
1.0
 10
482.237162639
 20
1175.680070851
 30
0.0
 10
482.2373701943
 20
1175.6582195005
 30
0.0
 10
482.2375453435
 20
1175.5975098148
 30
0.0
 10
482.2378119413
 20
1175.4855201189
 30
0.0
 10
482.2379307356
 20
1175.3385470215
 30
0.0
 10
482.2380399434
 20
1175.1715659753
 30
0.0
 10
482.2377541768
 20
1175.0153440501
 30
0.0
 10
482.238226606
 20
1174.8544835327
 30
0.0
 10
482.2365334455
 20
1174.797308642
 30
0.0
 10
482.2383908131
 20
1174.67679753
 30
0.0
 10
482.236751007
 20
1174.7003772539
 30
0.0
 10
482.2367300606
 20
1174.7025824845
 30
0.0
  0
SPLINE
  5
364
100
AcDbEntity
  8
0
100
AcDbSpline
 62
7
  6
BYLAYER
 70
0
 71
3
 72
16
 73
12
 74
0
 42
0.0000001
 43
0.0000001
 44
0.0000000001
 40
0.0
 40
0.0
 40
0.0
 40
0.0
 40
0.0661715043
 40
0.1838636386
 40
0.3388813558
 40
0.5125273691
 40
0.6838575011
 40
0.8322069082
 40
0.9396826219
 40
0.9933219952
 40
1.0
 40
1.0
 40
1.0
 40
1.0
 10
482.2039262436
 20
1175.680070851
 30
0.0
 10
482.2037186883
 20
1175.6582195005
 30
0.0
 10
482.2035435391
 20
1175.5975098148
 30
0.0
 10
482.2032769413
 20
1175.4855201189
 30
0.0
 10
482.203158147
 20
1175.3385470215
 30
0.0
 10
482.2030489392
 20
1175.1715659753
 30
0.0
 10
482.2033347058
 20
1175.0153440501
 30
0.0
 10
482.2028622766
 20
1174.8544835327
 30
0.0
 10
482.2045554371
 20
1174.797308642
 30
0.0
 10
482.2026980695
 20
1174.67679753
 30
0.0
 10
482.2043378756
 20
1174.7003772539
 30
0.0
 10
482.204358822
 20
1174.7025824845
 30
0.0
  0
ENDSEC
  0
SECTION
  2
OBJECTS
  0
DICTIONARY
  5
C
100
AcDbDictionary
280
0
281
1
  3
ACAD_GROUP
350
D
  3
ACAD_MLINESTYLE
350
17
  3
ACAD_LAYOUT
350
1A
  3
ACAD_PLOTSETTINGS
350
19
  3
ACAD_PLOTSTYLENAME
350
E
  0
DICTIONARY
  5
D
102
{ACAD_REACTORS
330
C
102
}
100
AcDbDictionary
280
0
281
1
  0
ACDBDICTIONARYWDFLT
  5
E
102
{ACAD_REACTORS
330
C
102
}
100
AcDbDictionary
281
1
  3
Normal
350
F
100
AcDbDictionaryWithDefault
340
F
  0
DICTIONARY
  5
17
102
{ACAD_REACTORS
330
C
102
}
100
AcDbDictionary
280
0
281
1
  3
Standard
350
18
  0
DICTIONARY
  5
19
102
{ACAD_REACTORS
330
C
102
}
100
AcDbDictionary
281
1
  0
DICTIONARY
  5
1A
102
{ACAD_REACTORS
330
C
102
}
100
AcDbDictionary
281
1
  3
Model
350
365
  3
Layout1
350
366
  0
ACDBPLACEHOLDER
  5
F
102
{ACAD_REACTORS
330
E
102
}
  0
MLINESTYLE
  5
18
102
{ACAD_REACTORS
330
17
102
}
100
AcDbMlineStyle
  2
STANDARD
 70
0
  3

 62
256
 51
90.0
 52
90.0
 71
2
 49
0.5
 62
256
  6
BYLAYER
 49
-0.5
 62
256
  6
BYLAYER
  0
LAYOUT
  5
365
102
{ACAD_REACTORS
330
1A
102
}
100
AcDbPlotSettings
  1

  2
none_device
  4

  6

 40
0.0
 41
0.0
 42
0.0
 43
0.0
 44
210.0
 45
297.0
 46
0.0
 47
0.0
 48
0.0
 49
0.0
140
0.0
141
0.0
142
1.0
143
1.0
 70
1024
 72
1
 73
0
 74
0
  7

 75
0
147
1.0
148
0.0
149
0.0
100
AcDbLayout
  1
Model
 70
0
 71
0
 10
0.0
 20
0.0
 11
210.0
 21
297.0
 12
0.0
 22
0.0
 32
0.0
 14
0.0
 24
0.0
 34
0.0
 15
0.0
 25
0.0
 35
0.0
146
0.0
 13
0.0
 23
0.0
 33
0.0
 16
1.0
 26
0.0
 36
0.0
 17
0.0
 27
1.0
 37
0.0
 76
0
330
212
345
0
346
0
  0
LAYOUT
  5
366
102
{ACAD_REACTORS
330
1A
102
}
100
AcDbPlotSettings
  1

  2
none_device
  4

  6

 40
0.0
 41
0.0
 42
0.0
 43
0.0
 44
210.0
 45
297.0
 46
0.0
 47
0.0
 48
0.0
 49
0.0
140
0.0
141
0.0
142
1.0
143
1.0
 70
0
 72
1
 73
0
 74
0
  7

 75
0
147
1.0
148
0.0
149
0.0
100
AcDbLayout
  1
Layout1
 70
0
 71
1
 10
0.0
 20
0.0
 11
210.0
 21
297.0
 12
0.0
 22
0.0
 32
0.0
 14
0.0
 24
0.0
 34
0.0
 15
0.0
 25
0.0
 35
0.0
146
0.0
 13
0.0
 23
0.0
 33
0.0
 16
1.0
 26
0.0
 36
0.0
 17
0.0
 27
1.0
 37
0.0
 76
0
330
213
345
0
346
0
  0
ENDSEC
  0
EOF
