999
DXF file: C:\Users\sesa63760\Dev\_Creo\CAD\MCADID0003423_3D-CAD\drw0001_5.dxf
999
Pro/ENGINEER 2019471 by Parametric Technology Corporation
  0
SECTION
  2
HEADER
  9
$ACADVER
  1
AC1024
  9
$DWGCODEPAGE
  3
ANSI_1252
  9
$EXTMAX
 10
184.0489473344
 20
260.2977969443
 30
0.0
  9
$EXTMIN
 10
0.0
 20
0.0
 30
0.0
  9
$LIMMIN
 10
0.0
 20
0.0
  9
$LIMMAX
 10
184.0489473344
 20
260.2977969443
  9
$VIEWCTR
 10
92.0244736672
 20
130.1488984722
  9
$VIEWSIZE
 40
260.2977969443
  9
$CLAYER
  8
0
  9
$LTSCALE
 40
16.9675600971
  9
$CELTYPE
  6
BYLAYER
  9
$DIMSCALE
 40
1.0
  9
$DIMASZ
 40
2.1910588968
  9
$DIMEXO
 40
1.0
  9
$DIMDLI
 40
11.7230415216
  9
$DIMEXE
 40
1.0
  9
$DIMCEN
 40
2.7765098341
  9
$DIMLFAC
 40
1.0
  9
$DIMBLK
  1
_FILLED
  9
$DIMALT
 70
0
  9
$DIMALTF
 40
0.0393700787
  9
$DIMTXT
 40
3.0674824556
  9
$DIMTOL
 70
1
  9
$DIMLIM
 70
0
  9
$DIMTFAC
 40
1.0
  9
$DIMTP
 40
0.01
  9
$DIMTM
 40
0.01
  9
$DIMGAP
 40
0.625
  9
$DIMDSEP
 70
46
  9
$AUNITS
 70
0
  9
$PDMODE
 70
3
  9
$PDSIZE
 40
0.3125
  9
$HANDSEED
  5
2BA
  9
$TILEMODE
 70
1
  9
$MEASUREMENT
 70
1
  9
$INSUNITS
 70
4
  0
ENDSEC
  0
SECTION
  2
CLASSES
  0
CLASS
  1
ACDBDICTIONARYWDFLT
  2
AcDbDictionaryWithDefault
  3
AutoCAD 2000
 90
0
 91
1
280
0
281
0
  0
CLASS
  1
ACDBPLACEHOLDER
  2
AcDbPlaceHolder
  3
AutoCAD 2000
 90
0
 91
1
280
0
281
0
  0
CLASS
  1
LAYOUT
  2
AcDbLayout
  3
AutoCAD 2000
 90
0
 91
0
280
0
281
0
  0
ENDSEC
  0
SECTION
  2
TABLES
  0
TABLE
  2
VPORT
  5
8
100
AcDbSymbolTable
 70
2
  0
VPORT
  5
1F4
100
AcDbSymbolTableRecord
100
AcDbViewportTableRecord
  2
*ACTIVE
 70
0
 10
0.0
 20
0.0
 11
1.0
 21
1.0
 12
92.0244736672
 22
130.1488984722
 13
0.0
 23
0.0
 14
1.0
 24
1.0
 15
0.0
 25
0.0
 16
0.0
 26
0.0
 36
1.0
 17
0.0
 27
0.0
 37
0.0
 40
260.2977969443
 41
0.7070707071
 42
50.0
 43
0.0
 44
0.0
 50
0.0
 51
0.0
 71
0
 72
100
 73
1
 74
1
 75
0
 76
0
 77
0
 78
0
  0
ENDTAB
  0
TABLE
  2
LTYPE
  5
5
100
AcDbSymbolTable
 70
6
  0
LTYPE
  5
14
100
AcDbSymbolTableRecord
100
AcDbLinetypeTableRecord
  2
BYBLOCK
 70
0
  3

 72
65
 73
0
 40
0.0
  0
LTYPE
  5
15
100
AcDbSymbolTableRecord
100
AcDbLinetypeTableRecord
  2
BYLAYER
 70
0
  3

 72
65
 73
0
 40
0.0
  0
LTYPE
  5
16
100
AcDbSymbolTableRecord
100
AcDbLinetypeTableRecord
  2
CONTINUOUS
 70
64
  3
Solid line
 72
65
 73
0
 40
0.0
  0
LTYPE
  5
1F5
100
AcDbSymbolTableRecord
100
AcDbLinetypeTableRecord
  2
CENTER
 70
64
  3
____ _ ____ _ ____ _ ____ _ ____ _ ____ _ ____
 72
65
 73
4
 40
0.6
 49
0.375
 74
0
 49
-0.075
 74
0
 49
0.075
 74
0
 49
-0.075
 74
0
  0
LTYPE
  5
1F6
100
AcDbSymbolTableRecord
100
AcDbLinetypeTableRecord
  2
HIDDEN
 70
64
  3
- - - - - - - - - - - - - - - - - - - -
 72
65
 73
2
 40
0.2
 49
0.1
 74
0
 49
-0.1
 74
0
  0
LTYPE
  5
1F7
100
AcDbSymbolTableRecord
100
AcDbLinetypeTableRecord
  2
PHANTOM
 70
64
  3
_____ _ _ _____ _ _ _____ _ _ _____
 72
65
 73
6
 40
0.8
 49
0.45
 74
0
 49
-0.05
 74
0
 49
0.1
 74
0
 49
-0.05
 74
0
 49
0.1
 74
0
 49
-0.05
 74
0
  0
LTYPE
  5
1F8
100
AcDbSymbolTableRecord
100
AcDbLinetypeTableRecord
  2
DOT
 70
64
  3
. . . . . . . . . . . . . . . . . . . .
 72
65
 73
2
 40
0.2
 49
0.1
 74
0
 49
-0.1
 74
0
  0
LTYPE
  5
1F9
100
AcDbSymbolTableRecord
100
AcDbLinetypeTableRecord
  2
DASHED
 70
64
  3
- - - - - - - - - - - - - - - - - - - -
 72
65
 73
2
 40
0.2
 49
0.1
 74
0
 49
-0.1
 74
0
  0
ENDTAB
  0
TABLE
  2
LAYER
  5
2
100
AcDbSymbolTable
 70
36
  0
LAYER
  5
10
100
AcDbSymbolTableRecord
100
AcDbLayerTableRecord
  2
0
 70
0
 62
7
  6
CONTINUOUS
370
-3
390
F
  0
LAYER
  5
1FA
100
AcDbSymbolTableRecord
100
AcDbLayerTableRecord
  2
DEFAULT_1
 70
0
 62
7
  6
CENTER
370
-3
390
F
  0
LAYER
  5
1FB
100
AcDbSymbolTableRecord
100
AcDbLayerTableRecord
  2
DEFAULT_2
 70
0
 62
7
  6
HIDDEN
370
-3
390
F
  0
LAYER
  5
1FC
100
AcDbSymbolTableRecord
100
AcDbLayerTableRecord
  2
DEFAULT_3
 70
0
 62
7
  6
PHANTOM
370
-3
390
F
  0
LAYER
  5
1FD
100
AcDbSymbolTableRecord
100
AcDbLayerTableRecord
  2
00_COMPONENTS
 70
0
 62
7
  6
CONTINUOUS
370
-3
390
F
  0
LAYER
  5
1FE
100
AcDbSymbolTableRecord
100
AcDbLayerTableRecord
  2
01_1_DEFAULT_DATUMS
 70
0
 62
7
  6
CONTINUOUS
370
-3
390
F
  0
LAYER
  5
1FF
100
AcDbSymbolTableRecord
100
AcDbLayerTableRecord
  2
01_PLANES
 70
0
 62
7
  6
CONTINUOUS
370
-3
390
F
  0
LAYER
  5
200
100
AcDbSymbolTableRecord
100
AcDbLayerTableRecord
  2
02_COORD_SYS
 70
0
 62
7
  6
CONTINUOUS
370
-3
390
F
  0
LAYER
  5
201
100
AcDbSymbolTableRecord
100
AcDbLayerTableRecord
  2
03_AXES
 70
0
 62
7
  6
CONTINUOUS
370
-3
390
F
  0
LAYER
  5
202
100
AcDbSymbolTableRecord
100
AcDbLayerTableRecord
  2
04_POINTS
 70
0
 62
7
  6
CONTINUOUS
370
-3
390
F
  0
LAYER
  5
203
100
AcDbSymbolTableRecord
100
AcDbLayerTableRecord
  2
05_CURVES
 70
0
 62
7
  6
CONTINUOUS
370
-3
390
F
  0
LAYER
  5
204
100
AcDbSymbolTableRecord
100
AcDbLayerTableRecord
  2
06_SURFS
 70
0
 62
7
  6
CONTINUOUS
370
-3
390
F
  0
LAYER
  5
205
100
AcDbSymbolTableRecord
100
AcDbLayerTableRecord
  2
07_COSMETICS
 70
0
 62
7
  6
CONTINUOUS
370
-3
390
F
  0
LAYER
  5
206
100
AcDbSymbolTableRecord
100
AcDbLayerTableRecord
  2
10_NOTES
 70
0
 62
7
  6
CONTINUOUS
370
-3
390
F
  0
LAYER
  5
207
100
AcDbSymbolTableRecord
100
AcDbLayerTableRecord
  2
11_NOTES_PUB
 70
0
 62
7
  6
CONTINUOUS
370
-3
390
F
  0
LAYER
  5
208
100
AcDbSymbolTableRecord
100
AcDbLayerTableRecord
  2
13_REF_GTOL
 70
0
 62
7
  6
CONTINUOUS
370
-3
390
F
  0
LAYER
  5
209
100
AcDbSymbolTableRecord
100
AcDbLayerTableRecord
  2
16_MISC
 70
0
 62
7
  6
CONTINUOUS
370
-3
390
F
  0
LAYER
  5
20A
100
AcDbSymbolTableRecord
100
AcDbLayerTableRecord
  2
17_NO_PRINT
 70
0
 62
7
  6
CONTINUOUS
370
-3
390
F
  0
LAYER
  5
20B
100
AcDbSymbolTableRecord
100
AcDbLayerTableRecord
  2
18_DATUM_CAMS_JOINTS
 70
0
 62
7
  6
CONTINUOUS
370
-3
390
F
  0
LAYER
  5
20C
100
AcDbSymbolTableRecord
100
AcDbLayerTableRecord
  2
19_DATUM_FUNCTIONAL
 70
0
 62
7
  6
CONTINUOUS
370
-3
390
F
  0
LAYER
  5
20D
100
AcDbSymbolTableRecord
100
AcDbLayerTableRecord
  2
20_DATUM_KINEMATIC_SCHEME
 70
0
 62
7
  6
CONTINUOUS
370
-3
390
F
  0
ENDTAB
  0
TABLE
  2
STYLE
  5
3
100
AcDbSymbolTable
 70
1
  0
STYLE
  5
11
100
AcDbSymbolTableRecord
100
AcDbTextStyleTableRecord
  2
STANDARD
 70
0
 40
0.0
 41
1.0
 50
0.0
 71
0
 42
0.2
  3
ARIAL.TTF
  4

  0
STYLE
  5
20E
100
AcDbSymbolTableRecord
100
AcDbTextStyleTableRecord
  2
TEXTSTYLE_1
 70
0
 40
0.0
 41
0.8
 50
0.0
 71
0
 42
0.2
  3
gdt
  4

  0
ENDTAB
  0
TABLE
  2
VIEW
  5
6
100
AcDbSymbolTable
 70
0
  0
ENDTAB
  0
TABLE
  2
UCS
  5
7
100
AcDbSymbolTable
 70
0
  0
ENDTAB
  0
TABLE
  2
APPID
  5
9
100
AcDbSymbolTable
 70
1
  0
APPID
  5
20F
100
AcDbSymbolTableRecord
100
AcDbRegAppTableRecord
  2
ACAD
 70
0
  0
ENDTAB
  0
TABLE
  2
BLOCK_RECORD
  5
1
100
AcDbSymbolTable
 70
0
  0
BLOCK_RECORD
  5
210
100
AcDbSymbolTableRecord
100
AcDbBlockTableRecord
  2
*Model_Space
  0
BLOCK_RECORD
  5
211
100
AcDbSymbolTableRecord
100
AcDbBlockTableRecord
  2
*Paper_Space
  0
BLOCK_RECORD
  5
212
100
AcDbSymbolTableRecord
100
AcDbBlockTableRecord
  2
_FILLED
  0
ENDTAB
  0
TABLE
  2
DIMSTYLE
  5
A
100
AcDbSymbolTable
 70
1
100
AcDbDimStyleTable
 71
0
  0
DIMSTYLE
105
213
100
AcDbSymbolTableRecord
100
AcDbDimStyleTableRecord
  2
STANDARD
 70
0
  3

  4

 40
1.0
 41
2.1910588968
 42
1.0
 43
0.38
 44
1.0
 45
0.0
 46
0.0
 47
0.01
 48
0.01
140
3.0674824556
141
0.09
142
0.0
143
25.4
144
1.0
145
0.0
146
1.0
147
0.625
 71
1
 72
0
 73
0
 74
0
 75
0
 76
0
 77
1
 78
8
 79
2
170
0
171
1
172
0
173
0
174
0
175
0
176
0
177
0
178
0
270
2
179
2
271
2
272
2
273
2
274
2
275
0
280
0
281
0
282
0
283
1
284
8
285
0
286
0
287
3
288
0
340
11
278
46
341
212
342
212
343
212
344
212
  0
ENDTAB
  0
ENDSEC
  0
SECTION
  2
BLOCKS
  0
BLOCK
  5
20
100
AcDbEntity
  8
0
100
AcDbBlockBegin
  2
*Model_Space
 70
0
 10
0.0
 20
0.0
 30
0.0
  3
*Model_Space
  1

  0
ENDBLK
  5
21
100
AcDbEntity
  8
0
100
AcDbBlockEnd
  0
BLOCK
  5
1C
100
AcDbEntity
  8
0
100
AcDbBlockBegin
  2
*Paper_Space
 70
0
 10
0.0
 20
0.0
 30
0.0
  3
*Paper_Space
  1

  0
ENDBLK
  5
1D
100
AcDbEntity
  8
0
100
AcDbBlockEnd
  0
BLOCK
  5
214
100
AcDbEntity
  8
0
100
AcDbBlockBegin
  2
_FILLED
 70
64
 10
0.0
 20
0.0
  3
_FILLED
  1

  0
SOLID
  5
215
100
AcDbEntity
  8
0
  6
BYBLOCK
 62
0
100
AcDbTrace
 10
0.0
 20
0.0
 11
-1.0
 21
0.25
 12
-1.0
 22
-0.25
 13
-1.0
 23
-0.25
  0
ENDBLK
  5
216
100
AcDbEntity
  8
0
  6
BYBLOCK
 62
0
100
AcDbBlockEnd
  0
ENDSEC
  0
SECTION
  2
ENTITIES
  0
LINE
  5
217
100
AcDbEntity
  8
0
100
AcDbLine
 62
7
  6
BYLAYER
 10
21.4424378952
 20
153.7175004268
 11
21.4424378952
 21
158.7175004268
  0
LINE
  5
218
100
AcDbEntity
  8
0
100
AcDbLine
 62
7
  6
BYLAYER
 10
26.4424378952
 20
144.9675004268
 11
26.4424378952
 21
153.2675004268
  0
LINE
  5
219
100
AcDbEntity
  8
0
100
AcDbLine
 62
7
  6
BYLAYER
 10
26.5261790859
 20
160.5901501576
 11
26.5261790859
 21
159.1675004268
  0
LINE
  5
21A
100
AcDbEntity
  8
0
100
AcDbLine
 62
7
  6
BYLAYER
 10
26.9424378952
 20
159.1675004268
 11
26.8270532798
 21
158.7175004268
  0
LINE
  5
21B
100
AcDbEntity
  8
0
100
AcDbLine
 62
7
  6
BYLAYER
 10
29.9424378952
 20
142.6675004268
 11
29.9424378952
 21
144.9675004268
  0
LINE
  5
21C
100
AcDbEntity
  8
0
100
AcDbLine
 62
7
  6
BYLAYER
 10
31.4839112701
 20
160.5901501576
 11
31.4839112701
 21
159.1675004268
  0
LINE
  5
21D
100
AcDbEntity
  8
0
100
AcDbLine
 62
7
  6
BYLAYER
 10
31.6924378952
 20
145.4675004268
 11
31.6924378952
 21
151.2675004268
  0
LINE
  5
21E
100
AcDbEntity
  8
0
100
AcDbLine
 62
7
  6
BYLAYER
 10
34.9424378952
 20
142.6675004268
 11
34.9424378952
 21
144.9675004268
  0
LINE
  5
21F
100
AcDbEntity
  8
0
100
AcDbLine
 62
7
  6
BYLAYER
 10
37.9424378952
 20
153.2675004268
 11
38.0578225106
 21
153.7175004268
  0
LINE
  5
220
100
AcDbEntity
  8
0
100
AcDbLine
 62
7
  6
BYLAYER
 10
27.0915849341
 20
161.1675004268
 11
26.8787032888
 21
161.0445931516
  0
LINE
  5
221
100
AcDbEntity
  8
0
100
AcDbLine
 62
7
  6
BYLAYER
 10
26.9424378952
 20
153.2675004268
 11
26.8270532798
 21
153.7175004268
  0
LINE
  5
222
100
AcDbEntity
  8
0
100
AcDbLine
 62
7
  6
BYLAYER
 10
37.4001700794
 20
160.5901501576
 11
37.4001700794
 21
159.1675004268
  0
LINE
  5
223
100
AcDbEntity
  8
0
100
AcDbLine
 62
7
  6
BYLAYER
 10
38.3586967045
 20
160.5901501576
 11
38.3586967045
 21
159.1675004268
  0
LINE
  5
224
100
AcDbEntity
  8
0
100
AcDbLine
 62
7
  6
BYLAYER
 10
38.4424378952
 20
144.9675004268
 11
38.4424378952
 21
145.4675004268
  0
LINE
  5
225
100
AcDbEntity
  8
0
100
AcDbLine
 62
7
  6
BYLAYER
 10
38.4424378952
 20
151.2675004268
 11
38.4424378952
 21
153.2675004268
  0
LINE
  5
226
100
AcDbEntity
  8
0
100
AcDbLine
 62
7
  6
BYLAYER
 10
43.4424378952
 20
153.7175004268
 11
43.4424378952
 21
158.7175004268
  0
LINE
  5
227
100
AcDbEntity
  8
0
100
AcDbLine
 62
7
  6
BYLAYER
 10
34.4424378952
 20
142.1675004268
 11
34.9424378952
 21
142.6675004268
  0
LINE
  5
228
100
AcDbEntity
  8
0
100
AcDbLine
 62
7
  6
BYLAYER
 10
37.9424378952
 20
159.1675004268
 11
38.0578225106
 21
158.7175004268
  0
LINE
  5
229
100
AcDbEntity
  8
0
100
AcDbLine
 62
7
  6
BYLAYER
 10
52.4424378952
 20
100.6675006913
 11
52.4424378952
 21
136.6675004268
  0
LINE
  5
22A
100
AcDbEntity
  8
0
100
AcDbLine
 62
7
  6
BYLAYER
 10
52.4424378952
 20
137.2175004268
 11
52.4424378952
 21
139.2175004268
  0
LINE
  5
22B
100
AcDbEntity
  8
0
100
AcDbLine
 62
7
  6
BYLAYER
 10
52.6924378952
 20
142.8175004268
 11
52.6924378952
 21
145.4675004268
  0
LINE
  5
22C
100
AcDbEntity
  8
0
100
AcDbLine
 62
7
  6
BYLAYER
 10
52.6924378952
 20
151.2675004268
 11
52.6924378952
 21
153.5675004268
  0
LINE
  5
22D
100
AcDbEntity
  8
0
100
AcDbLine
 62
7
  6
BYLAYER
 10
52.9424378952
 20
100.1675004268
 11
52.9424378952
 21
133.1675004268
  0
LINE
  5
22E
100
AcDbEntity
  8
0
100
AcDbLine
 62
7
  6
BYLAYER
 10
52.4424378952
 20
139.2175004268
 11
52.5718544934
 21
142.3752654227
  0
LINE
  5
22F
100
AcDbEntity
  8
0
100
AcDbLine
 62
7
  6
BYLAYER
 10
56.9424378952
 20
156.5175004268
 11
57.7424378952
 21
157.3175004268
  0
LINE
  5
230
100
AcDbEntity
  8
0
100
AcDbLine
 62
7
  6
BYLAYER
 10
60.4924378952
 20
158.5675004268
 11
60.2924378952
 21
158.3675004268
  0
LINE
  5
231
100
AcDbEntity
  8
0
100
AcDbLine
 62
7
  6
BYLAYER
 10
60.2924378952
 20
157.9175004268
 11
59.6924378952
 21
157.3175004268
  0
LINE
  5
232
100
AcDbEntity
  8
0
100
AcDbLine
 62
7
  6
BYLAYER
 10
53.9424378952
 20
136.6675004268
 11
53.9424378952
 21
137.2175004268
  0
LINE
  5
233
100
AcDbEntity
  8
0
100
AcDbLine
 62
7
  6
BYLAYER
 10
56.9429437988
 20
153.5675004268
 11
56.9429437988
 21
156.5175004268
  0
LINE
  5
234
100
AcDbEntity
  8
0
100
AcDbLine
 62
7
  6
BYLAYER
 10
30.4424378952
 20
142.1675004268
 11
29.9424378952
 21
142.6675004268
  0
LINE
  5
235
100
AcDbEntity
  8
0
100
AcDbLine
 62
7
  6
BYLAYER
 10
59.6280881152
 20
156.5175004268
 11
59.6280881152
 21
153.5675004268
  0
LINE
  5
236
100
AcDbEntity
  8
0
100
AcDbLine
 62
7
  6
BYLAYER
 10
59.7572935788
 20
153.5675004268
 11
59.7572935788
 21
156.5175004268
  0
LINE
  5
237
100
AcDbEntity
  8
0
100
AcDbLine
 62
7
  6
BYLAYER
 10
60.2924378952
 20
158.3675004268
 11
60.2924378952
 21
157.9175004268
  0
LINE
  5
238
100
AcDbEntity
  8
0
100
AcDbLine
 62
7
  6
BYLAYER
 10
61.223687895
 20
151.2675004268
 11
61.2236878951
 21
145.4675004268
  0
LINE
  5
239
100
AcDbEntity
  8
0
100
AcDbLine
 62
7
  6
BYLAYER
 10
61.9424378952
 20
157.3675004268
 11
61.9424378952
 21
158.5675004268
  0
LINE
  5
23A
100
AcDbEntity
  8
0
100
AcDbLine
 62
7
  6
BYLAYER
 10
62.9424378952
 20
157.3675004268
 11
62.9424378952
 21
158.5675004268
  0
LINE
  5
23B
100
AcDbEntity
  8
0
100
AcDbLine
 62
7
  6
BYLAYER
 10
64.5924378952
 20
157.9175004268
 11
64.5924378952
 21
158.3675004268
  0
LINE
  5
23C
100
AcDbEntity
  8
0
100
AcDbLine
 62
7
  6
BYLAYER
 10
65.1275822116
 20
156.5175004268
 11
65.1275822116
 21
153.5675004268
  0
LINE
  5
23D
100
AcDbEntity
  8
0
100
AcDbLine
 62
7
  6
BYLAYER
 10
65.2567876751
 20
153.5675004268
 11
65.2567876751
 21
156.5175004268
  0
LINE
  5
23E
100
AcDbEntity
  8
0
100
AcDbLine
 62
7
  6
BYLAYER
 10
67.9419319916
 20
156.5175004268
 11
67.9419319916
 21
153.5675004268
  0
LINE
  5
23F
100
AcDbEntity
  8
0
100
AcDbLine
 62
7
  6
BYLAYER
 10
149.5924226349
 20
99.7675004268
 11
139.5924531555
 21
99.7675004268
  0
LINE
  5
240
100
AcDbEntity
  8
0
100
AcDbLine
 62
7
  6
BYLAYER
 10
137.2922355834
 20
99.7675004268
 11
131.2926402069
 21
99.7675004268
  0
LINE
  5
241
100
AcDbEntity
  8
0
100
AcDbLine
 62
7
  6
BYLAYER
 10
130.0924257465
 20
99.7675004268
 11
122.0924500439
 21
99.7675004268
  0
LINE
  5
242
100
AcDbEntity
  8
0
100
AcDbLine
 62
7
  6
BYLAYER
 10
89.5924226349
 20
99.7675004268
 11
79.5924531555
 21
99.7675004268
  0
LINE
  5
243
100
AcDbEntity
  8
0
100
AcDbLine
 62
7
  6
BYLAYER
 10
52.9424378952
 20
100.1675004268
 11
154.5924378952
 21
100.1675004268
  0
LINE
  5
244
100
AcDbEntity
  8
0
100
AcDbLine
 62
7
  6
BYLAYER
 10
73.0924378952
 20
101.6675004272
 11
52.4424378952
 21
101.6675004268
  0
LINE
  5
245
100
AcDbEntity
  8
0
100
AcDbLine
 62
7
  6
BYLAYER
 10
157.5924378952
 20
104.3275004268
 11
154.5924378952
 21
104.3275004268
  0
LINE
  5
246
100
AcDbEntity
  8
0
100
AcDbLine
 62
7
  6
BYLAYER
 10
72.2948969116
 20
142.8175004268
 11
72.4424378952
 21
139.2175004268
  0
LINE
  5
247
100
AcDbEntity
  8
0
100
AcDbLine
 62
7
  6
BYLAYER
 10
70.9424378952
 20
137.2175004268
 11
70.9424378952
 21
136.6675004268
  0
LINE
  5
248
100
AcDbEntity
  8
0
100
AcDbLine
 62
7
  6
BYLAYER
 10
72.1924378952
 20
142.8175004268
 11
72.1924378952
 21
153.5675004268
  0
LINE
  5
249
100
AcDbEntity
  8
0
100
AcDbLine
 62
7
  6
BYLAYER
 10
72.4424378952
 20
139.2175004268
 11
72.4424378952
 21
137.2175004268
  0
LINE
  5
24A
100
AcDbEntity
  8
0
100
AcDbLine
 62
7
  6
BYLAYER
 10
72.4424378952
 20
136.6675004268
 11
72.4424378952
 21
133.1675004268
  0
LINE
  5
24B
100
AcDbEntity
  8
0
100
AcDbLine
 62
7
  6
BYLAYER
 10
73.0924378952
 20
133.1675004268
 11
73.0924378952
 21
125.0675004268
  0
LINE
  5
24C
100
AcDbEntity
  8
0
100
AcDbLine
 62
7
  6
BYLAYER
 10
73.0924378952
 20
108.2675004268
 11
73.0924378952
 21
100.1675004268
  0
LINE
  5
24D
100
AcDbEntity
  8
0
100
AcDbLine
 62
7
  6
BYLAYER
 10
78.0924378952
 20
108.1675004268
 11
73.0924378952
 21
108.1675004268
  0
LINE
  5
24E
100
AcDbEntity
  8
0
100
AcDbLine
 62
7
  6
BYLAYER
 10
77.6924378952
 20
108.2675004268
 11
73.0924378952
 21
108.2675004268
  0
LINE
  5
24F
100
AcDbEntity
  8
0
100
AcDbLine
 62
7
  6
BYLAYER
 10
165.7174378952
 20
109.8425004268
 11
159.5674378952
 21
109.8425004268
  0
LINE
  5
250
100
AcDbEntity
  8
0
100
AcDbLine
 62
7
  6
BYLAYER
 10
77.6924378952
 20
125.0675004268
 11
77.6924378952
 21
108.2675004268
  0
LINE
  5
251
100
AcDbEntity
  8
0
100
AcDbLine
 62
7
  6
BYLAYER
 10
78.0924378952
 20
100.1675004268
 11
78.0924378952
 21
139.8675004268
  0
LINE
  5
252
100
AcDbEntity
  8
0
100
AcDbLine
 62
7
  6
BYLAYER
 10
157.7424378952
 20
110.6175004268
 11
158.7924378952
 21
110.6175004268
  0
LINE
  5
253
100
AcDbEntity
  8
0
100
AcDbLine
 62
7
  6
BYLAYER
 10
166.4924378952
 20
110.6175004268
 11
167.6924378952
 21
110.6175004268
  0
LINE
  5
254
100
AcDbEntity
  8
0
100
AcDbLine
 62
7
  6
BYLAYER
 10
79.5924378952
 20
99.7675004268
 11
79.5924378952
 21
100.1675004268
  0
LINE
  5
255
100
AcDbEntity
  8
0
100
AcDbLine
 62
7
  6
BYLAYER
 10
80.8712819466
 20
141.0975004268
 11
80.7636708905
 21
139.8675004268
  0
LINE
  5
256
100
AcDbEntity
  8
0
100
AcDbLine
 62
7
  6
BYLAYER
 10
157.5924378952
 20
115.7675004268
 11
154.5924378952
 21
115.7675004268
  0
LINE
  5
257
100
AcDbEntity
  8
0
100
AcDbLine
 62
7
  6
BYLAYER
 10
87.5135938438
 20
141.0975004268
 11
87.7524378952
 21
138.3675004268
  0
LINE
  5
258
100
AcDbEntity
  8
0
100
AcDbLine
 62
7
  6
BYLAYER
 10
85.0924378952
 20
136.0675004268
 11
85.0924378952
 21
139.8675004268
  0
LINE
  5
259
100
AcDbEntity
  8
0
100
AcDbLine
 62
7
  6
BYLAYER
 10
85.5924378952
 20
133.1675004268
 11
85.5924378952
 21
138.3675004268
  0
LINE
  5
25A
100
AcDbEntity
  8
0
100
AcDbLine
 62
7
  6
BYLAYER
 10
86.0468695695
 20
138.3675004268
 11
86.0468695695
 21
136.8675004268
  0
LINE
  5
25B
100
AcDbEntity
  8
0
100
AcDbLine
 62
7
  6
BYLAYER
 10
89.5924378952
 20
99.7675004268
 11
89.5924378952
 21
100.1675004268
  0
LINE
  5
25C
100
AcDbEntity
  8
0
100
AcDbLine
 62
7
  6
BYLAYER
 10
167.6924378952
 20
120.9175004268
 11
166.4924378952
 21
120.9175004268
  0
LINE
  5
25D
100
AcDbEntity
  8
0
100
AcDbLine
 62
7
  6
BYLAYER
 10
158.7924378952
 20
120.9175004268
 11
157.7424378952
 21
120.9175004268
  0
LINE
  5
25E
100
AcDbEntity
  8
0
100
AcDbLine
 62
7
  6
BYLAYER
 10
165.7174378952
 20
121.6925004268
 11
159.5674378952
 21
121.6925004268
  0
LINE
  5
25F
100
AcDbEntity
  8
0
100
AcDbLine
 62
7
  6
BYLAYER
 10
77.6924378952
 20
125.0675004268
 11
73.0924378952
 21
125.0675004268
  0
LINE
  5
260
100
AcDbEntity
  8
0
100
AcDbLine
 62
7
  6
BYLAYER
 10
78.0924378952
 20
125.1675004268
 11
73.0924378952
 21
125.1675004268
  0
LINE
  5
261
100
AcDbEntity
  8
0
100
AcDbLine
 62
7
  6
BYLAYER
 10
90.5924378952
 20
138.3675004268
 11
90.5924378952
 21
136.8675004268
  0
LINE
  5
262
100
AcDbEntity
  8
0
100
AcDbLine
 62
7
  6
BYLAYER
 10
90.5924378952
 20
136.0675004268
 11
90.5924378952
 21
133.1675004268
  0
LINE
  5
263
100
AcDbEntity
  8
0
100
AcDbLine
 62
7
  6
BYLAYER
 10
91.3924378952
 20
136.8675004268
 11
91.3924378952
 21
136.0675004268
  0
LINE
  5
264
100
AcDbEntity
  8
0
100
AcDbLine
 62
7
  6
BYLAYER
 10
92.0924378952
 20
136.8675004268
 11
92.0924378952
 21
138.3675004268
  0
LINE
  5
265
100
AcDbEntity
  8
0
100
AcDbLine
 62
7
  6
BYLAYER
 10
157.5924378952
 20
127.3275004268
 11
154.5924378952
 21
127.3275004268
  0
LINE
  5
266
100
AcDbEntity
  8
0
100
AcDbLine
 62
7
  6
BYLAYER
 10
37.7932908563
 20
161.1675004268
 11
38.0061725016
 21
161.0445931516
  0
LINE
  5
267
100
AcDbEntity
  8
0
100
AcDbLine
 62
7
  6
BYLAYER
 10
65.1924378952
 20
157.3175004268
 11
64.5924378952
 21
157.9175004268
  0
LINE
  5
268
100
AcDbEntity
  8
0
100
AcDbLine
 62
7
  6
BYLAYER
 10
64.5924378952
 20
158.3675004268
 11
64.3924378952
 21
158.5675004268
  0
LINE
  5
269
100
AcDbEntity
  8
0
100
AcDbLine
 62
7
  6
BYLAYER
 10
67.1424378952
 20
157.3175004268
 11
67.9424378952
 21
156.5175004268
  0
LINE
  5
26A
100
AcDbEntity
  8
0
100
AcDbLine
 62
7
  6
BYLAYER
 10
52.4424378952
 20
131.6675004408
 11
73.0924378952
 21
131.6675004265
  0
LINE
  5
26B
100
AcDbEntity
  8
0
100
AcDbLine
 62
7
  6
BYLAYER
 10
154.5924378952
 20
133.1675004268
 11
138.5924378952
 21
133.1675004268
  0
LINE
  5
26C
100
AcDbEntity
  8
0
100
AcDbLine
 62
7
  6
BYLAYER
 10
52.9424378952
 20
133.1675004268
 11
90.5924378952
 21
133.1675004268
  0
LINE
  5
26D
100
AcDbEntity
  8
0
100
AcDbLine
 62
7
  6
BYLAYER
 10
85.0924378952
 20
136.0675004268
 11
151.7924378952
 21
136.0675004268
  0
LINE
  5
26E
100
AcDbEntity
  8
0
100
AcDbLine
 62
7
  6
BYLAYER
 10
52.4426052651
 20
136.6675004268
 11
72.4422705252
 21
136.6675004268
  0
LINE
  5
26F
100
AcDbEntity
  8
0
100
AcDbLine
 62
7
  6
BYLAYER
 10
85.0924378952
 20
136.8675004268
 11
151.7924378952
 21
136.8675004268
  0
LINE
  5
270
100
AcDbEntity
  8
0
100
AcDbLine
 62
7
  6
BYLAYER
 10
72.4424378952
 20
137.2175004268
 11
52.4424378952
 21
137.2175004268
  0
LINE
  5
271
100
AcDbEntity
  8
0
100
AcDbLine
 62
7
  6
BYLAYER
 10
85.0924378952
 20
138.3675004268
 11
151.7924378952
 21
138.3675004268
  0
LINE
  5
272
100
AcDbEntity
  8
0
100
AcDbLine
 62
7
  6
BYLAYER
 10
52.4424378952
 20
139.2175004268
 11
72.4424378952
 21
139.2175004268
  0
LINE
  5
273
100
AcDbEntity
  8
0
100
AcDbLine
 62
7
  6
BYLAYER
 10
78.0924378952
 20
139.8675004268
 11
85.0924378952
 21
139.8675004268
  0
LINE
  5
274
100
AcDbEntity
  8
0
100
AcDbLine
 62
7
  6
BYLAYER
 10
151.7924378952
 20
139.8675004268
 11
154.5924378952
 21
139.8675004268
  0
LINE
  5
275
100
AcDbEntity
  8
0
100
AcDbLine
 62
7
  6
BYLAYER
 10
80.8712855342
 20
141.0975004268
 11
87.5135902562
 21
141.0975004268
  0
LINE
  5
276
100
AcDbEntity
  8
0
100
AcDbLine
 62
7
  6
BYLAYER
 10
146.8712855342
 20
141.0975004268
 11
153.5135902562
 21
141.0975004268
  0
LINE
  5
277
100
AcDbEntity
  8
0
100
AcDbLine
 62
7
  6
BYLAYER
 10
34.4424582856
 20
142.1675004268
 11
30.4424175047
 21
142.1675004268
  0
LINE
  5
278
100
AcDbEntity
  8
0
100
AcDbLine
 62
7
  6
BYLAYER
 10
34.9424378952
 20
142.6675004268
 11
29.9424378952
 21
142.6675004268
  0
LINE
  5
279
100
AcDbEntity
  8
0
100
AcDbLine
 62
7
  6
BYLAYER
 10
52.5998336232
 20
142.8175004268
 11
72.2948969116
 21
142.8175004268
  0
LINE
  5
27A
100
AcDbEntity
  8
0
100
AcDbLine
 62
7
  6
BYLAYER
 10
38.4424298242
 20
144.9675004268
 11
26.4424459661
 21
144.9675004268
  0
LINE
  5
27B
100
AcDbEntity
  8
0
100
AcDbLine
 62
7
  6
BYLAYER
 10
61.2236878952
 20
145.4675004268
 11
31.6924378952
 21
145.4675004268
  0
LINE
  5
27C
100
AcDbEntity
  8
0
100
AcDbLine
 62
7
  6
BYLAYER
 10
31.6924378952
 20
151.2675004268
 11
61.2236878952
 21
151.2675004268
  0
LINE
  5
27D
100
AcDbEntity
  8
0
100
AcDbLine
 62
7
  6
BYLAYER
 10
38.4424348119
 20
151.7675004268
 11
26.4424409785
 21
151.7675004268
  0
LINE
  5
27E
100
AcDbEntity
  8
0
100
AcDbLine
 62
7
  6
BYLAYER
 10
26.4424373133
 20
153.2675004268
 11
38.442438477
 21
153.2675004268
  0
LINE
  5
27F
100
AcDbEntity
  8
0
100
AcDbLine
 62
7
  6
BYLAYER
 10
52.6924483581
 20
153.5675004268
 11
72.1924274322
 21
153.5675004268
  0
LINE
  5
280
100
AcDbEntity
  8
0
100
AcDbLine
 62
7
  6
BYLAYER
 10
43.4423749666
 20
153.7175004268
 11
21.4425008238
 21
153.7175004268
  0
LINE
  5
281
100
AcDbEntity
  8
0
100
AcDbLine
 62
7
  6
BYLAYER
 10
59.6280881152
 20
156.5175004268
 11
59.7572935788
 21
156.5175004268
  0
LINE
  5
282
100
AcDbEntity
  8
0
100
AcDbLine
 62
7
  6
BYLAYER
 10
65.1275822116
 20
156.5175004268
 11
65.2567876751
 21
156.5175004268
  0
LINE
  5
283
100
AcDbEntity
  8
0
100
AcDbLine
 62
7
  6
BYLAYER
 10
57.7424378952
 20
157.3175004268
 11
67.1424378952
 21
157.3175004268
  0
LINE
  5
284
100
AcDbEntity
  8
0
100
AcDbLine
 62
7
  6
BYLAYER
 10
61.9424378952
 20
157.3675004268
 11
62.9424378952
 21
157.3675004268
  0
LINE
  5
285
100
AcDbEntity
  8
0
100
AcDbLine
 62
7
  6
BYLAYER
 10
122.0924378952
 20
99.7675004268
 11
122.0924378952
 21
100.1675004268
  0
LINE
  5
286
100
AcDbEntity
  8
0
100
AcDbLine
 62
7
  6
BYLAYER
 10
64.5924378952
 20
157.9175004268
 11
62.9424379311
 21
157.9175004268
  0
LINE
  5
287
100
AcDbEntity
  8
0
100
AcDbLine
 62
7
  6
BYLAYER
 10
61.9424378592
 20
157.9175004268
 11
60.2924378952
 21
157.9175004268
  0
LINE
  5
288
100
AcDbEntity
  8
0
100
AcDbLine
 62
7
  6
BYLAYER
 10
60.2924378952
 20
158.3675004268
 11
61.9424378592
 21
158.3675004268
  0
LINE
  5
289
100
AcDbEntity
  8
0
100
AcDbLine
 62
7
  6
BYLAYER
 10
62.9424379311
 20
158.3675004268
 11
64.5924378952
 21
158.3675004268
  0
LINE
  5
28A
100
AcDbEntity
  8
0
100
AcDbLine
 62
7
  6
BYLAYER
 10
60.4924378952
 20
158.5675004268
 11
61.942437875
 21
158.5675004268
  0
LINE
  5
28B
100
AcDbEntity
  8
0
100
AcDbLine
 62
7
  6
BYLAYER
 10
62.9424379154
 20
158.5675004268
 11
64.3924378952
 21
158.5675004268
  0
LINE
  5
28C
100
AcDbEntity
  8
0
100
AcDbLine
 62
7
  6
BYLAYER
 10
21.4425092907
 20
158.7175004268
 11
43.4423664997
 21
158.7175004268
  0
LINE
  5
28D
100
AcDbEntity
  8
0
100
AcDbLine
 62
7
  6
BYLAYER
 10
38.3586967045
 20
159.1675004268
 11
26.5261790859
 21
159.1675004268
  0
LINE
  5
28E
100
AcDbEntity
  8
0
100
AcDbLine
 62
7
  6
BYLAYER
 10
27.0918107448
 20
161.1675004268
 11
37.7930650456
 21
161.1675004268
  0
LINE
  5
28F
100
AcDbEntity
  8
0
100
AcDbLine
 62
7
  6
BYLAYER
 10
158.7924378952
 20
110.6175004268
 11
159.5674378952
 21
109.8425004268
  0
LINE
  5
290
100
AcDbEntity
  8
0
100
AcDbLine
 62
7
  6
BYLAYER
 10
130.0924378952
 20
99.7675004268
 11
130.0924378952
 21
100.1675004268
  0
LINE
  5
291
100
AcDbEntity
  8
0
100
AcDbLine
 62
7
  6
BYLAYER
 10
131.2924378952
 20
99.7675004268
 11
131.2924378952
 21
100.1675004268
  0
LINE
  5
292
100
AcDbEntity
  8
0
100
AcDbLine
 62
7
  6
BYLAYER
 10
137.0924378952
 20
138.3675004268
 11
137.0924378952
 21
136.8675004268
  0
LINE
  5
293
100
AcDbEntity
  8
0
100
AcDbLine
 62
7
  6
BYLAYER
 10
137.2924378952
 20
99.7675004268
 11
137.2924378952
 21
100.1675004268
  0
LINE
  5
294
100
AcDbEntity
  8
0
100
AcDbLine
 62
7
  6
BYLAYER
 10
137.7924378952
 20
136.8675004268
 11
137.7924378952
 21
136.0675004268
  0
LINE
  5
295
100
AcDbEntity
  8
0
100
AcDbLine
 62
7
  6
BYLAYER
 10
138.5924378952
 20
136.0675004268
 11
138.5924378952
 21
133.1675004268
  0
LINE
  5
296
100
AcDbEntity
  8
0
100
AcDbLine
 62
7
  6
BYLAYER
 10
138.5924378952
 20
136.8675004268
 11
138.5924378952
 21
138.3675004268
  0
LINE
  5
297
100
AcDbEntity
  8
0
100
AcDbLine
 62
7
  6
BYLAYER
 10
139.5924378952
 20
99.7675004268
 11
139.5924378952
 21
100.1675004268
  0
LINE
  5
298
100
AcDbEntity
  8
0
100
AcDbLine
 62
7
  6
BYLAYER
 10
166.4924378952
 20
120.9175004268
 11
165.7174378952
 21
121.6925004268
  0
LINE
  5
299
100
AcDbEntity
  8
0
100
AcDbLine
 62
7
  6
BYLAYER
 10
143.5924378952
 20
133.1675004268
 11
143.5924378952
 21
138.3675004268
  0
LINE
  5
29A
100
AcDbEntity
  8
0
100
AcDbLine
 62
7
  6
BYLAYER
 10
146.8712819466
 20
141.0975004268
 11
146.6324378952
 21
138.3675004268
  0
LINE
  5
29B
100
AcDbEntity
  8
0
100
AcDbLine
 62
7
  6
BYLAYER
 10
159.5674378952
 20
121.6925004268
 11
158.7924378952
 21
120.9175004268
  0
LINE
  5
29C
100
AcDbEntity
  8
0
100
AcDbLine
 62
7
  6
BYLAYER
 10
149.5924378952
 20
99.7675004268
 11
149.5924378952
 21
100.1675004268
  0
LINE
  5
29D
100
AcDbEntity
  8
0
100
AcDbLine
 62
7
  6
BYLAYER
 10
150.6924378952
 20
138.3675004268
 11
150.6924378952
 21
136.8675004268
  0
LINE
  5
29E
100
AcDbEntity
  8
0
100
AcDbLine
 62
7
  6
BYLAYER
 10
151.1924378952
 20
136.8675004268
 11
151.1924378952
 21
138.3675004268
  0
LINE
  5
29F
100
AcDbEntity
  8
0
100
AcDbLine
 62
7
  6
BYLAYER
 10
151.6924378952
 20
136.8675004268
 11
151.6924378952
 21
138.3675004268
  0
LINE
  5
2A0
100
AcDbEntity
  8
0
100
AcDbLine
 62
7
  6
BYLAYER
 10
151.7924378952
 20
139.8675004268
 11
151.7924378952
 21
136.0675004268
  0
LINE
  5
2A1
100
AcDbEntity
  8
0
100
AcDbLine
 62
7
  6
BYLAYER
 10
153.5135938438
 20
141.0975004268
 11
153.6212048999
 21
139.8675004268
  0
LINE
  5
2A2
100
AcDbEntity
  8
0
100
AcDbLine
 62
7
  6
BYLAYER
 10
154.5924378952
 20
100.1675004268
 11
154.5924378952
 21
139.8675004268
  0
LINE
  5
2A3
100
AcDbEntity
  8
0
100
AcDbLine
 62
7
  6
BYLAYER
 10
157.5924378952
 20
127.3275004268
 11
157.5924378952
 21
104.3275004268
  0
LINE
  5
2A4
100
AcDbEntity
  8
0
100
AcDbLine
 62
7
  6
BYLAYER
 10
157.7424378952
 20
110.6175004268
 11
157.7424378952
 21
120.9175004268
  0
LINE
  5
2A5
100
AcDbEntity
  8
0
100
AcDbLine
 62
7
  6
BYLAYER
 10
158.7924378952
 20
120.9175004268
 11
158.7924378952
 21
110.6175004268
  0
LINE
  5
2A6
100
AcDbEntity
  8
0
100
AcDbLine
 62
7
  6
BYLAYER
 10
159.5674378952
 20
109.8425004268
 11
159.5674378952
 21
121.6925004268
  0
LINE
  5
2A7
100
AcDbEntity
  8
0
100
AcDbLine
 62
7
  6
BYLAYER
 10
165.7174378952
 20
109.8425004268
 11
166.4924378952
 21
110.6175004268
  0
LINE
  5
2A8
100
AcDbEntity
  8
0
100
AcDbLine
 62
7
  6
BYLAYER
 10
165.7174378952
 20
121.6925004268
 11
165.7174378952
 21
109.8425004268
  0
LINE
  5
2A9
100
AcDbEntity
  8
0
100
AcDbLine
 62
7
  6
BYLAYER
 10
166.4924378952
 20
110.6175004268
 11
166.4924378952
 21
120.9175004268
  0
LINE
  5
2AA
100
AcDbEntity
  8
0
100
AcDbLine
 62
7
  6
BYLAYER
 10
167.6924378952
 20
120.9175004268
 11
167.6924378952
 21
110.6175004268
  0
ARC
  5
2AB
100
AcDbEntity
  8
0
100
AcDbCircle
 62
7
  6
BYLAYER
 10
52.9424378952
 20
100.6675004268
 40
0.5
100
AcDbArc
 50
180.0
 51
270.0
  0
ARC
  5
2AC
100
AcDbEntity
  8
0
100
AcDbCircle
 62
7
  6
BYLAYER
 10
52.9424378952
 20
132.6675004268
 40
0.5
100
AcDbArc
 50
90.0
 51
180.0
  0
ARC
  5
2AD
100
AcDbEntity
  8
0
100
AcDbCircle
 62
7
  6
BYLAYER
 10
157.7424378952
 20
121.0675004268
 40
0.15
100
AcDbArc
 50
180.0
 51
270.0
  0
ARC
  5
2AE
100
AcDbEntity
  8
0
100
AcDbCircle
 62
7
  6
BYLAYER
 10
157.7424378952
 20
110.4675004268
 40
0.15
100
AcDbArc
 50
90.0
 51
180.0
  0
SPLINE
  5
2AF
100
AcDbEntity
  8
0
100
AcDbSpline
 62
7
  6
BYLAYER
 70
0
 71
3
 72
20
 73
16
 74
0
 42
0.0000001
 43
0.0000001
 44
0.0000000001
 40
0.0
 40
0.0
 40
0.0
 40
0.0
 40
0.1375632702
 40
0.2031196806
 40
0.2663592542
 40
0.3273262365
 40
0.386251994
 40
0.4436067812
 40
0.5001022202
 40
0.5565967521
 40
0.6139510807
 40
0.7336499173
 40
0.7968890495
 40
0.8624416671
 40
1.0
 40
1.0
 40
1.0
 40
1.0
 10
65.2567876751
 20
156.5175004268
 30
0.0
 10
65.3585964265
 20
156.6169081322
 30
0.0
 10
65.5153934616
 20
156.7576020947
 30
0.0
 10
65.7377003914
 20
156.9207042583
 30
0.0
 10
65.9048613663
 20
157.0240653518
 30
0.0
 10
66.075009403
 20
157.1080923135
 30
0.0
 10
66.2479276348
 20
157.1703713989
 30
0.0
 10
66.4230324321
 20
157.2088001334
 30
0.0
 10
66.5993794639
 20
157.2218184934
 30
0.0
 10
66.7757333405
 20
157.208776311
 30
0.0
 10
67.0123912407
 20
157.1568958684
 30
0.0
 10
67.2423221273
 20
157.0559830358
 30
0.0
 10
67.461002985
 20
156.9207018051
 30
0.0
 10
67.6833576685
 20
156.7575832591
 30
0.0
 10
67.8401268943
 20
156.6169045644
 30
0.0
 10
67.9419319916
 20
156.5175004268
 30
0.0
  0
SPLINE
  5
2B0
100
AcDbEntity
  8
0
100
AcDbSpline
 62
7
  6
BYLAYER
 70
0
 71
3
 72
15
 73
11
 74
0
 42
0.0000001
 43
0.0000001
 44
0.0000000001
 40
0.0
 40
0.0
 40
0.0
 40
0.0
 40
0.1250240702
 40
0.2500322841
 40
0.3750244834
 40
0.5000076867
 40
0.6249897753
 40
0.7499768809
 40
0.8749802831
 40
1.0
 40
1.0
 40
1.0
 40
1.0
 10
59.7572935788
 20
156.5175004268
 30
0.0
 10
59.966861412
 20
156.6198131316
 30
0.0
 10
60.3933783927
 20
156.8098888103
 30
0.0
 10
61.0567927691
 20
157.0355611454
 30
0.0
 10
61.7424986694
 20
157.1830309535
 30
0.0
 10
62.4424791715
 20
157.2347290686
 30
0.0
 10
63.1424514232
 20
157.1830327614
 30
0.0
 10
63.8281321005
 20
157.0355431312
 30
0.0
 10
64.49151938
 20
156.8098764187
 30
0.0
 10
64.9180216755
 20
156.6198095691
 30
0.0
 10
65.1275822116
 20
156.5175004268
 30
0.0
  0
SPLINE
  5
2B1
100
AcDbEntity
  8
0
100
AcDbSpline
 62
7
  6
BYLAYER
 70
0
 71
3
 72
20
 73
16
 74
0
 42
0.0000001
 43
0.0000001
 44
0.0000000001
 40
0.0
 40
0.0
 40
0.0
 40
0.0
 40
0.1375632702
 40
0.2031196806
 40
0.2663592542
 40
0.3273262365
 40
0.386251994
 40
0.4436067812
 40
0.5001022202
 40
0.5565967521
 40
0.6139510807
 40
0.7336499173
 40
0.7968890495
 40
0.8624416671
 40
1.0
 40
1.0
 40
1.0
 40
1.0
 10
56.9429437988
 20
156.5175004268
 30
0.0
 10
57.0447525501
 20
156.6169081322
 30
0.0
 10
57.2015495853
 20
156.7576020947
 30
0.0
 10
57.4238565151
 20
156.9207042583
 30
0.0
 10
57.5910174899
 20
157.0240653518
 30
0.0
 10
57.7611655266
 20
157.1080923135
 30
0.0
 10
57.9340837585
 20
157.1703713989
 30
0.0
 10
58.1091885558
 20
157.2088001334
 30
0.0
 10
58.2855355876
 20
157.2218184934
 30
0.0
 10
58.4618894642
 20
157.208776311
 30
0.0
 10
58.6985473644
 20
157.1568958684
 30
0.0
 10
58.928478251
 20
157.0559830358
 30
0.0
 10
59.1471591087
 20
156.9207018051
 30
0.0
 10
59.3695137921
 20
156.7575832591
 30
0.0
 10
59.526283018
 20
156.6169045644
 30
0.0
 10
59.6280881152
 20
156.5175004268
 30
0.0
  0
SPLINE
  5
2B2
100
AcDbEntity
  8
0
100
AcDbSpline
 62
7
  6
BYLAYER
 70
0
 71
3
 72
11
 73
7
 74
0
 42
0.0000001
 43
0.0000001
 44
0.0000000001
 40
0.0
 40
0.0
 40
0.0
 40
0.0
 40
0.1941738983
 40
0.4257383551
 40
0.69534724
 40
1.0
 40
1.0
 40
1.0
 40
1.0
 10
38.0061724312
 20
161.0445879424
 30
0.0
 10
38.0387508399
 20
161.0257765044
 30
0.0
 10
38.1035351991
 20
160.9731521586
 30
0.0
 10
38.1908207599
 20
160.8700916768
 30
0.0
 10
38.2772690985
 20
160.7397753383
 30
0.0
 10
38.3313493793
 20
160.6424562297
 30
0.0
 10
38.3586967045
 20
160.5901501576
 30
0.0
  0
SPLINE
  5
2B3
100
AcDbEntity
  8
0
100
AcDbSpline
 62
7
  6
BYLAYER
 70
0
 71
3
 72
11
 73
7
 74
0
 42
0.0000001
 43
0.0000001
 44
0.0000000001
 40
0.0
 40
0.0
 40
0.0
 40
0.0
 40
0.1941738983
 40
0.4257383551
 40
0.69534724
 40
1.0
 40
1.0
 40
1.0
 40
1.0
 10
26.8787033591
 20
161.0445879424
 30
0.0
 10
26.8461249504
 20
161.0257765044
 30
0.0
 10
26.7813405913
 20
160.9731521586
 30
0.0
 10
26.6940550305
 20
160.8700916768
 30
0.0
 10
26.6076066919
 20
160.7397753383
 30
0.0
 10
26.553526411
 20
160.6424562297
 30
0.0
 10
26.5261790859
 20
160.5901501576
 30
0.0
  0
SPLINE
  5
2B4
100
AcDbEntity
  8
0
100
AcDbSpline
 62
7
  6
BYLAYER
 70
0
 71
3
 72
13
 73
9
 74
0
 42
0.0000001
 43
0.0000001
 44
0.0000000001
 40
0.0
 40
0.0
 40
0.0
 40
0.0
 40
0.2503369684
 40
0.3752315688
 40
0.499999995
 40
0.624768429
 40
0.7496630343
 40
1.0
 40
1.0
 40
1.0
 40
1.0
 10
31.4839112701
 20
160.5901501576
 30
0.0
 10
31.963543531
 20
160.7387788502
 30
0.0
 10
32.695700532
 20
160.9250398867
 30
0.0
 10
33.6907311889
 20
161.0584346139
 30
0.0
 10
34.4420406532
 20
161.0928528649
 30
0.0
 10
35.193350102
 20
161.0584343523
 30
0.0
 10
36.1883808163
 20
160.9250399401
 30
0.0
 10
36.9205378236
 20
160.7387788486
 30
0.0
 10
37.4001700794
 20
160.5901501576
 30
0.0
  0
SPLINE
  5
2B5
100
AcDbEntity
  8
0
100
AcDbSpline
 62
7
  6
BYLAYER
 70
0
 71
3
 72
15
 73
11
 74
0
 42
0.0000001
 43
0.0000001
 44
0.0000000001
 40
0.0
 40
0.0
 40
0.0
 40
0.0
 40
0.1263402874
 40
0.2516562041
 40
0.3760897912
 40
0.4999999943
 40
0.6239102058
 40
0.7483437966
 40
0.8736597034
 40
1.0
 40
1.0
 40
1.0
 40
1.0
 10
26.5261790859
 20
160.5901501576
 30
0.0
 10
26.7268222455
 20
160.6643465399
 30
0.0
 10
27.1310070254
 20
160.8004078115
 30
0.0
 10
27.7487141637
 20
160.9580802043
 30
0.0
 10
28.3744467803
 20
161.0583504155
 30
0.0
 10
29.0050451608
 20
161.0928764867
 30
0.0
 10
29.635643527
 20
161.0583501731
 30
0.0
 10
30.2613761521
 20
160.9580801047
 30
0.0
 10
30.8790834131
 20
160.8004081161
 30
0.0
 10
31.2832680959
 20
160.6643465453
 30
0.0
 10
31.4839112701
 20
160.5901501576
 30
0.0
  0
SPLINE
  5
2B6
100
AcDbEntity
  8
0
100
AcDbSpline
 62
7
  6
BYLAYER
 70
0
 71
3
 72
16
 73
12
 74
0
 42
0.0000001
 43
0.0000001
 44
0.0000000001
 40
0.0
 40
0.0
 40
0.0
 40
0.0
 40
0.1796491639
 40
0.3421093345
 40
0.4858971418
 40
0.5506106608
 40
0.6106160272
 40
0.7176105451
 40
0.8119260228
 40
0.9025535032
 40
1.0
 40
1.0
 40
1.0
 40
1.0
 10
37.4001700794
 20
160.5901501576
 30
0.0
 10
37.4236806703
 20
160.6351178703
 30
0.0
 10
37.4703621913
 20
160.7197912521
 30
0.0
 10
37.5442013084
 20
160.8356040375
 30
0.0
 10
37.6083227376
 20
160.9187774688
 30
0.0
 10
37.6605635359
 20
160.9738692304
 30
0.0
 10
37.7093474662
 20
161.0175558303
 30
0.0
 10
37.7712108783
 20
161.0590671437
 30
0.0
 10
37.8512711088
 20
161.0844315064
 30
0.0
 10
37.9326409576
 20
161.0796658841
 30
0.0
 10
37.982336405
 20
161.0583513503
 30
0.0
 10
38.0061724312
 20
161.0445879424
 30
0.0
  0
ELLIPSE
  5
2B7
100
AcDbEntity
  8
0
100
AcDbEllipse
 62
7
  6
BYLAYER
 10
62.4181847703
 20
142.5618264911
 30
0.0
 11
7.0241205583
 21
7.3399569034
 31
0.0
 40
0.9416961723
 41
-4.0048040025
 42
-3.9600424208
  0
ENDSEC
  0
SECTION
  2
OBJECTS
  0
DICTIONARY
  5
C
100
AcDbDictionary
280
0
281
1
  3
ACAD_GROUP
350
D
  3
ACAD_MLINESTYLE
350
17
  3
ACAD_LAYOUT
350
1A
  3
ACAD_PLOTSETTINGS
350
19
  3
ACAD_PLOTSTYLENAME
350
E
  0
DICTIONARY
  5
D
102
{ACAD_REACTORS
330
C
102
}
100
AcDbDictionary
280
0
281
1
  0
ACDBDICTIONARYWDFLT
  5
E
102
{ACAD_REACTORS
330
C
102
}
100
AcDbDictionary
281
1
  3
Normal
350
F
100
AcDbDictionaryWithDefault
340
F
  0
DICTIONARY
  5
17
102
{ACAD_REACTORS
330
C
102
}
100
AcDbDictionary
280
0
281
1
  3
Standard
350
18
  0
DICTIONARY
  5
19
102
{ACAD_REACTORS
330
C
102
}
100
AcDbDictionary
281
1
  0
DICTIONARY
  5
1A
102
{ACAD_REACTORS
330
C
102
}
100
AcDbDictionary
281
1
  3
Model
350
2B8
  3
Layout1
350
2B9
  0
ACDBPLACEHOLDER
  5
F
102
{ACAD_REACTORS
330
E
102
}
  0
MLINESTYLE
  5
18
102
{ACAD_REACTORS
330
17
102
}
100
AcDbMlineStyle
  2
STANDARD
 70
0
  3

 62
256
 51
90.0
 52
90.0
 71
2
 49
0.5
 62
256
  6
BYLAYER
 49
-0.5
 62
256
  6
BYLAYER
  0
LAYOUT
  5
2B8
102
{ACAD_REACTORS
330
1A
102
}
100
AcDbPlotSettings
  1

  2
none_device
  4

  6

 40
0.0
 41
0.0
 42
0.0
 43
0.0
 44
210.0
 45
297.0
 46
0.0
 47
0.0
 48
0.0
 49
0.0
140
0.0
141
0.0
142
1.0
143
1.0
 70
1024
 72
1
 73
0
 74
0
  7

 75
0
147
1.0
148
0.0
149
0.0
100
AcDbLayout
  1
Model
 70
0
 71
0
 10
0.0
 20
0.0
 11
210.0
 21
297.0
 12
0.0
 22
0.0
 32
0.0
 14
0.0
 24
0.0
 34
0.0
 15
0.0
 25
0.0
 35
0.0
146
0.0
 13
0.0
 23
0.0
 33
0.0
 16
1.0
 26
0.0
 36
0.0
 17
0.0
 27
1.0
 37
0.0
 76
0
330
210
345
0
346
0
  0
LAYOUT
  5
2B9
102
{ACAD_REACTORS
330
1A
102
}
100
AcDbPlotSettings
  1

  2
none_device
  4

  6

 40
0.0
 41
0.0
 42
0.0
 43
0.0
 44
210.0
 45
297.0
 46
0.0
 47
0.0
 48
0.0
 49
0.0
140
0.0
141
0.0
142
1.0
143
1.0
 70
0
 72
1
 73
0
 74
0
  7

 75
0
147
1.0
148
0.0
149
0.0
100
AcDbLayout
  1
Layout1
 70
0
 71
1
 10
0.0
 20
0.0
 11
210.0
 21
297.0
 12
0.0
 22
0.0
 32
0.0
 14
0.0
 24
0.0
 34
0.0
 15
0.0
 25
0.0
 35
0.0
146
0.0
 13
0.0
 23
0.0
 33
0.0
 16
1.0
 26
0.0
 36
0.0
 17
0.0
 27
1.0
 37
0.0
 76
0
330
211
345
0
346
0
  0
ENDSEC
  0
EOF
