999
DXF file: C:\Users\sesa63760\Dev\_Creo\CAD\MCADUE0002367_3D-CAD\drw0001_6.dxf
999
Pro/ENGINEER 2019471 by Parametric Technology Corporation
  0
SECTION
  2
HEADER
  9
$ACADVER
  1
AC1024
  9
$DWGCODEPAGE
  3
ANSI_1252
  9
$EXTMAX
 10
60.139370242
 20
85.0542521994
 30
0.0
  9
$EXTMIN
 10
0.0
 20
0.0
 30
0.0
  9
$LIMMIN
 10
0.0
 20
0.0
  9
$LIMMAX
 10
60.139370242
 20
85.0542521994
  9
$VIEWCTR
 10
30.069685121
 20
42.5271260997
  9
$VIEWSIZE
 40
85.0542521994
  9
$CLAYER
  8
0
  9
$LTSCALE
 40
5.5442771804
  9
$CELTYPE
  6
BYLAYER
  9
$DIMSCALE
 40
1.0
  9
$DIMASZ
 40
0.7159448838
  9
$DIMEXO
 40
1.0
  9
$DIMDLI
 40
3.8305915065
  9
$DIMEXE
 40
1.0
  9
$DIMCEN
 40
0.9072453568
  9
$DIMLFAC
 40
1.0
  9
$DIMBLK
  1
_FILLED
  9
$DIMALT
 70
0
  9
$DIMALTF
 40
0.0393700787
  9
$DIMTXT
 40
1.0023228374
  9
$DIMTOL
 70
1
  9
$DIMLIM
 70
0
  9
$DIMTFAC
 40
1.0
  9
$DIMTP
 40
0.01
  9
$DIMTM
 40
0.01
  9
$DIMGAP
 40
0.625
  9
$DIMDSEP
 70
46
  9
$AUNITS
 70
0
  9
$PDMODE
 70
3
  9
$PDSIZE
 40
0.3125
  9
$HANDSEED
  5
2D8
  9
$TILEMODE
 70
1
  9
$MEASUREMENT
 70
1
  9
$INSUNITS
 70
4
  0
ENDSEC
  0
SECTION
  2
CLASSES
  0
CLASS
  1
ACDBDICTIONARYWDFLT
  2
AcDbDictionaryWithDefault
  3
AutoCAD 2000
 90
0
 91
1
280
0
281
0
  0
CLASS
  1
ACDBPLACEHOLDER
  2
AcDbPlaceHolder
  3
AutoCAD 2000
 90
0
 91
1
280
0
281
0
  0
CLASS
  1
LAYOUT
  2
AcDbLayout
  3
AutoCAD 2000
 90
0
 91
0
280
0
281
0
  0
ENDSEC
  0
SECTION
  2
TABLES
  0
TABLE
  2
VPORT
  5
8
100
AcDbSymbolTable
 70
2
  0
VPORT
  5
1F4
100
AcDbSymbolTableRecord
100
AcDbViewportTableRecord
  2
*ACTIVE
 70
0
 10
0.0
 20
0.0
 11
1.0
 21
1.0
 12
30.069685121
 22
42.5271260997
 13
0.0
 23
0.0
 14
1.0
 24
1.0
 15
0.0
 25
0.0
 16
0.0
 26
0.0
 36
1.0
 17
0.0
 27
0.0
 37
0.0
 40
85.0542521994
 41
0.7070707071
 42
50.0
 43
0.0
 44
0.0
 50
0.0
 51
0.0
 71
0
 72
100
 73
1
 74
1
 75
0
 76
0
 77
0
 78
0
  0
ENDTAB
  0
TABLE
  2
LTYPE
  5
5
100
AcDbSymbolTable
 70
6
  0
LTYPE
  5
14
100
AcDbSymbolTableRecord
100
AcDbLinetypeTableRecord
  2
BYBLOCK
 70
0
  3

 72
65
 73
0
 40
0.0
  0
LTYPE
  5
15
100
AcDbSymbolTableRecord
100
AcDbLinetypeTableRecord
  2
BYLAYER
 70
0
  3

 72
65
 73
0
 40
0.0
  0
LTYPE
  5
16
100
AcDbSymbolTableRecord
100
AcDbLinetypeTableRecord
  2
CONTINUOUS
 70
64
  3
Solid line
 72
65
 73
0
 40
0.0
  0
LTYPE
  5
1F5
100
AcDbSymbolTableRecord
100
AcDbLinetypeTableRecord
  2
CENTER
 70
64
  3
____ _ ____ _ ____ _ ____ _ ____ _ ____ _ ____
 72
65
 73
4
 40
0.6
 49
0.375
 74
0
 49
-0.075
 74
0
 49
0.075
 74
0
 49
-0.075
 74
0
  0
LTYPE
  5
1F6
100
AcDbSymbolTableRecord
100
AcDbLinetypeTableRecord
  2
HIDDEN
 70
64
  3
- - - - - - - - - - - - - - - - - - - -
 72
65
 73
2
 40
0.2
 49
0.1
 74
0
 49
-0.1
 74
0
  0
LTYPE
  5
1F7
100
AcDbSymbolTableRecord
100
AcDbLinetypeTableRecord
  2
PHANTOM
 70
64
  3
_____ _ _ _____ _ _ _____ _ _ _____
 72
65
 73
6
 40
0.8
 49
0.45
 74
0
 49
-0.05
 74
0
 49
0.1
 74
0
 49
-0.05
 74
0
 49
0.1
 74
0
 49
-0.05
 74
0
  0
LTYPE
  5
1F8
100
AcDbSymbolTableRecord
100
AcDbLinetypeTableRecord
  2
DOT
 70
64
  3
. . . . . . . . . . . . . . . . . . . .
 72
65
 73
2
 40
0.2
 49
0.1
 74
0
 49
-0.1
 74
0
  0
LTYPE
  5
1F9
100
AcDbSymbolTableRecord
100
AcDbLinetypeTableRecord
  2
DASHED
 70
64
  3
- - - - - - - - - - - - - - - - - - - -
 72
65
 73
2
 40
0.2
 49
0.1
 74
0
 49
-0.1
 74
0
  0
ENDTAB
  0
TABLE
  2
LAYER
  5
2
100
AcDbSymbolTable
 70
36
  0
LAYER
  5
10
100
AcDbSymbolTableRecord
100
AcDbLayerTableRecord
  2
0
 70
0
 62
7
  6
CONTINUOUS
370
-3
390
F
  0
LAYER
  5
1FA
100
AcDbSymbolTableRecord
100
AcDbLayerTableRecord
  2
DEFAULT_1
 70
0
 62
7
  6
CENTER
370
-3
390
F
  0
LAYER
  5
1FB
100
AcDbSymbolTableRecord
100
AcDbLayerTableRecord
  2
DEFAULT_2
 70
0
 62
8
  6
HIDDEN
370
-3
390
F
  0
LAYER
  5
1FC
100
AcDbSymbolTableRecord
100
AcDbLayerTableRecord
  2
DEFAULT_3
 70
0
 62
7
  6
PHANTOM
370
-3
390
F
  0
LAYER
  5
1FD
100
AcDbSymbolTableRecord
100
AcDbLayerTableRecord
  2
00_COMPONENTS
 70
0
 62
7
  6
CONTINUOUS
370
-3
390
F
  0
LAYER
  5
1FE
100
AcDbSymbolTableRecord
100
AcDbLayerTableRecord
  2
01_1_DEFAULT_DATUMS
 70
0
 62
7
  6
CONTINUOUS
370
-3
390
F
  0
LAYER
  5
1FF
100
AcDbSymbolTableRecord
100
AcDbLayerTableRecord
  2
01_PLANES
 70
0
 62
7
  6
CONTINUOUS
370
-3
390
F
  0
LAYER
  5
200
100
AcDbSymbolTableRecord
100
AcDbLayerTableRecord
  2
02_COORD_SYS
 70
0
 62
7
  6
CONTINUOUS
370
-3
390
F
  0
LAYER
  5
201
100
AcDbSymbolTableRecord
100
AcDbLayerTableRecord
  2
03_AXES
 70
0
 62
7
  6
CONTINUOUS
370
-3
390
F
  0
LAYER
  5
202
100
AcDbSymbolTableRecord
100
AcDbLayerTableRecord
  2
04_POINTS
 70
0
 62
7
  6
CONTINUOUS
370
-3
390
F
  0
LAYER
  5
203
100
AcDbSymbolTableRecord
100
AcDbLayerTableRecord
  2
05_CURVES
 70
0
 62
7
  6
CONTINUOUS
370
-3
390
F
  0
LAYER
  5
204
100
AcDbSymbolTableRecord
100
AcDbLayerTableRecord
  2
06_SURFS
 70
0
 62
7
  6
CONTINUOUS
370
-3
390
F
  0
LAYER
  5
205
100
AcDbSymbolTableRecord
100
AcDbLayerTableRecord
  2
07_COSMETICS
 70
0
 62
7
  6
CONTINUOUS
370
-3
390
F
  0
LAYER
  5
206
100
AcDbSymbolTableRecord
100
AcDbLayerTableRecord
  2
10_NOTES
 70
0
 62
7
  6
CONTINUOUS
370
-3
390
F
  0
LAYER
  5
207
100
AcDbSymbolTableRecord
100
AcDbLayerTableRecord
  2
11_NOTES_PUB
 70
0
 62
7
  6
CONTINUOUS
370
-3
390
F
  0
LAYER
  5
208
100
AcDbSymbolTableRecord
100
AcDbLayerTableRecord
  2
13_REF_GTOL
 70
0
 62
7
  6
CONTINUOUS
370
-3
390
F
  0
LAYER
  5
209
100
AcDbSymbolTableRecord
100
AcDbLayerTableRecord
  2
16_MISC
 70
0
 62
7
  6
CONTINUOUS
370
-3
390
F
  0
LAYER
  5
20A
100
AcDbSymbolTableRecord
100
AcDbLayerTableRecord
  2
17_NO_PRINT
 70
0
 62
7
  6
CONTINUOUS
370
-3
390
F
  0
LAYER
  5
20B
100
AcDbSymbolTableRecord
100
AcDbLayerTableRecord
  2
18_DATUM_CAMS_JOINTS
 70
0
 62
7
  6
CONTINUOUS
370
-3
390
F
  0
LAYER
  5
20C
100
AcDbSymbolTableRecord
100
AcDbLayerTableRecord
  2
19_DATUM_FUNCTIONAL
 70
0
 62
7
  6
CONTINUOUS
370
-3
390
F
  0
LAYER
  5
20D
100
AcDbSymbolTableRecord
100
AcDbLayerTableRecord
  2
20_DATUM_KINEMATIC_SCHEME
 70
0
 62
7
  6
CONTINUOUS
370
-3
390
F
  0
ENDTAB
  0
TABLE
  2
STYLE
  5
3
100
AcDbSymbolTable
 70
1
  0
STYLE
  5
11
100
AcDbSymbolTableRecord
100
AcDbTextStyleTableRecord
  2
STANDARD
 70
0
 40
0.0
 41
0.8
 50
0.0
 71
0
 42
0.2
  3
txt
  4

  0
STYLE
  5
20E
100
AcDbSymbolTableRecord
100
AcDbTextStyleTableRecord
  2
TEXTSTYLE_1
 70
0
 40
0.0
 41
0.8
 50
0.0
 71
0
 42
0.2
  3
gdt
  4

  0
ENDTAB
  0
TABLE
  2
VIEW
  5
6
100
AcDbSymbolTable
 70
0
  0
ENDTAB
  0
TABLE
  2
UCS
  5
7
100
AcDbSymbolTable
 70
0
  0
ENDTAB
  0
TABLE
  2
APPID
  5
9
100
AcDbSymbolTable
 70
1
  0
APPID
  5
20F
100
AcDbSymbolTableRecord
100
AcDbRegAppTableRecord
  2
ACAD
 70
0
  0
ENDTAB
  0
TABLE
  2
BLOCK_RECORD
  5
1
100
AcDbSymbolTable
 70
0
  0
BLOCK_RECORD
  5
210
100
AcDbSymbolTableRecord
100
AcDbBlockTableRecord
  2
*Model_Space
  0
BLOCK_RECORD
  5
211
100
AcDbSymbolTableRecord
100
AcDbBlockTableRecord
  2
*Paper_Space
  0
BLOCK_RECORD
  5
212
100
AcDbSymbolTableRecord
100
AcDbBlockTableRecord
  2
_FILLED
  0
ENDTAB
  0
TABLE
  2
DIMSTYLE
  5
A
100
AcDbSymbolTable
 70
1
100
AcDbDimStyleTable
 71
0
  0
DIMSTYLE
105
213
100
AcDbSymbolTableRecord
100
AcDbDimStyleTableRecord
  2
STANDARD
 70
0
  3

  4

 40
1.0
 41
0.7159448838
 42
1.0
 43
0.38
 44
1.0
 45
0.0
 46
0.0
 47
0.01
 48
0.01
140
1.0023228374
141
0.09
142
0.0
143
25.4
144
1.0
145
0.0
146
1.0
147
0.625
 71
1
 72
0
 73
0
 74
0
 75
0
 76
0
 77
1
 78
8
 79
2
170
0
171
1
172
0
173
0
174
0
175
0
176
0
177
0
178
0
270
2
179
2
271
2
272
2
273
2
274
2
275
0
280
0
281
0
282
0
283
1
284
8
285
0
286
0
287
3
288
0
340
11
278
46
341
212
342
212
343
212
344
212
  0
ENDTAB
  0
ENDSEC
  0
SECTION
  2
BLOCKS
  0
BLOCK
  5
20
100
AcDbEntity
  8
0
100
AcDbBlockBegin
  2
*Model_Space
 70
0
 10
0.0
 20
0.0
 30
0.0
  3
*Model_Space
  1

  0
ENDBLK
  5
21
100
AcDbEntity
  8
0
100
AcDbBlockEnd
  0
BLOCK
  5
1C
100
AcDbEntity
  8
0
100
AcDbBlockBegin
  2
*Paper_Space
 70
0
 10
0.0
 20
0.0
 30
0.0
  3
*Paper_Space
  1

  0
ENDBLK
  5
1D
100
AcDbEntity
  8
0
100
AcDbBlockEnd
  0
BLOCK
  5
214
100
AcDbEntity
  8
0
100
AcDbBlockBegin
  2
_FILLED
 70
64
 10
0.0
 20
0.0
  3
_FILLED
  1

  0
SOLID
  5
215
100
AcDbEntity
  8
0
  6
BYBLOCK
 62
0
100
AcDbTrace
 10
0.0
 20
0.0
 11
-1.0
 21
0.25
 12
-1.0
 22
-0.25
 13
-1.0
 23
-0.25
  0
ENDBLK
  5
216
100
AcDbEntity
  8
0
  6
BYBLOCK
 62
0
100
AcDbBlockEnd
  0
ENDSEC
  0
SECTION
  2
ENTITIES
  0
LINE
  5
217
100
AcDbEntity
  8
0
100
AcDbLine
 62
7
  6
CONTINUOUS
 10
15.0897375358
 20
7.0271260997
 11
22.5897375358
 21
7.0271260997
  0
LINE
  5
218
100
AcDbEntity
  8
0
100
AcDbLine
 62
7
  6
CONTINUOUS
 10
21.0897375358
 20
7.5560913111
 11
15.0897375358
 21
7.5560913111
  0
LINE
  5
219
100
AcDbEntity
  8
0
100
AcDbLine
 62
7
  6
CONTINUOUS
 10
21.0897375358
 20
10.6462612548
 11
15.0897375358
 21
10.6462612548
  0
LINE
  5
21A
100
AcDbEntity
  8
0
100
AcDbLine
 62
7
  6
CONTINUOUS
 10
26.3370247102
 20
73.6758589346
 11
26.3394606398
 21
73.6774952943
  0
LINE
  5
21B
100
AcDbEntity
  8
0
100
AcDbLine
 62
7
  6
CONTINUOUS
 10
27.8370417746
 20
73.6748207345
 11
27.8394595392
 21
73.6763901551
  0
LINE
  5
21C
100
AcDbEntity
  8
0
100
AcDbLine
 62
7
  6
CONTINUOUS
 10
29.3369942548
 20
73.674896054
 11
29.339460786
 21
73.6764923226
  0
LINE
  5
21D
100
AcDbEntity
  8
0
100
AcDbLine
 62
7
  6
CONTINUOUS
 10
27.0870958113
 20
11.3787467445
 11
27.0894604564
 21
11.3773187094
  0
LINE
  5
21E
100
AcDbEntity
  8
0
100
AcDbLine
 62
7
  6
CONTINUOUS
 10
28.5873487233
 20
11.3799266316
 11
28.5899147241
 21
11.3781749491
  0
LINE
  5
21F
100
AcDbEntity
  8
0
100
AcDbLine
 62
7
  6
CONTINUOUS
 10
30.0900140635
 20
11.3775677689
 11
30.0876337693
 21
11.3791978499
  0
LINE
  5
220
100
AcDbEntity
  8
0
100
AcDbLine
 62
7
  6
CONTINUOUS
 10
30.8369664217
 20
73.6753919728
 11
30.8394600942
 21
73.6771926296
  0
LINE
  5
221
100
AcDbEntity
  8
0
100
AcDbLine
 62
7
  6
CONTINUOUS
 10
32.3400139157
 20
73.6771932657
 11
32.3376508003
 21
73.6755707555
  0
LINE
  5
222
100
AcDbEntity
  8
0
100
AcDbLine
 62
7
  6
CONTINUOUS
 10
33.8400161271
 20
73.676684307
 11
33.8375044851
 21
73.6750556421
  0
LINE
  5
223
100
AcDbEntity
  8
0
100
AcDbLine
 62
7
  6
CONTINUOUS
 10
21.0897375358
 20
17.8236680348
 11
15.0897375358
 21
17.8236680348
  0
LINE
  5
224
100
AcDbEntity
  8
0
100
AcDbLine
 62
7
  6
CONTINUOUS
 10
33.0900149905
 20
11.3768465168
 11
33.0875428693
 21
11.3784616046
  0
LINE
  5
225
100
AcDbEntity
  8
0
100
AcDbLine
 62
7
  6
CONTINUOUS
 10
34.5900155232
 20
11.3778620566
 11
34.587579871
 21
11.3794960845
  0
LINE
  5
226
100
AcDbEntity
  8
0
100
AcDbLine
 62
7
  6
CONTINUOUS
 10
31.590014864
 20
11.3777590976
 11
31.5876095523
 21
11.3793916899
  0
LINE
  5
227
100
AcDbEntity
  8
0
100
AcDbLine
 62
7
  6
CONTINUOUS
 10
26.337715832
 20
73.6749373804
 11
25.587220361
 21
72.6743665408
  0
LINE
  5
228
100
AcDbEntity
  8
0
100
AcDbLine
 62
7
  6
CONTINUOUS
 10
27.836920765
 20
73.674982086
 11
27.0872392302
 21
72.6754601647
  0
LINE
  5
229
100
AcDbEntity
  8
0
100
AcDbLine
 62
7
  6
CONTINUOUS
 10
35.3400146048
 20
73.6769208812
 11
35.3376505598
 21
73.6752942592
  0
LINE
  5
22A
100
AcDbEntity
  8
0
100
AcDbLine
 62
7
  6
CONTINUOUS
 10
36.8400149291
 20
73.6766849075
 11
36.8376346957
 21
73.6750548933
  0
LINE
  5
22B
100
AcDbEntity
  8
0
100
AcDbLine
 62
7
  6
CONTINUOUS
 10
38.3400168404
 20
73.6771951136
 11
38.3375114863
 21
73.6755748304
  0
LINE
  5
22C
100
AcDbEntity
  8
0
100
AcDbLine
 62
7
  6
CONTINUOUS
 10
45.8372814688
 20
73.6758495839
 11
45.839710649
 21
73.6771059346
  0
LINE
  5
22D
100
AcDbEntity
  8
0
100
AcDbLine
 62
7
  6
CONTINUOUS
 10
36.0900159258
 20
11.3778620658
 11
36.0875495041
 21
11.3794957298
  0
LINE
  5
22E
100
AcDbEntity
  8
0
100
AcDbLine
 62
7
  6
CONTINUOUS
 10
37.5900144261
 20
11.3768460761
 11
37.5876347593
 21
11.3784642364
  0
LINE
  5
22F
100
AcDbEntity
  8
0
100
AcDbLine
 62
7
  6
CONTINUOUS
 10
39.0870203891
 20
11.3792424589
 11
39.0894609126
 21
11.3775676416
  0
LINE
  5
230
100
AcDbEntity
  8
0
100
AcDbLine
 62
7
  6
CONTINUOUS
 10
26.3372908687
 20
12.3793518631
 11
27.087447267
 21
11.3792153784
  0
LINE
  5
231
100
AcDbEntity
  8
0
100
AcDbLine
 62
7
  6
CONTINUOUS
 10
29.3373242074
 20
73.6744561006
 11
28.5871899721
 21
72.6743668564
  0
LINE
  5
232
100
AcDbEntity
  8
0
100
AcDbLine
 62
7
  6
CONTINUOUS
 10
30.837443569
 20
73.6747557469
 11
30.0871636015
 21
72.6744688284
  0
LINE
  5
233
100
AcDbEntity
  8
0
100
AcDbLine
 62
7
  6
CONTINUOUS
 10
39.8400144035
 20
73.6764924799
 11
39.8376089943
 21
73.6748597577
  0
LINE
  5
234
100
AcDbEntity
  8
0
100
AcDbLine
 62
7
  6
CONTINUOUS
 10
44.3352621011
 20
73.6739651707
 11
44.3378904722
 21
73.6757406313
  0
LINE
  5
235
100
AcDbEntity
  8
0
100
AcDbLine
 62
7
  6
CONTINUOUS
 10
41.3400155323
 20
73.6763901551
 11
41.3375799437
 21
73.6747562119
  0
LINE
  5
236
100
AcDbEntity
  8
0
100
AcDbLine
 62
7
  6
CONTINUOUS
 10
43.5900153141
 20
11.3773201753
 11
43.5874983392
 21
11.3789447173
  0
LINE
  5
237
100
AcDbEntity
  8
0
100
AcDbLine
 62
7
  6
CONTINUOUS
 10
42.0900135161
 20
11.3773201747
 11
42.087648897
 21
11.3789465574
  0
LINE
  5
238
100
AcDbEntity
  8
0
100
AcDbLine
 62
7
  6
CONTINUOUS
 10
40.5870017061
 20
11.3792198467
 11
40.5894597574
 21
11.3773201753
  0
LINE
  5
239
100
AcDbEntity
  8
0
100
AcDbLine
 62
7
  6
CONTINUOUS
 10
27.8371406161
 20
12.3793496851
 11
28.5870553033
 21
11.3795353903
  0
LINE
  5
23A
100
AcDbEntity
  8
0
100
AcDbLine
 62
7
  6
CONTINUOUS
 10
29.3372752491
 20
12.3795957227
 11
30.0872960677
 21
11.3796480834
  0
LINE
  5
23B
100
AcDbEntity
  8
0
100
AcDbLine
 62
7
  6
CONTINUOUS
 10
13.5897375358
 20
8.5271260997
 11
13.5897375358
 21
76.5271260997
  0
LINE
  5
23C
100
AcDbEntity
  8
0
100
AcDbLine
 62
7
  6
CONTINUOUS
 10
15.0897375358
 20
7.0271260997
 11
15.0897375358
 21
78.0271260997
  0
LINE
  5
23D
100
AcDbEntity
  8
0
100
AcDbLine
 62
7
  6
CONTINUOUS
 10
32.3372530594
 20
73.6750404671
 11
31.5872928076
 21
72.6751569851
  0
LINE
  5
23E
100
AcDbEntity
  8
0
100
AcDbLine
 62
7
  6
CONTINUOUS
 10
33.8372389716
 20
73.6747016517
 11
33.0871456965
 21
72.6746573838
  0
LINE
  5
23F
100
AcDbEntity
  8
0
100
AcDbLine
 62
7
  6
CONTINUOUS
 10
47.3399626354
 20
73.6769572342
 11
47.337459774
 21
73.675396808
  0
LINE
  5
240
100
AcDbEntity
  8
0
100
AcDbLine
 62
7
  6
CONTINUOUS
 10
21.0897375358
 20
25.9138379786
 11
15.0897375358
 21
25.9138379786
  0
LINE
  5
241
100
AcDbEntity
  8
0
100
AcDbLine
 62
7
  6
CONTINUOUS
 10
46.5903097621
 20
11.378639297
 11
46.5878092949
 21
11.3802754506
  0
LINE
  5
242
100
AcDbEntity
  8
0
100
AcDbLine
 62
7
  6
CONTINUOUS
 10
45.0900140635
 20
11.3775677689
 11
45.0876337426
 21
11.3791978854
  0
LINE
  5
243
100
AcDbEntity
  8
0
100
AcDbLine
 62
7
  6
CONTINUOUS
 10
30.8372502814
 20
12.3797843076
 11
31.5877140017
 21
11.3792524358
  0
LINE
  5
244
100
AcDbEntity
  8
0
100
AcDbLine
 62
7
  6
CONTINUOUS
 10
32.3371856459
 20
12.3788814324
 11
33.0868590244
 21
11.3793733479
  0
LINE
  5
245
100
AcDbEntity
  8
0
100
AcDbLine
 62
7
  6
CONTINUOUS
 10
33.837220361
 20
12.3798856587
 11
34.5873172848
 21
11.3798461686
  0
LINE
  5
246
100
AcDbEntity
  8
0
100
AcDbLine
 62
7
  6
CONTINUOUS
 10
34.5872913538
 20
72.6748877991
 11
35.3400146048
 21
73.6769208812
  0
LINE
  5
247
100
AcDbEntity
  8
0
100
AcDbLine
 62
7
  6
CONTINUOUS
 10
36.8376128658
 20
73.675025789
 11
36.0872752566
 21
72.6746558173
  0
LINE
  5
248
100
AcDbEntity
  8
0
100
AcDbLine
 62
7
  6
CONTINUOUS
 10
35.3371899721
 20
12.3798853432
 11
36.0876137526
 21
11.3794100726
  0
LINE
  5
249
100
AcDbEntity
  8
0
100
AcDbLine
 62
7
  6
CONTINUOUS
 10
36.8372769156
 20
12.3788847852
 11
37.5870658993
 21
11.3792226748
  0
LINE
  5
24A
100
AcDbEntity
  8
0
100
AcDbLine
 62
7
  6
CONTINUOUS
 10
38.3369141471
 20
73.6747784273
 11
37.5871525841
 21
72.6751597598
  0
LINE
  5
24B
100
AcDbEntity
  8
0
100
AcDbLine
 62
7
  6
CONTINUOUS
 10
39.8373075366
 20
73.6744578481
 11
39.0872502814
 21
72.6744678841
  0
LINE
  5
24C
100
AcDbEntity
  8
0
100
AcDbLine
 62
7
  6
CONTINUOUS
 10
38.3371636015
 20
12.3797833633
 11
39.0873272128
 21
11.3796515731
  0
LINE
  5
24D
100
AcDbEntity
  8
0
100
AcDbLine
 62
7
  6
CONTINUOUS
 10
39.8371457161
 20
12.3795941558
 11
40.5872441024
 21
11.3795430516
  0
LINE
  5
24E
100
AcDbEntity
  8
0
100
AcDbLine
 62
7
  6
CONTINUOUS
 10
21.0897375358
 20
7.5560913111
 11
21.0897375358
 21
10.6462612548
  0
LINE
  5
24F
100
AcDbEntity
  8
0
100
AcDbLine
 62
7
  6
CONTINUOUS
 10
21.0897375358
 20
17.8236680348
 11
21.0897375358
 21
25.9138379786
  0
LINE
  5
250
100
AcDbEntity
  8
0
100
AcDbLine
 62
7
  6
CONTINUOUS
 10
21.0897375358
 20
37.5271260997
 11
21.0897375358
 21
47.5271260997
  0
LINE
  5
251
100
AcDbEntity
  8
0
100
AcDbLine
 62
7
  6
CONTINUOUS
 10
21.0897375358
 20
59.1404142208
 11
21.0897375358
 21
67.2305841646
  0
LINE
  5
252
100
AcDbEntity
  8
0
100
AcDbLine
 62
7
  6
CONTINUOUS
 10
21.0897375358
 20
74.4079909446
 11
21.0897375358
 21
77.4981608883
  0
LINE
  5
253
100
AcDbEntity
  8
0
100
AcDbLine
 62
7
  6
CONTINUOUS
 10
22.5897375358
 20
78.0271260997
 11
22.5897375358
 21
7.0271260997
  0
LINE
  5
254
100
AcDbEntity
  8
0
100
AcDbLine
 62
7
  6
CONTINUOUS
 10
41.337715832
 20
73.6749373804
 11
40.587220361
 21
72.6743665408
  0
LINE
  5
255
100
AcDbEntity
  8
0
100
AcDbLine
 62
7
  6
CONTINUOUS
 10
42.836920765
 20
73.674982086
 11
42.0872392302
 21
72.6754601647
  0
LINE
  5
256
100
AcDbEntity
  8
0
100
AcDbLine
 62
7
  6
CONTINUOUS
 10
44.3361090288
 20
73.6728360051
 11
43.5871899721
 21
72.6743668564
  0
LINE
  5
257
100
AcDbEntity
  8
0
100
AcDbLine
 62
7
  6
CONTINUOUS
 10
39.5900044849
 20
27.4522279515
 11
40.3400137327
 21
26.9522310626
  0
LINE
  5
258
100
AcDbEntity
  8
0
100
AcDbLine
 62
7
  6
CONTINUOUS
 10
41.3372908687
 20
12.3793518631
 11
42.087447267
 21
11.3792153784
  0
LINE
  5
259
100
AcDbEntity
  8
0
100
AcDbLine
 62
7
  6
CONTINUOUS
 10
42.8371406161
 20
12.3793496851
 11
43.5870553033
 21
11.3795353903
  0
LINE
  5
25A
100
AcDbEntity
  8
0
100
AcDbLine
 62
7
  6
CONTINUOUS
 10
25.5897375358
 20
9.8771260997
 11
25.5897375358
 21
75.1771260997
  0
LINE
  5
25B
100
AcDbEntity
  8
0
100
AcDbLine
 62
7
  6
CONTINUOUS
 10
45.8379940031
 20
73.6748994583
 11
45.0863850733
 21
72.672852145
  0
LINE
  5
25C
100
AcDbEntity
  8
0
100
AcDbLine
 62
7
  6
CONTINUOUS
 10
47.3357112573
 20
73.6730656081
 11
46.5872275203
 21
72.675155648
  0
LINE
  5
25D
100
AcDbEntity
  8
0
100
AcDbLine
 62
7
  6
CONTINUOUS
 10
21.0897375358
 20
37.5271260997
 11
15.0897375358
 21
37.5271260997
  0
LINE
  5
25E
100
AcDbEntity
  8
0
100
AcDbLine
 62
7
  6
CONTINUOUS
 10
44.3372752491
 20
12.3795957227
 11
45.0871353123
 21
11.3798624071
  0
LINE
  5
25F
100
AcDbEntity
  8
0
100
AcDbLine
 62
7
  6
CONTINUOUS
 10
45.837405558
 20
12.3806863978
 11
46.5874417087
 21
11.380765504
  0
LINE
  5
260
100
AcDbEntity
  8
0
100
AcDbLine
 62
7
  6
CONTINUOUS
 10
47.3371049729
 20
12.379918473
 11
47.5897375358
 21
12.0431023827
  0
LINE
  5
261
100
AcDbEntity
  8
0
100
AcDbLine
 62
7
  6
CONTINUOUS
 10
21.0897375358
 20
47.5271260997
 11
15.0897375358
 21
47.5271260997
  0
LINE
  5
262
100
AcDbEntity
  8
0
100
AcDbLine
 62
7
  6
CONTINUOUS
 10
25.5924197682
 20
11.3795353903
 11
26.3423344555
 21
12.3793496851
  0
LINE
  5
263
100
AcDbEntity
  8
0
100
AcDbLine
 62
7
  6
CONTINUOUS
 10
27.0920278046
 20
11.3792153784
 11
27.8421842028
 21
12.3793518631
  0
LINE
  5
264
100
AcDbEntity
  8
0
100
AcDbLine
 62
7
  6
CONTINUOUS
 10
27.0922358413
 20
72.6754601647
 11
26.3425543066
 21
73.674982086
  0
LINE
  5
265
100
AcDbEntity
  8
0
100
AcDbLine
 62
7
  6
CONTINUOUS
 10
47.5897375358
 20
12.0430900854
 11
47.5897375358
 21
73.3406060551
  0
LINE
  5
266
100
AcDbEntity
  8
0
100
AcDbLine
 62
7
  6
CONTINUOUS
 10
28.5922309692
 20
11.3795430516
 11
29.3423293554
 21
12.3795941558
  0
LINE
  5
267
100
AcDbEntity
  8
0
100
AcDbLine
 62
7
  6
CONTINUOUS
 10
30.0921478587
 20
11.3796515731
 11
30.84231147
 21
12.3797833633
  0
LINE
  5
268
100
AcDbEntity
  8
0
100
AcDbLine
 62
7
  6
CONTINUOUS
 10
38.8394602739
 20
26.9522281456
 11
39.5894691519
 21
27.4522248781
  0
LINE
  5
269
100
AcDbEntity
  8
0
100
AcDbLine
 62
7
  6
CONTINUOUS
 10
21.0897375358
 20
59.1404142208
 11
15.0897375358
 21
59.1404142208
  0
LINE
  5
26A
100
AcDbEntity
  8
0
100
AcDbLine
 62
7
  6
CONTINUOUS
 10
28.5922547105
 20
72.6743665408
 11
27.8417592395
 21
73.6749373804
  0
LINE
  5
26B
100
AcDbEntity
  8
0
100
AcDbLine
 62
7
  6
CONTINUOUS
 10
30.0922247901
 20
72.6744678841
 11
29.342167535
 21
73.674457848
  0
LINE
  5
26C
100
AcDbEntity
  8
0
100
AcDbLine
 62
7
  6
CONTINUOUS
 10
31.5924091722
 20
11.3792226748
 11
32.3421981559
 21
12.3788847852
  0
LINE
  5
26D
100
AcDbEntity
  8
0
100
AcDbLine
 62
7
  6
CONTINUOUS
 10
33.0918613189
 20
11.3794100725
 11
33.8422850995
 21
12.3798853432
  0
LINE
  5
26E
100
AcDbEntity
  8
0
100
AcDbLine
 62
7
  6
CONTINUOUS
 10
31.5923224875
 20
72.6751597598
 11
30.8425609244
 21
73.6747784273
  0
LINE
  5
26F
100
AcDbEntity
  8
0
100
AcDbLine
 62
7
  6
CONTINUOUS
 10
33.092199815
 20
72.6746558173
 11
32.3418622058
 21
73.675025789
  0
LINE
  5
270
100
AcDbEntity
  8
0
100
AcDbLine
 62
7
  6
CONTINUOUS
 10
34.5921837178
 20
72.6748877991
 11
33.8421841797
 21
73.6748147359
  0
LINE
  5
271
100
AcDbEntity
  8
0
100
AcDbLine
 62
7
  6
CONTINUOUS
 10
34.5921577867
 20
11.3798461686
 11
35.3422547106
 21
12.3798856587
  0
LINE
  5
272
100
AcDbEntity
  8
0
100
AcDbLine
 62
7
  6
CONTINUOUS
 10
36.0926160472
 20
11.3793733479
 11
36.8422894257
 21
12.3788814324
  0
LINE
  5
273
100
AcDbEntity
  8
0
100
AcDbLine
 62
7
  6
CONTINUOUS
 10
27.0894604564
 20
11.3773187094
 11
27.0918251872
 21
11.378945241
  0
LINE
  5
274
100
AcDbEntity
  8
0
100
AcDbLine
 62
7
  6
CONTINUOUS
 10
26.3394606398
 20
73.6774952943
 11
26.3418787645
 21
73.6758827621
  0
LINE
  5
275
100
AcDbEntity
  8
0
100
AcDbLine
 62
7
  6
CONTINUOUS
 10
36.092329375
 20
72.6746573838
 11
35.3422361
 21
73.6747016517
  0
LINE
  5
276
100
AcDbEntity
  8
0
100
AcDbLine
 62
7
  6
CONTINUOUS
 10
37.592182264
 20
72.6751569851
 11
36.8422220121
 21
73.6750404671
  0
LINE
  5
277
100
AcDbEntity
  8
0
100
AcDbLine
 62
7
  6
CONTINUOUS
 10
37.5917610699
 20
11.3792524358
 11
38.3422247901
 21
12.3797843076
  0
LINE
  5
278
100
AcDbEntity
  8
0
100
AcDbLine
 62
7
  6
CONTINUOUS
 10
39.0921790039
 20
11.3796480834
 11
39.8421998225
 21
12.3795957227
  0
LINE
  5
279
100
AcDbEntity
  8
0
100
AcDbLine
 62
7
  6
CONTINUOUS
 10
30.0900861347
 20
11.3785952142
 11
30.0925707823
 21
11.3802154235
  0
LINE
  5
27A
100
AcDbEntity
  8
0
100
AcDbLine
 62
7
  6
CONTINUOUS
 10
28.5899147241
 20
11.3781749491
 11
28.5924263042
 21
11.3798034779
  0
LINE
  5
27B
100
AcDbEntity
  8
0
100
AcDbLine
 62
7
  6
CONTINUOUS
 10
21.0897375358
 20
67.2305841646
 11
15.0897375358
 21
67.2305841646
  0
LINE
  5
27C
100
AcDbEntity
  8
0
100
AcDbLine
 62
7
  6
CONTINUOUS
 10
29.3424201289
 20
73.67479465
 11
29.3400146772
 21
73.6763884689
  0
LINE
  5
27D
100
AcDbEntity
  8
0
100
AcDbLine
 62
7
  6
CONTINUOUS
 10
27.8394595392
 20
73.6763901551
 11
27.8418951279
 21
73.6747562119
  0
LINE
  5
27E
100
AcDbEntity
  8
0
100
AcDbLine
 62
7
  6
CONTINUOUS
 10
30.8425208204
 20
73.6747249538
 11
30.8400158591
 21
73.6764928923
  0
LINE
  5
27F
100
AcDbEntity
  8
0
100
AcDbLine
 62
7
  6
CONTINUOUS
 10
39.0923114701
 20
72.6744688284
 11
38.3420315025
 21
73.6747557469
  0
LINE
  5
280
100
AcDbEntity
  8
0
100
AcDbLine
 62
7
  6
CONTINUOUS
 10
40.5922850995
 20
72.6743668564
 11
39.8421508642
 21
73.6744561006
  0
LINE
  5
281
100
AcDbEntity
  8
0
100
AcDbLine
 62
7
  6
CONTINUOUS
 10
40.5924197682
 20
11.3795353903
 11
41.3423344555
 21
12.3793496851
  0
LINE
  5
282
100
AcDbEntity
  8
0
100
AcDbLine
 62
7
  6
CONTINUOUS
 10
42.0920278046
 20
11.3792153784
 11
42.8421842028
 21
12.3793518631
  0
LINE
  5
283
100
AcDbEntity
  8
0
100
AcDbLine
 62
7
  6
CONTINUOUS
 10
43.5922309692
 20
11.3795430516
 11
44.3423293554
 21
12.3795941558
  0
LINE
  5
284
100
AcDbEntity
  8
0
100
AcDbLine
 62
7
  6
CONTINUOUS
 10
33.0924817525
 20
11.3785827817
 11
33.0900149905
 21
11.3768465168
  0
LINE
  5
285
100
AcDbEntity
  8
0
100
AcDbLine
 62
7
  6
CONTINUOUS
 10
36.0924876871
 20
11.3795444995
 11
36.0900159258
 21
11.3778620658
  0
LINE
  5
286
100
AcDbEntity
  8
0
100
AcDbLine
 62
7
  6
CONTINUOUS
 10
34.5924512106
 20
11.3794549241
 11
34.5900155232
 21
11.3778620566
  0
LINE
  5
287
100
AcDbEntity
  8
0
100
AcDbLine
 62
7
  6
CONTINUOUS
 10
31.5923942413
 20
11.3792425835
 11
31.590014864
 21
11.3777590976
  0
LINE
  5
288
100
AcDbEntity
  8
0
100
AcDbLine
 62
7
  6
CONTINUOUS
 10
32.3423942765
 20
73.6757352616
 11
32.3400139157
 21
73.6771932657
  0
LINE
  5
289
100
AcDbEntity
  8
0
100
AcDbLine
 62
7
  6
CONTINUOUS
 10
33.8423801407
 20
73.6750760262
 11
33.8400161271
 21
73.676684307
  0
LINE
  5
28A
100
AcDbEntity
  8
0
100
AcDbLine
 62
7
  6
CONTINUOUS
 10
35.3425266819
 20
73.6750891087
 11
35.3400147976
 21
73.6769181493
  0
LINE
  5
28B
100
AcDbEntity
  8
0
100
AcDbLine
 62
7
  6
CONTINUOUS
 10
42.0922358413
 20
72.6754601647
 11
41.3425543066
 21
73.674982086
  0
LINE
  5
28C
100
AcDbEntity
  8
0
100
AcDbLine
 62
7
  6
CONTINUOUS
 10
43.5922547105
 20
72.6743665409
 11
42.8417592395
 21
73.6749373804
  0
LINE
  5
28D
100
AcDbEntity
  8
0
100
AcDbLine
 62
7
  6
CONTINUOUS
 10
45.0923358622
 20
11.3798226837
 11
45.8430085369
 21
12.3806292157
  0
LINE
  5
28E
100
AcDbEntity
  8
0
100
AcDbLine
 62
7
  6
CONTINUOUS
 10
46.5919022378
 20
11.3807379281
 11
47.3413737682
 21
12.3799152258
  0
LINE
  5
28F
100
AcDbEntity
  8
0
100
AcDbLine
 62
7
  6
CONTINUOUS
 10
40.5929524439
 20
11.3788251385
 11
40.5904861643
 21
11.3769405139
  0
LINE
  5
290
100
AcDbEntity
  8
0
100
AcDbLine
 62
7
  6
CONTINUOUS
 10
39.0925790412
 20
11.3791146856
 11
39.0902195786
 21
11.377487682
  0
LINE
  5
291
100
AcDbEntity
  8
0
100
AcDbLine
 62
7
  6
CONTINUOUS
 10
37.5924199915
 20
11.378373815
 11
37.5900144261
 21
11.3768460761
  0
LINE
  5
292
100
AcDbEntity
  8
0
100
AcDbLine
 62
7
  6
CONTINUOUS
 10
36.8423778729
 20
73.6752482914
 11
36.8400149291
 21
73.6766849075
  0
LINE
  5
293
100
AcDbEntity
  8
0
100
AcDbLine
 62
7
  6
CONTINUOUS
 10
38.3394596598
 20
73.6764922958
 11
38.3419529263
 21
73.6748605064
  0
LINE
  5
294
100
AcDbEntity
  8
0
100
AcDbLine
 62
7
  6
CONTINUOUS
 10
39.8394603944
 20
73.6763884689
 11
39.8419268631
 21
73.6747547424
  0
LINE
  5
295
100
AcDbEntity
  8
0
100
AcDbLine
 62
7
  6
CONTINUOUS
 10
45.0916840382
 20
72.6728450665
 11
44.3415567789
 21
73.6728378891
  0
LINE
  5
296
100
AcDbEntity
  8
0
100
AcDbLine
 62
7
  6
CONTINUOUS
 10
46.5923158866
 20
72.6751999996
 11
45.8424538586
 21
73.6749612017
  0
LINE
  5
297
100
AcDbEntity
  8
0
100
AcDbLine
 62
7
  6
CONTINUOUS
 10
43.5899147241
 20
11.3781749491
 11
43.5924263042
 21
11.3798034779
  0
LINE
  5
298
100
AcDbEntity
  8
0
100
AcDbLine
 62
7
  6
CONTINUOUS
 10
42.0923782731
 20
11.3787480608
 11
42.0900135161
 21
11.3773201747
  0
LINE
  5
299
100
AcDbEntity
  8
0
100
AcDbLine
 62
7
  6
CONTINUOUS
 10
45.0900072488
 20
11.3786543883
 11
45.0926484023
 21
11.3802393669
  0
LINE
  5
29A
100
AcDbEntity
  8
0
100
AcDbLine
 62
7
  6
CONTINUOUS
 10
21.0897375358
 20
74.4079909446
 11
15.0897375358
 21
74.4079909446
  0
LINE
  5
29B
100
AcDbEntity
  8
0
100
AcDbLine
 62
7
  6
CONTINUOUS
 10
41.3424332969
 20
73.6748207345
 11
41.3400155323
 21
73.6763901551
  0
LINE
  5
29C
100
AcDbEntity
  8
0
100
AcDbLine
 62
7
  6
CONTINUOUS
 10
42.8424503613
 20
73.6758589346
 11
42.8400144317
 21
73.6774952943
  0
LINE
  5
29D
100
AcDbEntity
  8
0
100
AcDbLine
 62
7
  6
CONTINUOUS
 10
44.3427151872
 20
73.6743824701
 11
44.3400146772
 21
73.6763884689
  0
LINE
  5
29E
100
AcDbEntity
  8
0
100
AcDbLine
 62
7
  6
CONTINUOUS
 10
47.5897375358
 20
73.3406539319
 11
47.3404099623
 21
73.6730242312
  0
LINE
  5
29F
100
AcDbEntity
  8
0
100
AcDbLine
 62
7
  6
CONTINUOUS
 10
46.5924802022
 20
11.3799673138
 11
46.5903097621
 21
11.378639297
  0
LINE
  5
2A0
100
AcDbEntity
  8
0
100
AcDbLine
 62
7
  6
CONTINUOUS
 10
21.0897375358
 20
77.4981608883
 11
15.0897375358
 21
77.4981608883
  0
LINE
  5
2A1
100
AcDbEntity
  8
0
100
AcDbLine
 62
7
  6
CONTINUOUS
 10
15.0897375358
 20
78.0271260997
 11
22.5897375358
 21
78.0271260997
  0
LINE
  5
2A2
100
AcDbEntity
  8
0
100
AcDbLine
 62
7
  6
CONTINUOUS
 10
45.8426576235
 20
73.6752328981
 11
45.8403276293
 21
73.6765518059
  0
LINE
  5
2A3
100
AcDbEntity
  8
0
100
AcDbLine
 62
7
  6
CONTINUOUS
 10
47.3422427837
 20
73.6754681039
 11
47.3399626354
 21
73.6769572342
  0
ARC
  5
2A4
100
AcDbEntity
  8
0
100
AcDbCircle
 62
7
  6
CONTINUOUS
 10
24.0897375358
 20
9.8771260997
 40
1.5
100
AcDbArc
 50
180.0
 51
360.0
  0
ARC
  5
2A5
100
AcDbEntity
  8
0
100
AcDbCircle
 62
7
  6
CONTINUOUS
 10
24.0897375358
 20
75.1771260997
 40
1.5
100
AcDbArc
 50
0.0
 51
180.0
  0
ARC
  5
2A6
100
AcDbEntity
  8
0
100
AcDbCircle
 62
7
  6
CONTINUOUS
 10
15.0897375358
 20
8.5271260997
 40
1.5
100
AcDbArc
 50
180.0
 51
270.0
  0
ARC
  5
2A7
100
AcDbEntity
  8
0
100
AcDbCircle
 62
7
  6
CONTINUOUS
 10
15.0897375358
 20
76.5271260997
 40
1.5
100
AcDbArc
 50
90.0
 51
180.0
  0
ARC
  5
2A8
100
AcDbEntity
  8
0
100
AcDbCircle
 62
7
  6
CONTINUOUS
 10
14.9614887598
 20
8.9852082885
 40
1.3717514309
100
AcDbArc
 50
180.0314689793
 51
198.6323629562
  0
ARC
  5
2A9
100
AcDbEntity
  8
0
100
AcDbCircle
 62
7
  6
CONTINUOUS
 10
14.960081283
 20
76.069275221
 40
1.3703438467
100
AcDbArc
 50
161.3580008545
 51
179.978170057
  0
SPLINE
  5
2AA
100
AcDbEntity
  8
0
100
AcDbSpline
 62
7
  6
CONTINUOUS
 70
0
 71
3
 72
9
 73
5
 74
0
 42
0.0000001
 43
0.0000001
 44
0.0000000001
 40
0.0
 40
0.0
 40
0.0
 40
0.0
 40
0.2063368259
 40
1.0
 40
1.0
 40
1.0
 40
1.0
 10
25.5897455773
 20
11.3773404496
 30
0.0
 10
25.589943387
 20
11.3773691027
 30
0.0
 10
25.5908828115
 20
11.3776602276
 30
0.0
 10
25.5915825418
 20
11.3784286664
 30
0.0
 10
25.5920415038
 20
11.3790454445
 30
0.0
  0
SPLINE
  5
2AB
100
AcDbEntity
  8
0
100
AcDbSpline
 62
7
  6
CONTINUOUS
 70
0
 71
3
 72
39
 73
35
 74
0
 42
0.0000001
 43
0.0000001
 44
0.0000000001
 40
0.0
 40
0.0
 40
0.0
 40
0.0
 40
0.0002149459
 40
0.000598403
 40
0.0011551239
 40
0.0018865542
 40
0.0027933556
 40
0.0038759108
 40
0.0065692343
 40
0.0099667164
 40
0.0140630083
 40
0.0188513542
 40
0.0243249162
 40
0.030476821
 40
0.0373002625
 40
0.0447884716
 40
0.0529346692
 40
0.0711720421
 40
0.0919381686
 40
0.1151474464
 40
0.1406961462
 40
0.168465828
 40
0.1983402097
 40
0.2302058465
 40
0.2639334354
 40
0.3363493458
 40
0.4143519315
 40
0.4966386413
 40
0.5818031618
 40
0.6684031658
 40
0.7549774453
 40
0.840056988
 40
0.9221952323
 40
1.0
 40
1.0
 40
1.0
 40
1.0
 10
39.8419141064
 20
73.6747714523
 30
0.0
 10
39.8439228
 20
73.6720930355
 30
0.0
 10
39.8466611292
 20
73.6628900686
 30
0.0
 10
39.8503866461
 20
73.6454565911
 30
0.0
 10
39.8540411104
 20
73.6195801848
 30
0.0
 10
39.8578569078
 20
73.5856393924
 30
0.0
 10
39.8616737242
 20
73.5434173848
 30
0.0
 10
39.8672191776
 20
73.4706967729
 30
0.0
 10
39.8738974369
 20
73.3591558716
 30
0.0
 10
39.8815238012
 20
73.2006675762
 30
0.0
 10
39.8891806267
 20
73.0095149368
 30
0.0
 10
39.8968677428
 20
72.786006415
 30
0.0
 10
39.9045720013
 20
72.5304639261
 30
0.0
 10
39.9122925293
 20
72.2432111843
 30
0.0
 10
39.9200247926
 20
71.9245688771
 30
0.0
 10
39.9277659929
 20
71.5748558583
 30
0.0
 10
39.9385042708
 20
71.0473855873
 30
0.0
 10
39.9517608486
 20
70.3131110725
 30
0.0
 10
39.9671703654
 20
69.3442206697
 30
0.0
 10
39.982601103
 20
68.2614381602
 30
0.0
 10
39.9980510222
 20
67.0695601608
 30
0.0
 10
40.0135195364
 20
65.7738602444
 30
0.0
 10
40.0290021625
 20
64.3797628081
 30
0.0
 10
40.0444912532
 20
62.8928610639
 30
0.0
 10
40.065649354
 20
60.743365349
 30
0.0
 10
40.0918337694
 20
57.8752658767
 30
0.0
 10
40.1226140185
 20
54.2508316623
 30
0.0
 10
40.1534137448
 20
50.427821347
 30
0.0
 10
40.184240767
 20
46.4708956214
 30
0.0
 10
40.2150662656
 20
42.4471856767
 30
0.0
 10
40.2459124699
 20
38.4247995076
 30
0.0
 10
40.2767426694
 20
34.4719107192
 30
0.0
 10
40.3073598506
 20
30.6556162421
 30
0.0
 10
40.3292189475
 20
28.1644750412
 30
0.0
 10
40.3399154937
 20
26.9526524113
 30
0.0
  0
SPLINE
  5
2AC
100
AcDbEntity
  8
0
100
AcDbSpline
 62
7
  6
CONTINUOUS
 70
0
 71
3
 72
65
 73
61
 74
0
 42
0.0000001
 43
0.0000001
 44
0.0000000001
 40
0.0
 40
0.0
 40
0.0
 40
0.0
 40
0.000112221
 40
0.0002940168
 40
0.00054789
 40
0.0008746998
 40
0.0017484966
 40
0.0029170135
 40
0.004380892
 40
0.0061404988
 40
0.0081956844
 40
0.0105446186
 40
0.0131850259
 40
0.0161146111
 40
0.0228320708
 40
0.0306784582
 40
0.0396351572
 40
0.0496835151
 40
0.0608048581
 40
0.0729774548
 40
0.0861680147
 40
0.1154588703
 40
0.1483890882
 40
0.1846678278
 40
0.2239523931
 40
0.265850733
 40
0.3099688266
 40
0.3559016816
 40
0.4032040919
 40
0.4514216338
 40
0.5000996659
 40
0.5487793903
 40
0.5969982565
 40
0.6442935809
 40
0.6902113047
 40
0.7343271461
 40
0.7762232485
 40
0.8154844665
 40
0.8517434541
 40
0.8846738169
 40
0.9139505157
 40
0.9271211637
 40
0.9392750332
 40
0.9503877663
 40
0.9604350138
 40
0.9693924403
 40
0.9772357326
 40
0.983940628
 40
0.986859497
 40
0.9894878342
 40
0.9918250179
 40
0.9938704458
 40
0.9956235475
 40
0.9970838106
 40
0.9982508395
 40
0.9991245129
 40
0.9994515336
 40
0.9997056719
 40
0.9998876907
 40
1.0
 40
1.0
 40
1.0
 40
1.0
 10
40.5916851378
 20
72.6735668784
 30
0.0
 10
40.593038683
 20
72.6717623372
 30
0.0
 10
40.5952087846
 20
72.6661355111
 30
0.0
 10
40.5979742539
 20
72.6555258378
 30
0.0
 10
40.6007680054
 20
72.6404207749
 30
0.0
 10
40.6049822463
 20
72.6115003848
 30
0.0
 10
40.609941333
 20
72.5641129063
 30
0.0
 10
40.6156091937
 20
72.4938669601
 30
0.0
 10
40.6213104946
 20
72.4057619738
 30
0.0
 10
40.6270536711
 20
72.2998104646
 30
0.0
 10
40.6328120342
 20
72.1760457249
 30
0.0
 10
40.638585558
 20
72.034560647
 30
0.0
 10
40.6443691148
 20
71.8754865747
 30
0.0
 10
40.6524640165
 20
71.6286282135
 30
0.0
 10
40.6624180137
 20
71.2771312028
 30
0.0
 10
40.6739324784
 20
70.8044830787
 30
0.0
 10
40.6854742276
 20
70.2648636927
 30
0.0
 10
40.6970381328
 20
69.6594015272
 30
0.0
 10
40.7086151941
 20
68.9892861172
 30
0.0
 10
40.7201983821
 20
68.2560007266
 30
0.0
 10
40.7362198181
 20
67.157514456
 30
0.0
 10
40.7559986746
 20
65.6417898423
 30
0.0
 10
40.7790542757
 20
63.6619742591
 30
0.0
 10
40.8021369436
 20
61.4812626519
 30
0.0
 10
40.8252432585
 20
59.1202734493
 30
0.0
 10
40.8483779616
 20
56.601698271
 30
0.0
 10
40.8715295119
 20
53.9494803465
 30
0.0
 10
40.8946836983
 20
51.1886310234
 30
0.0
 10
40.9178469991
 20
48.3453757767
 30
0.0
 10
40.9410167259
 20
45.4469378613
 30
0.0
 10
40.9641884847
 20
42.5208136357
 30
0.0
 10
40.9873593043
 20
39.5946627814
 30
0.0
 10
41.0105270002
 20
36.6963066507
 30
0.0
 10
41.0336895713
 20
33.8534713788
 30
0.0
 10
41.0568504873
 20
31.0931139891
 30
0.0
 10
41.0799986044
 20
28.4412904511
 30
0.0
 10
41.1031253694
 20
25.9232747739
 30
0.0
 10
41.1262392805
 20
23.5631970029
 30
0.0
 10
41.1493297078
 20
21.3833489586
 30
0.0
 10
41.1723725574
 20
19.4042119724
 30
0.0
 10
41.1921454267
 20
17.8891692237
 30
0.0
 10
41.2081772154
 20
16.791744465
 30
0.0
 10
41.2197656428
 20
16.0594090322
 30
0.0
 10
41.2313419024
 20
15.389865525
 30
0.0
 10
41.2429031178
 20
14.7845841093
 30
0.0
 10
41.2544411589
 20
14.2450345696
 30
0.0
 10
41.2659501709
 20
13.7726865461
 30
0.0
 10
41.2759030964
 20
13.42171985
 30
0.0
 10
41.2840042123
 20
13.1755726479
 30
0.0
 10
41.289789144
 20
13.0171933051
 30
0.0
 10
41.2955645451
 20
12.8763838193
 30
0.0
 10
41.3013254787
 20
12.7531829152
 30
0.0
 10
41.3070690661
 20
12.6476316027
 30
0.0
 10
41.3127702697
 20
12.5597604724
 30
0.0
 10
41.318437851
 20
12.4896199371
 30
0.0
 10
41.3233957831
 20
12.4422606785
 30
0.0
 10
41.3276086773
 20
12.4133330497
 30
0.0
 10
41.3304019743
 20
12.3982134411
 30
0.0
 10
41.3331672649
 20
12.3875922212
 30
0.0
 10
41.3353362875
 20
12.3819577028
 30
0.0
 10
41.3366909083
 20
12.3801517512
 30
0.0
  0
SPLINE
  5
2AD
100
AcDbEntity
  8
0
100
AcDbSpline
 62
7
  6
CONTINUOUS
 70
0
 71
3
 72
11
 73
7
 74
0
 42
0.0000001
 43
0.0000001
 44
0.0000000001
 40
0.0
 40
0.0
 40
0.0
 40
0.0
 40
0.2561344489
 40
0.5090185223
 40
0.7569192371
 40
1.0
 40
1.0
 40
1.0
 40
1.0
 10
15.0897375358
 20
7.5560913111
 30
0.0
 10
14.9319776891
 20
7.5560913111
 30
0.0
 10
14.6163854513
 20
7.6036509628
 30
0.0
 10
14.1909298706
 20
7.811040309
 30
0.0
 10
13.8543002816
 20
8.1325469755
 30
0.0
 10
13.7094668592
 20
8.4050680612
 30
0.0
 10
13.6616334307
 20
8.5469411192
 30
0.0
  0
SPLINE
  5
2AE
100
AcDbEntity
  8
0
100
AcDbSpline
 62
7
  6
CONTINUOUS
 70
0
 71
3
 72
65
 73
61
 74
0
 42
0.0000001
 43
0.0000001
 44
0.0000000001
 40
0.0
 40
0.0
 40
0.0
 40
0.0
 40
0.0001102642
 40
0.0002899358
 40
0.000541545
 40
0.0008659854
 40
0.0017348975
 40
0.0028986389
 40
0.0043582355
 40
0.006114371
 40
0.0081661877
 40
0.0105114904
 40
0.0131480082
 40
0.0160734523
 40
0.0227819193
 40
0.0306191654
 40
0.0395685397
 40
0.0496133392
 40
0.0607319247
 40
0.0728960535
 40
0.0860768944
 40
0.1153551741
 40
0.148277929
 40
0.1845459193
 40
0.2238227781
 40
0.2657130117
 40
0.309827841
 40
0.3557578846
 40
0.4030552211
 40
0.4512720174
 40
0.4999528415
 40
0.5486328771
 40
0.5968537167
 40
0.6441543852
 40
0.690078155
 40
0.7342007057
 40
0.7761021842
 40
0.8153734598
 40
0.8516450996
 40
0.8845825061
 40
0.9138714383
 40
0.9270511805
 40
0.9392111864
 40
0.9503290617
 40
0.9603826491
 40
0.9693474424
 40
0.9771969818
 40
0.9839056573
 40
0.9868271794
 40
0.9894589941
 40
0.9918002793
 40
0.9938502288
 40
0.9956080615
 40
0.9970729888
 40
0.9982442651
 40
0.9991214109
 40
0.9994497618
 40
0.9997048965
 40
0.9998875258
 40
1.0
 40
1.0
 40
1.0
 40
1.0
 10
36.0875211025
 20
11.3795342669
 30
0.0
 10
36.0861473183
 20
11.3813664375
 30
0.0
 10
36.0839656774
 20
11.3871145883
 30
0.0
 10
36.0811882604
 20
11.3979586034
 30
0.0
 10
36.0783914488
 20
11.4134397799
 30
0.0
 10
36.0741747764
 20
11.4431395592
 30
0.0
 10
36.0692305939
 20
11.491867527
 30
0.0
 10
36.0635873582
 20
11.5641715616
 30
0.0
 10
36.0579126109
 20
11.6549543803
 30
0.0
 10
36.0521888593
 20
11.7642030337
 30
0.0
 10
36.0464381364
 20
11.8918678656
 30
0.0
 10
36.0406648624
 20
12.037831313
 30
0.0
 10
36.0348766726
 20
12.2019506869
 30
0.0
 10
36.0267715024
 20
12.4566589025
 30
0.0
 10
36.0168060706
 20
12.8193710062
 30
0.0
 10
36.0052907487
 20
13.3071904346
 30
0.0
 10
35.9937522721
 20
13.8643163549
 30
0.0
 10
35.9821935057
 20
14.4896027354
 30
0.0
 10
35.9706191682
 20
15.1816642655
 30
0.0
 10
35.9590306174
 20
15.9388642798
 30
0.0
 10
35.943004504
 20
17.0731869465
 30
0.0
 10
35.9232286941
 20
18.6386212763
 30
0.0
 10
35.9001756891
 20
20.6835325306
 30
0.0
 10
35.8770880899
 20
22.936109485
 30
0.0
 10
35.8539840547
 20
25.3749350614
 30
0.0
 10
35.8308476778
 20
27.976733172
 30
0.0
 10
35.8076970653
 20
30.7167120848
 30
0.0
 10
35.7845414951
 20
33.5689914736
 30
0.0
 10
35.7613777214
 20
36.506464658
 30
0.0
 10
35.7382082586
 20
39.5010687462
 30
0.0
 10
35.7150356133
 20
42.5243900588
 30
0.0
 10
35.6918644253
 20
45.5477953572
 30
0.0
 10
35.6686967752
 20
48.5425362607
 30
0.0
 10
35.6455339675
 20
51.4800323295
 30
0.0
 10
35.6223718591
 20
54.3324109315
 30
0.0
 10
35.5992254064
 20
57.0726534893
 30
0.0
 10
35.5760974267
 20
59.6747296324
 30
0.0
 10
35.5529812545
 20
62.1137484824
 30
0.0
 10
35.5298945664
 20
64.3665895851
 30
0.0
 10
35.5068489602
 20
66.4121022781
 30
0.0
 10
35.4870750787
 20
67.9780393871
 30
0.0
 10
35.4710448744
 20
69.1124748003
 30
0.0
 10
35.4594528885
 20
69.8695515544
 30
0.0
 10
35.447875316
 20
70.5616951694
 30
0.0
 10
35.4363214396
 20
71.1874696995
 30
0.0
 10
35.4247934336
 20
71.7453540408
 30
0.0
 10
35.4132865736
 20
72.2337537204
 30
0.0
 10
35.4033052395
 20
72.5966437022
 30
0.0
 10
35.3951811059
 20
72.8511764306
 30
0.0
 10
35.3893852857
 20
73.0150327977
 30
0.0
 10
35.3836103131
 20
73.1607761062
 30
0.0
 10
35.3778659669
 20
73.2883541203
 30
0.0
 10
35.3721629441
 20
73.3977111312
 30
0.0
 10
35.3665229614
 20
73.4887989316
 30
0.0
 10
35.3609131617
 20
73.5615451483
 30
0.0
 10
35.3559901663
 20
73.6106855445
 30
0.0
 10
35.3517778921
 20
73.6407149429
 30
0.0
 10
35.3489734371
 20
73.656413468
 30
0.0
 10
35.3461792659
 20
73.6674406132
 30
0.0
 10
35.3439789578
 20
73.6732951556
 30
0.0
 10
35.3425915529
 20
73.6751743994
 30
0.0
  0
SPLINE
  5
2AF
100
AcDbEntity
  8
0
100
AcDbSpline
 62
7
  6
CONTINUOUS
 70
0
 71
3
 72
15
 73
11
 74
0
 42
0.0000001
 43
0.0000001
 44
0.0000000001
 40
0.0
 40
0.0
 40
0.0
 40
0.0
 40
0.1583027462
 40
0.3122104189
 40
0.4574543941
 40
0.5909954471
 40
0.7109083202
 40
0.817097853
 40
0.9118726427
 40
1.0
 40
1.0
 40
1.0
 40
1.0
 10
15.0897375358
 20
17.8236680348
 30
0.0
 10
14.9911402471
 20
17.8236680348
 30
0.0
 10
14.7965117682
 20
17.8342056648
 30
0.0
 10
14.5148584032
 20
17.8810379487
 30
0.0
 10
14.2555462443
 20
17.9570940703
 30
0.0
 10
14.0282191505
 20
18.0593144782
 30
0.0
 10
13.8408180381
 20
18.1842799191
 30
0.0
 10
13.6996118019
 20
18.3283120106
 30
0.0
 10
13.6105406229
 20
18.4877280447
 30
0.0
 10
13.5897375358
 20
18.6024421596
 30
0.0
 10
13.5897375358
 20
18.6573314063
 30
0.0
  0
SPLINE
  5
2B0
100
AcDbEntity
  8
0
100
AcDbSpline
 62
7
  6
CONTINUOUS
 70
0
 71
3
 72
65
 73
61
 74
0
 42
0.0000001
 43
0.0000001
 44
0.0000000001
 40
0.0
 40
0.0
 40
0.0
 40
0.0
 40
0.0001125982
 40
0.0002955182
 40
0.000551107
 40
0.0008800555
 40
0.0017587282
 40
0.0029318034
 40
0.0043985897
 40
0.0061581234
 40
0.0082093246
 40
0.0105510561
 40
0.0131821484
 40
0.0161014134
 40
0.0227996467
 40
0.0306360378
 40
0.0395951335
 40
0.049649952
 40
0.0607720964
 40
0.0729331557
 40
0.0861047095
 40
0.1153655466
 40
0.1482980685
 40
0.1845658093
 40
0.223818665
 40
0.2657029797
 40
0.3098190676
 40
0.3557350375
 40
0.4030183155
 40
0.4512281701
 40
0.4999026508
 40
0.5485763993
 40
0.5967850238
 40
0.6440758358
 40
0.6900039283
 40
0.7341245915
 40
0.7760117792
 40
0.8152854029
 40
0.8515723308
 40
0.884505303
 40
0.9137832211
 40
0.9269704644
 40
0.9391467966
 40
0.9502799006
 40
0.9603376187
 40
0.9692949012
 40
0.9771367304
 40
0.9838488802
 40
0.9867769001
 40
0.9894171998
 40
0.9917680321
 40
0.9938276685
 40
0.995594413
 40
0.9970666275
 40
0.9982427913
 40
0.9991218524
 40
0.9994503032
 40
0.9997052497
 40
0.9998876222
 40
1.0
 40
1.0
 40
1.0
 40
1.0
 10
42.0916358784
 20
72.6746601596
 30
0.0
 10
42.0929939657
 20
72.6728494978
 30
0.0
 10
42.0951605296
 20
72.6671863123
 30
0.0
 10
42.0979252241
 20
72.656511421
 30
0.0
 10
42.1007169109
 20
72.6413030855
 30
0.0
 10
42.1049288119
 20
72.6122050389
 30
0.0
 10
42.109884789
 20
72.5645823707
 30
0.0
 10
42.1155512603
 20
72.4940863339
 30
0.0
 10
42.1212514147
 20
72.4058308076
 30
0.0
 10
42.1269940883
 20
72.299900569
 30
0.0
 10
42.1327541442
 20
72.1763603165
 30
0.0
 10
42.1385286961
 20
72.0352852332
 30
0.0
 10
42.1443127949
 20
71.87674819
 30
0.0
 10
42.1524098633
 20
71.630667102
 30
0.0
 10
42.162368817
 20
71.2799591445
 30
0.0
 10
42.1738812002
 20
70.8078419483
 30
0.0
 10
42.1854138585
 20
70.2682356744
 30
0.0
 10
42.1969710627
 20
69.6625684413
 30
0.0
 10
42.2085437269
 20
68.9925270144
 30
0.0
 10
42.2201290219
 20
68.2598265703
 30
0.0
 10
42.2361555426
 20
67.1625383764
 30
0.0
 10
42.2559419327
 20
65.6477261559
 30
0.0
 10
42.2789728906
 20
63.6686533676
 30
0.0
 10
42.3020527975
 20
61.4887152494
 30
0.0
 10
42.3251692604
 20
59.1288246992
 30
0.0
 10
42.3482973821
 20
56.6111644272
 30
0.0
 10
42.3714375597
 20
53.9595609935
 30
0.0
 10
42.3945931635
 20
51.1994270048
 30
0.0
 10
42.4177567819
 20
48.356999827
 30
0.0
 10
42.4409209761
 20
45.45912092
 30
0.0
 10
42.4640881404
 20
42.533290748
 30
0.0
 10
42.4872551572
 20
39.6074853029
 30
0.0
 10
42.5104221673
 20
36.7094944157
 30
0.0
 10
42.5335847934
 20
33.8666968204
 30
0.0
 10
42.5567368731
 20
31.1060756898
 30
0.0
 10
42.5798780743
 20
28.4540788447
 30
0.0
 10
42.6030134942
 20
25.9358514285
 30
0.0
 10
42.6261244671
 20
23.5750998814
 30
0.0
 10
42.6491955216
 20
21.3943494123
 30
0.0
 10
42.6722417973
 20
19.4145386588
 30
0.0
 10
42.6920272152
 20
17.8990586003
 30
0.0
 10
42.7080478979
 20
16.8008044792
 30
0.0
 10
42.7196314094
 20
16.0672612105
 30
0.0
 10
42.7312014067
 20
15.3966340527
 30
0.0
 10
42.7427588743
 20
14.7907246301
 30
0.0
 10
42.7543006607
 20
14.2509873707
 30
0.0
 10
42.765815856
 20
13.7785175487
 30
0.0
 10
42.7757711161
 20
13.4272442481
 30
0.0
 10
42.783865196
 20
13.1805219123
 30
0.0
 10
42.7896489701
 20
13.0214404949
 30
0.0
 10
42.7954230698
 20
12.8798273704
 30
0.0
 10
42.8011824801
 20
12.7557891086
 30
0.0
 10
42.8069240911
 20
12.6494345784
 30
0.0
 10
42.8126226416
 20
12.5608621384
 30
0.0
 10
42.8182858911
 20
12.4901862385
 30
0.0
 10
42.8232427579
 20
12.4425033666
 30
0.0
 10
42.8274580252
 20
12.4134207876
 30
0.0
 10
42.8302508216
 20
12.3982475625
 30
0.0
 10
42.8330159276
 20
12.3876009103
 30
0.0
 10
42.8351851815
 20
12.3819566654
 30
0.0
 10
42.8365406517
 20
12.3801495787
 30
0.0
  0
SPLINE
  5
2B1
100
AcDbEntity
  8
0
100
AcDbSpline
 62
7
  6
CONTINUOUS
 70
0
 71
3
 72
15
 73
11
 74
0
 42
0.0000001
 43
0.0000001
 44
0.0000000001
 40
0.0
 40
0.0
 40
0.0
 40
0.0
 40
0.1227144147
 40
0.2459193665
 40
0.3696873733
 40
0.4942924089
 40
0.6197591588
 40
0.7459791444
 40
0.872873066
 40
1.0
 40
1.0
 40
1.0
 40
1.0
 10
13.5897375358
 20
12.1237386723
 30
0.0
 10
13.5897375358
 20
12.0282491041
 30
0.0
 10
13.608826587
 20
11.8363630984
 30
0.0
 10
13.6933633756
 20
11.5595276673
 30
0.0
 10
13.8312811704
 20
11.3032475557
 30
0.0
 10
14.0176119663
 20
11.0774270269
 30
0.0
 10
14.2458965492
 20
10.891080791
 30
0.0
 10
14.5076292029
 20
10.7517703099
 30
0.0
 10
14.7926128648
 20
10.6657287784
 30
0.0
 10
14.9908143891
 20
10.6462612548
 30
0.0
 10
15.0897375358
 20
10.6462612548
 30
0.0
  0
SPLINE
  5
2B2
100
AcDbEntity
  8
0
100
AcDbSpline
 62
7
  6
CONTINUOUS
 70
0
 71
3
 72
20
 73
16
 74
0
 42
0.0000001
 43
0.0000001
 44
0.0000000001
 40
0.0
 40
0.0
 40
0.0
 40
0.0
 40
0.1959876248
 40
0.3841840673
 40
0.5568524152
 40
0.7075349117
 40
0.772820136
 40
0.830629309
 40
0.8804524848
 40
0.9218745985
 40
0.9546007764
 40
0.9783850709
 40
0.9932069171
 40
0.9974275102
 40
1.0
 40
1.0
 40
1.0
 40
1.0
 10
15.0897375358
 20
37.5271260997
 30
0.0
 10
14.9912864314
 20
37.5271260997
 30
0.0
 10
14.7982961107
 20
37.5260078201
 30
0.0
 10
14.5186068837
 20
37.5210923179
 30
0.0
 10
14.2617513959
 20
37.5132728919
 30
0.0
 10
14.066715228
 20
37.5044525402
 30
0.0
 10
13.9294369688
 20
37.4961242021
 30
0.0
 10
13.8428031923
 20
37.4898204731
 30
0.0
 10
13.7682067812
 20
37.4832548551
 30
0.0
 10
13.7063074281
 20
37.4765283091
 30
0.0
 10
13.6575245086
 20
37.4697589965
 30
0.0
 10
13.6223927675
 20
37.4631339602
 30
0.0
 10
13.6014731788
 20
37.4571697714
 30
0.0
 10
13.5919341163
 20
37.4520827533
 30
0.0
 10
13.5897375358
 20
37.4489504567
 30
0.0
 10
13.5897375358
 20
37.4476582095
 30
0.0
  0
SPLINE
  5
2B3
100
AcDbEntity
  8
0
100
AcDbSpline
 62
7
  6
CONTINUOUS
 70
0
 71
3
 72
65
 73
61
 74
0
 42
0.0000001
 43
0.0000001
 44
0.0000000001
 40
0.0
 40
0.0
 40
0.0
 40
0.0
 40
0.0001122114
 40
0.0002939568
 40
0.0005477147
 40
0.0008743202
 40
0.0017473465
 40
0.002914451
 40
0.0043760848
 40
0.0061324239
 40
0.0081835274
 40
0.0105290858
 40
0.0131671586
 40
0.0160952712
 40
0.022811654
 40
0.0306582576
 40
0.0396150278
 40
0.0496618739
 40
0.0607786833
 40
0.072945019
 40
0.0861324835
 40
0.1154231099
 40
0.1483531332
 40
0.1846244087
 40
0.2239065204
 40
0.2658062856
 40
0.3099232852
 40
0.3558529642
 40
0.4031559384
 40
0.45137535
 40
0.5000541949
 40
0.5487341131
 40
0.5969542502
 40
0.6442534843
 40
0.6901745497
 40
0.7342905907
 40
0.7761891753
 40
0.8154583557
 40
0.851719001
 40
0.8846491357
 40
0.9139325397
 40
0.9271085081
 40
0.939264339
 40
0.9503768899
 40
0.9604232033
 40
0.9693803352
 40
0.9772253634
 40
0.9839354033
 40
0.9868576783
 40
0.9894884136
 40
0.9918270027
 40
0.9938730332
 40
0.9956261248
 40
0.9970859553
 40
0.9982523193
 40
0.9991252861
 40
0.9994519977
 40
0.9997058883
 40
0.9998877451
 40
1.0
 40
1.0
 40
1.0
 40
1.0
 10
43.5916547481
 20
72.673566564
 30
0.0
 10
43.593008172
 20
72.6717621851
 30
0.0
 10
43.5951782403
 20
72.6661367509
 30
0.0
 10
43.5979437378
 20
72.6555307189
 30
0.0
 10
43.6007375613
 20
72.6404333315
 30
0.0
 10
43.6049514658
 20
72.6115351357
 30
0.0
 10
43.6099104255
 20
72.564196117
 30
0.0
 10
43.6155783511
 20
72.4940397364
 30
0.0
 10
43.6212797624
 20
72.4060746079
 30
0.0
 10
43.6270235411
 20
72.3003166989
 30
0.0
 10
43.6327843301
 20
72.1767683901
 30
0.0
 10
43.6385576401
 20
72.0354808598
 30
0.0
 10
43.6443408573
 20
71.8765518846
 30
0.0
 10
43.6524364111
 20
71.6297927527
 30
0.0
 10
43.6623899563
 20
71.2783440444
 30
0.0
 10
43.6739035434
 20
70.8057136589
 30
0.0
 10
43.6854447547
 20
70.2661210327
 30
0.0
 10
43.6970082534
 20
69.6607813832
 30
0.0
 10
43.708586422
 20
68.9909160736
 30
0.0
 10
43.7201724902
 20
68.2579128857
 30
0.0
 10
43.7361941395
 20
67.1596236938
 30
0.0
 10
43.7559714537
 20
65.6439758455
 30
0.0
 10
43.7790246692
 20
63.6643266929
 30
0.0
 10
43.8021130543
 20
61.483827117
 30
0.0
 10
43.8252185259
 20
59.1230180261
 30
0.0
 10
43.8483518347
 20
56.6044955351
 30
0.0
 10
43.8715040502
 20
53.9523453689
 30
0.0
 10
43.8946604824
 20
51.191581567
 30
0.0
 10
43.9178233262
 20
48.3483525712
 30
0.0
 10
43.9409929645
 20
45.4498609486
 30
0.0
 10
43.9641653235
 20
42.5236905696
 30
0.0
 10
43.9873369936
 20
39.5975056021
 30
0.0
 10
44.010505668
 20
36.6990529943
 30
0.0
 10
44.0336678521
 20
33.8560577377
 30
0.0
 10
44.0568283678
 20
31.0955615685
 30
0.0
 10
44.0799784048
 20
28.4436275356
 30
0.0
 10
44.1031073622
 20
25.9254079484
 30
0.0
 10
44.1262172514
 20
23.5650962634
 30
0.0
 10
44.149309537
 20
21.3850681265
 30
0.0
 10
44.1723564043
 20
19.405775544
 30
0.0
 10
44.1921292488
 20
17.8905016781
 30
0.0
 10
44.2081574255
 20
16.7928000574
 30
0.0
 10
44.2197466945
 20
16.060324828
 30
0.0
 10
44.2313237013
 20
15.3907670107
 30
0.0
 10
44.242885941
 20
14.7855163927
 30
0.0
 10
44.2544252367
 20
14.2459588362
 30
0.0
 10
44.2659362134
 20
13.7734803283
 30
0.0
 10
44.2758886605
 20
13.4223081839
 30
0.0
 10
44.2839867161
 20
13.1759416672
 30
0.0
 10
44.2897717083
 20
13.017417941
 30
0.0
 10
44.2955472242
 20
12.8765203801
 30
0.0
 10
44.3013082949
 20
12.753279767
 30
0.0
 10
44.3070520275
 20
12.6477256589
 30
0.0
 10
44.3127533966
 20
12.5598771981
 30
0.0
 10
44.3184211804
 20
12.4897733187
 30
0.0
 10
44.3233795612
 20
12.4424482811
 30
0.0
 10
44.3275927923
 20
12.4135464037
 30
0.0
 10
44.330386387
 20
12.398441729
 30
0.0
 10
44.3331517932
 20
12.3878299382
 30
0.0
 10
44.3353213216
 20
12.3822006701
 30
0.0
 10
44.3366752883
 20
12.3803956049
 30
0.0
  0
SPLINE
  5
2B4
100
AcDbEntity
  8
0
100
AcDbSpline
 62
7
  6
CONTINUOUS
 70
0
 71
3
 72
14
 73
10
 74
0
 42
0.0000001
 43
0.0000001
 44
0.0000000001
 40
0.0
 40
0.0
 40
0.0
 40
0.0
 40
0.0958049711
 40
0.1969869194
 40
0.3070886964
 40
0.4279987588
 40
0.5597451446
 40
0.7008676684
 40
1.0
 40
1.0
 40
1.0
 40
1.0
 10
13.5897375358
 20
26.8760830974
 30
0.0
 10
13.5897375358
 20
26.8137612261
 30
0.0
 10
13.610082484
 20
26.6848963759
 30
0.0
 10
13.6978897859
 20
26.5028402912
 30
0.0
 10
13.8384896407
 20
26.3362115689
 30
0.0
 10
14.0259269482
 20
26.1905321571
 30
0.0
 10
14.2537245604
 20
26.0707787484
 30
0.0
 10
14.6065240286
 20
25.9494780018
 30
0.0
 10
14.8951496513
 20
25.9138379786
 30
0.0
 10
15.0897375358
 20
25.9138379786
 30
0.0
  0
SPLINE
  5
2B5
100
AcDbEntity
  8
0
100
AcDbSpline
 62
7
  6
CONTINUOUS
 70
0
 71
3
 72
65
 73
61
 74
0
 42
0.0000001
 43
0.0000001
 44
0.0000000001
 40
0.0
 40
0.0
 40
0.0
 40
0.0
 40
0.0001123092
 40
0.0002943245
 40
0.0005484556
 40
0.0008754659
 40
0.0017491102
 40
0.0029161004
 40
0.0043763177
 40
0.0061293687
 40
0.0081747432
 40
0.0105118733
 40
0.0131401587
 40
0.01605898
 40
0.0227637997
 40
0.0306070412
 40
0.0395644373
 40
0.0496116695
 40
0.0607243977
 40
0.0728782679
 40
0.0860489172
 40
0.1153256079
 40
0.1482559535
 40
0.1845149243
 40
0.2237761357
 40
0.2656722461
 40
0.3097881067
 40
0.3557058575
 40
0.4030012134
 40
0.4512201152
 40
0.4998998789
 40
0.5485779537
 40
0.596795541
 40
0.6440979984
 40
0.6900309008
 40
0.7341490408
 40
0.7760474254
 40
0.8153320326
 40
0.8516108106
 40
0.8845410625
 40
0.913831947
 40
0.9270225192
 40
0.9391951268
 40
0.9503164789
 40
0.9603648445
 40
0.9693215494
 40
0.9771679411
 40
0.9838854032
 40
0.986814989
 40
0.9894553964
 40
0.9918043303
 40
0.9938595151
 40
0.9956191207
 40
0.9970829975
 40
0.9982515122
 40
0.9991253064
 40
0.9994521148
 40
0.9997059865
 40
0.9998877806
 40
1.0
 40
1.0
 40
1.0
 40
1.0
 10
34.5915837534
 20
72.674087811
 30
0.0
 10
34.5929383484
 20
72.6722818409
 30
0.0
 10
34.5951073836
 20
72.6666474263
 30
0.0
 10
34.5978726793
 20
72.6560264211
 30
0.0
 10
34.6006659868
 20
72.6409072557
 30
0.0
 10
34.6048788826
 20
72.6119805778
 30
0.0
 10
34.6098368251
 20
72.5646229126
 30
0.0
 10
34.6155044125
 20
72.4944846832
 30
0.0
 10
34.6212056222
 20
72.4066162945
 30
0.0
 10
34.6269492142
 20
72.3010680205
 30
0.0
 10
34.6327101524
 20
72.1778703162
 30
0.0
 10
34.6384855577
 20
72.0370640549
 30
0.0
 10
34.6442704935
 20
71.8786878249
 30
0.0
 10
34.6523716292
 20
71.6325441978
 30
0.0
 10
34.6623245634
 20
71.2815810756
 30
0.0
 10
34.6738335734
 20
70.8092363065
 30
0.0
 10
34.6853716156
 20
70.2696888176
 30
0.0
 10
34.6969328339
 20
69.664408544
 30
0.0
 10
34.7085090977
 20
68.9948655654
 30
0.0
 10
34.7200975301
 20
68.2625303431
 30
0.0
 10
34.7361293252
 20
67.1651059346
 30
0.0
 10
34.7559022088
 20
65.6500639818
 30
0.0
 10
34.7789450767
 20
63.6709282483
 30
0.0
 10
34.8020355218
 20
61.4910814693
 30
0.0
 10
34.8251494487
 20
59.1310044958
 30
0.0
 10
34.8482762272
 20
56.6129889255
 30
0.0
 10
34.8714243584
 20
53.9611648477
 30
0.0
 10
34.8945852886
 20
51.2008064641
 30
0.0
 10
34.9177478747
 20
48.3579698872
 30
0.0
 10
34.9409155857
 20
45.4596122144
 30
0.0
 10
34.9640864203
 20
42.5334595998
 30
0.0
 10
34.9872581942
 20
39.607333415
 30
0.0
 10
35.0104279359
 20
36.7088933796
 30
0.0
 10
35.0335912516
 20
33.8656359082
 30
0.0
 10
35.0567454529
 20
31.1047843226
 30
0.0
 10
35.0798970182
 20
28.4525641615
 30
0.0
 10
35.1030317363
 20
25.933986829
 30
0.0
 10
35.126138066
 20
23.5729956026
 30
0.0
 10
35.1492207487
 20
21.3922821479
 30
0.0
 10
35.1722763647
 20
19.4124649375
 30
0.0
 10
35.1920552341
 20
17.8967391246
 30
0.0
 10
35.2080766807
 20
16.7982520342
 30
0.0
 10
35.2196598762
 20
16.0649661435
 30
0.0
 10
35.231236945
 20
15.3948503154
 30
0.0
 10
35.2428008575
 20
14.7893878167
 30
0.0
 10
35.2543426141
 20
14.2497681848
 30
0.0
 10
35.2658570861
 20
13.7771199042
 30
0.0
 10
35.2758110899
 20
13.42562282
 30
0.0
 10
35.2839059973
 20
13.1787644464
 30
0.0
 10
35.2896895577
 20
13.0196904
 30
0.0
 10
35.2954630851
 20
12.8782053721
 30
0.0
 10
35.3012214517
 20
12.7544407065
 30
0.0
 10
35.3069646317
 20
12.6484892951
 30
0.0
 10
35.3126659356
 20
12.5603844297
 30
0.0
 10
35.3183337993
 20
12.4901386282
 30
0.0
 10
35.3232928883
 20
12.4427512833
 30
0.0
 10
35.3275071334
 20
12.4138310139
 30
0.0
 10
35.3303008851
 20
12.3987260462
 30
0.0
 10
35.3330663541
 20
12.3881164783
 30
0.0
 10
35.3352364577
 20
12.3824897164
 30
0.0
 10
35.336590009
 20
12.3806852208
 30
0.0
  0
SPLINE
  5
2B6
100
AcDbEntity
  8
0
100
AcDbSpline
 62
7
  6
CONTINUOUS
 70
0
 71
3
 72
14
 73
10
 74
0
 42
0.0000001
 43
0.0000001
 44
0.0000000001
 40
0.0
 40
0.0
 40
0.0
 40
0.0
 40
0.2991320182
 40
0.4402546136
 40
0.5720011104
 40
0.6929112777
 40
0.803013125
 40
0.9041950652
 40
1.0
 40
1.0
 40
1.0
 40
1.0
 10
15.0897375358
 20
59.1404142208
 30
0.0
 10
14.8951498549
 20
59.1404142208
 30
0.0
 10
14.6065244005
 20
59.1047742301
 30
0.0
 10
14.2537249743
 20
58.983473625
 30
0.0
 10
14.0259271572
 20
58.8637201994
 30
0.0
 10
13.8384896809
 20
58.7180406887
 30
0.0
 10
13.6978897832
 20
58.5514118643
 30
0.0
 10
13.6100824315
 20
58.36935578
 30
0.0
 10
13.5897375358
 20
58.2404909497
 30
0.0
 10
13.5897375358
 20
58.1781691021
 30
0.0
  0
SPLINE
  5
2B7
100
AcDbEntity
  8
0
100
AcDbSpline
 62
7
  6
CONTINUOUS
 70
0
 71
3
 72
20
 73
16
 74
0
 42
0.0000001
 43
0.0000001
 44
0.0000000001
 40
0.0
 40
0.0
 40
0.0
 40
0.0
 40
0.0025724916
 40
0.0067930914
 40
0.0216149542
 40
0.045399251
 40
0.0781254264
 40
0.1195475273
 40
0.1693706648
 40
0.2271797793
 40
0.2924649463
 40
0.4431472936
 40
0.6158155353
 40
0.8040121793
 40
1.0
 40
1.0
 40
1.0
 40
1.0
 10
13.5897375358
 20
47.6065939899
 30
0.0
 10
13.5897375358
 20
47.6053017418
 30
0.0
 10
13.5919341247
 20
47.6021694438
 30
0.0
 10
13.6014731997
 20
47.5970824278
 30
0.0
 10
13.6223928018
 20
47.5911182352
 30
0.0
 10
13.6575245498
 20
47.5844931943
 30
0.0
 10
13.7063074632
 20
47.5777238838
 30
0.0
 10
13.7682067895
 20
47.5709973429
 30
0.0
 10
13.8428031458
 20
47.5644317317
 30
0.0
 10
13.9294368451
 20
47.5581280105
 30
0.0
 10
14.0667149712
 20
47.5497996849
 30
0.0
 10
14.2617509811
 20
47.5409793268
 30
0.0
 10
14.5186064406
 20
47.5331598815
 30
0.0
 10
14.7982958134
 20
47.5282443832
 30
0.0
 10
14.9912863332
 20
47.5271260997
 30
0.0
 10
15.0897375358
 20
47.5271260997
 30
0.0
  0
SPLINE
  5
2B8
100
AcDbEntity
  8
0
100
AcDbSpline
 62
7
  6
CONTINUOUS
 70
0
 71
3
 72
65
 73
61
 74
0
 42
0.0000001
 43
0.0000001
 44
0.0000000001
 40
0.0
 40
0.0
 40
0.0
 40
0.0
 40
0.0001123051
 40
0.0002944157
 40
0.0005488848
 40
0.0008766191
 40
0.0017534406
 40
0.0029268645
 40
0.004397297
 40
0.0061632869
 40
0.0082230135
 40
0.0105745967
 40
0.0132161244
 40
0.016145665
 40
0.0228609974
 40
0.0307049685
 40
0.0396618775
 40
0.0497159847
 40
0.0608476504
 40
0.0730255073
 40
0.0862159765
 40
0.1155004024
 40
0.1484321977
 40
0.18472064
 40
0.2240009665
 40
0.2658928117
 40
0.3100137378
 40
0.3559460022
 40
0.4032422187
 40
0.4514540768
 40
0.5001298389
 40
0.5488068655
 40
0.5970203539
 40
0.6443067411
 40
0.6902220246
 40
0.7343378031
 40
0.7762261266
 40
0.8154778732
 40
0.8517404544
 40
0.8846718632
 40
0.9139347643
 40
0.9271031909
 40
0.9392597186
 40
0.9503772617
 40
0.9604287433
 40
0.9693871007
 40
0.9772253328
 40
0.9839221648
 40
0.9868394675
 40
0.9894680072
 40
0.9918067839
 40
0.9938548163
 40
0.9956111555
 40
0.9970749101
 40
0.9982453051
 40
0.9991218386
 40
0.99944998
 40
0.9997049687
 40
0.9998875196
 40
1.0
 40
1.0
 40
1.0
 40
1.0
 10
36.0917294145
 20
72.6738573966
 30
0.0
 10
36.0930839818
 20
72.6720514745
 30
0.0
 10
36.0952536759
 20
72.6664151899
 30
0.0
 10
36.0980189476
 20
72.6557851099
 30
0.0
 10
36.1008121871
 20
72.6406420086
 30
0.0
 10
36.1050270945
 20
72.6116291623
 30
0.0
 10
36.1099861527
 20
72.5640619738
 30
0.0
 10
36.1156523679
 20
72.4935229587
 30
0.0
 10
36.1213496653
 20
72.4050571831
 30
0.0
 10
36.1270909553
 20
72.2987524593
 30
0.0
 10
36.1328501029
 20
72.174713114
 30
0.0
 10
36.1386241933
 20
72.0330591348
 30
0.0
 10
36.144408038
 20
71.8739081907
 30
0.0
 10
36.1525021892
 20
71.6270679102
 30
0.0
 10
36.1624570385
 20
71.2756588585
 30
0.0
 10
36.1739723125
 20
70.8030920617
 30
0.0
 10
36.185514474
 20
70.2633947959
 30
0.0
 10
36.1970764933
 20
69.6575977786
 30
0.0
 10
36.2086467788
 20
68.9870451259
 30
0.0
 10
36.2202302072
 20
68.2534392549
 30
0.0
 10
36.2362508942
 20
67.1549647726
 30
0.0
 10
36.2560340071
 20
65.6393209079
 30
0.0
 10
36.2790868102
 20
63.6593833852
 30
0.0
 10
36.3021592345
 20
61.4785032558
 30
0.0
 10
36.3252691358
 20
59.1175057244
 30
0.0
 10
36.3484052599
 20
56.5990583543
 30
0.0
 10
36.371550593
 20
53.9468931883
 30
0.0
 10
36.3947028593
 20
51.1860892763
 30
0.0
 10
36.417866001
 20
48.343049633
 30
0.0
 10
36.4410346655
 20
45.444860394
 30
0.0
 10
36.4642034549
 20
42.5189142108
 30
0.0
 10
36.4873720914
 20
39.5929352553
 30
0.0
 10
36.5105372947
 20
36.694885385
 30
0.0
 10
36.5337011913
 20
33.8523519138
 30
0.0
 10
36.55685919
 20
31.0921904668
 30
0.0
 10
36.5800023376
 20
28.4405409075
 30
0.0
 10
36.6031284984
 20
25.9228422326
 30
0.0
 10
36.6262464367
 20
23.5630099545
 30
0.0
 10
36.6493303508
 20
21.3832321185
 30
0.0
 10
36.6723636664
 20
19.4042547287
 30
0.0
 10
36.6921457279
 20
17.8894944347
 30
0.0
 10
36.7081756732
 20
16.7923247304
 30
0.0
 10
36.7197621046
 20
16.0598747624
 30
0.0
 10
36.7313361939
 20
15.3900877004
 30
0.0
 10
36.742894826
 20
14.7845982278
 30
0.0
 10
36.7544294331
 20
14.2450398581
 30
0.0
 10
36.7659372094
 20
13.7729311235
 30
0.0
 10
36.7758972479
 20
13.4222557109
 30
0.0
 10
36.78399615
 20
13.176295006
 30
0.0
 10
36.7897806018
 20
13.0179090856
 30
0.0
 10
36.7955555103
 20
12.8770093292
 30
0.0
 10
36.8013159352
 20
12.7536572721
 30
0.0
 10
36.8070589896
 20
12.6479167494
 30
0.0
 10
36.8127595824
 20
12.5598411418
 30
0.0
 10
36.8184265036
 20
12.4895037963
 30
0.0
 10
36.8233832294
 20
12.4419952499
 30
0.0
 10
36.8275954573
 20
12.4129692749
 30
0.0
 10
36.8303877969
 20
12.3977977278
 30
0.0
 10
36.8331527265
 20
12.3871449152
 30
0.0
 10
36.8353202662
 20
12.3814934225
 30
0.0
 10
36.8366769548
 20
12.3796846862
 30
0.0
  0
SPLINE
  5
2B9
100
AcDbEntity
  8
0
100
AcDbSpline
 62
7
  6
CONTINUOUS
 70
0
 71
3
 72
65
 73
61
 74
0
 42
0.0000001
 43
0.0000001
 44
0.0000000001
 40
0.0
 40
0.0
 40
0.0
 40
0.0
 40
0.000109392
 40
0.0002884225
 40
0.0005395494
 40
0.0008636119
 40
0.0017319033
 40
0.0028949359
 40
0.0043534317
 40
0.0061077957
 40
0.0081572129
 40
0.0104997989
 40
0.0131336007
 40
0.0160566464
 40
0.0227625026
 40
0.0306001428
 40
0.0395502796
 40
0.0495933553
 40
0.060707223
 40
0.0728662678
 40
0.0860444282
 40
0.1153240925
 40
0.1482449936
 40
0.1845087933
 40
0.223784644
 40
0.2656762864
 40
0.3097912554
 40
0.3557196717
 40
0.4030186682
 40
0.451237852
 40
0.4999198247
 40
0.5486017807
 40
0.5968247972
 40
0.6441283361
 40
0.6900567886
 40
0.7341808706
 40
0.776084393
 40
0.8153637462
 40
0.8516375456
 40
0.8845754193
 40
0.9138707014
 40
0.9270531814
 40
0.939214793
 40
0.9503331268
 40
0.9603860309
 40
0.9693499032
 40
0.9771999937
 40
0.98391221
 40
0.9868362721
 40
0.9894705078
 40
0.9918136099
 40
0.99386429
 40
0.9956213056
 40
0.9970839183
 40
0.9982520267
 40
0.999125832
 40
0.9994526626
 40
0.9997064924
 40
0.9998881222
 40
1.0
 40
1.0
 40
1.0
 40
1.0
 10
27.8418884096
 20
73.6747661515
 30
0.0
 10
27.8432521595
 20
73.6729491309
 30
0.0
 10
27.8454105321
 20
73.6672248504
 30
0.0
 10
27.8481717136
 20
73.6564212496
 30
0.0
 10
27.8509592336
 20
73.6409696466
 30
0.0
 10
27.8551765952
 20
73.611301878
 30
0.0
 10
27.8601384545
 20
73.5626117733
 30
0.0
 10
27.8658139644
 20
73.4903618068
 30
0.0
 10
27.8715231246
 20
73.3996566184
 30
0.0
 10
27.8772710173
 20
73.2905200791
 30
0.0
 10
27.8830324556
 20
73.1630003442
 30
0.0
 10
27.8888071306
 20
73.0172013937
 30
0.0
 10
27.8945901108
 20
72.8532464378
 30
0.0
 10
27.9026843409
 20
72.5987012924
 30
0.0
 10
27.9126364304
 20
72.2360888426
 30
0.0
 10
27.9241492525
 20
71.7483051331
 30
0.0
 10
27.935691287
 20
71.1911974133
 30
0.0
 10
27.947254682
 20
70.5660362022
 30
0.0
 10
27.9588309341
 20
69.8742219834
 30
0.0
 10
27.9704196807
 20
69.1172898573
 30
0.0
 10
27.9864461171
 20
67.9831126202
 30
0.0
 10
28.0062196718
 20
66.4177614998
 30
0.0
 10
28.0292742116
 20
64.3729703247
 30
0.0
 10
28.052363623
 20
62.1205655057
 30
0.0
 10
28.0754691882
 20
59.681846417
 30
0.0
 10
28.0986045932
 20
57.0800666907
 30
0.0
 10
28.1217552887
 20
54.3401206052
 30
0.0
 10
28.1449138361
 20
51.487870128
 30
0.0
 10
28.1680775544
 20
48.5503801172
 30
0.0
 10
28.1912468914
 20
45.555702201
 30
0.0
 10
28.2144203175
 20
42.532301987
 30
0.0
 10
28.2375928901
 20
39.5088221644
 30
0.0
 10
28.2607611566
 20
36.5139706441
 30
0.0
 10
28.2839241363
 20
33.5763059343
 30
0.0
 10
28.3070864175
 20
30.7237711298
 30
0.0
 10
28.3302346326
 20
27.9833882735
 30
0.0
 10
28.3533653797
 20
25.3810997598
 30
0.0
 10
28.3764781507
 20
22.9418535762
 30
0.0
 10
28.3995667166
 20
20.6888158124
 30
0.0
 10
28.4226174258
 20
18.6431400215
 30
0.0
 10
28.4423906823
 20
17.0770222827
 30
0.0
 10
28.4584177263
 20
15.942377637
 30
0.0
 10
28.4700069609
 20
15.1852097202
 30
0.0
 10
28.4815849062
 20
14.493045304
 30
0.0
 10
28.4931498776
 20
13.8673018996
 30
0.0
 10
28.5046916169
 20
13.309446071
 30
0.0
 10
28.5162003674
 20
12.8209861649
 30
0.0
 10
28.5261469524
 20
12.4579616378
 30
0.0
 10
28.5342376958
 20
12.2032540884
 30
0.0
 10
28.5400186085
 20
12.0392581947
 30
0.0
 10
28.5457942959
 20
11.8934132805
 30
0.0
 10
28.5515617846
 20
11.7658017162
 30
0.0
 10
28.5573207403
 20
11.6564987005
 30
0.0
 10
28.5630491887
 20
11.5655483072
 30
0.0
 10
28.5687608855
 20
11.4929945206
 30
0.0
 10
28.5737745708
 20
11.4440309828
 30
0.0
 10
28.5780532125
 20
11.4141405904
 30
0.0
 10
28.5808955336
 20
11.3985296429
 30
0.0
 10
28.5837178418
 20
11.3875718971
 30
0.0
 10
28.5859362326
 20
11.3817592098
 30
0.0
 10
28.5873277753
 20
11.3798985031
 30
0.0
  0
SPLINE
  5
2BA
100
AcDbEntity
  8
0
100
AcDbSpline
 62
7
  6
CONTINUOUS
 70
0
 71
3
 72
30
 73
26
 74
0
 42
0.0000001
 43
0.0000001
 44
0.0000000001
 40
0.0
 40
0.0
 40
0.0
 40
0.0
 40
0.215426077
 40
0.3156841071
 40
0.4104081803
 40
0.4992516691
 40
0.5818234101
 40
0.6577349269
 40
0.7266723921
 40
0.7883552177
 40
0.8425573791
 40
0.8890663082
 40
0.9093630876
 40
0.9276478607
 40
0.9438924982
 40
0.9580858787
 40
0.9702256364
 40
0.9803096461
 40
0.9883353839
 40
0.9915738315
 40
0.9942940347
 40
0.9964949548
 40
0.9981764173
 40
0.9993406657
 40
1.0
 40
1.0
 40
1.0
 40
1.0
 10
40.3399154937
 20
26.9526524113
 30
0.0
 10
40.3501074825
 20
25.8340841856
 30
0.0
 10
40.3648101578
 20
24.1949386093
 30
0.0
 10
40.3858278641
 20
22.0639695112
 30
0.0
 10
40.4013013562
 20
20.5902668258
 30
0.0
 10
40.4167079364
 20
19.2084060349
 30
0.0
 10
40.4320755318
 20
17.924236732
 30
0.0
 10
40.4474458649
 20
16.7434388135
 30
0.0
 10
40.4628064276
 20
15.6711179072
 30
0.0
 10
40.4781470694
 20
14.7115366659
 30
0.0
 10
40.4934430818
 20
13.8684332088
 30
0.0
 10
40.5066228388
 20
13.2402282542
 30
0.0
 10
40.5173654683
 20
12.7985202885
 30
0.0
 10
40.5250611105
 20
12.513935161
 30
0.0
 10
40.5327808725
 20
12.2610557931
 30
0.0
 10
40.5404950518
 20
12.0401018408
 30
0.0
 10
40.5481413773
 20
11.851155779
 30
0.0
 10
40.5556889822
 20
11.6942650569
 30
0.0
 10
40.5621704874
 20
11.5835941308
 30
0.0
 10
40.5675046491
 20
11.5111798446
 30
0.0
 10
40.5711839138
 20
11.4689559554
 30
0.0
 10
40.5748771709
 20
11.4349026931
 30
0.0
 10
40.578446507
 20
11.4088494639
 30
0.0
 10
40.5821229816
 20
11.3911842082
 30
0.0
 10
40.5848714956
 20
11.3818384499
 30
0.0
 10
40.5868904737
 20
11.3790734857
 30
0.0
  0
SPLINE
  5
2BB
100
AcDbEntity
  8
0
100
AcDbSpline
 62
7
  6
CONTINUOUS
 70
0
 71
3
 72
65
 73
61
 74
0
 42
0.0000001
 43
0.0000001
 44
0.0000000001
 40
0.0
 40
0.0
 40
0.0
 40
0.0
 40
0.0001123863
 40
0.0002946389
 40
0.0005491458
 40
0.000876646
 40
0.0017515151
 40
0.0029198954
 40
0.0043814753
 40
0.006135669
 40
0.0081817746
 40
0.010519032
 40
0.013146649
 40
0.0160638144
 40
0.0227633955
 40
0.0306043928
 40
0.0395622218
 40
0.0496111962
 40
0.0607256074
 40
0.072879733
 40
0.0860478416
 40
0.1153168816
 40
0.1482476431
 40
0.1845073123
 40
0.2237621528
 40
0.2656547449
 40
0.3097704912
 40
0.3556863284
 40
0.4029770309
 40
0.4511936205
 40
0.4998724053
 40
0.5485494877
 40
0.5967644053
 40
0.6440645378
 40
0.6899983557
 40
0.7341180301
 40
0.7760136664
 40
0.8152976436
 40
0.8515828063
 40
0.8845135385
 40
0.9138022994
 40
0.9269938665
 40
0.9391704577
 40
0.9502975115
 40
0.9603482638
 40
0.9693049879
 40
0.9771504828
 40
0.9838675838
 40
0.9867976433
 40
0.9894392024
 40
0.9917901469
 40
0.993848382
 40
0.995611846
 40
0.9970788611
 40
0.9982494821
 40
0.9991245409
 40
0.9994517252
 40
0.9997058338
 40
0.9998877495
 40
1.0
 40
1.0
 40
1.0
 40
1.0
 10
37.5915822996
 20
72.6743569899
 30
0.0
 10
37.5929378243
 20
72.672549764
 30
0.0
 10
37.595106183
 20
72.6669077506
 30
0.0
 10
37.5978713156
 20
72.6562727071
 30
0.0
 10
37.6006641949
 20
72.6411306421
 30
0.0
 10
37.6048767526
 20
72.6121613836
 30
0.0
 10
37.6098341328
 20
72.5647405838
 30
0.0
 10
37.6155014262
 20
72.4945217284
 30
0.0
 10
37.6212023709
 20
72.406574321
 30
0.0
 10
37.6269457315
 20
72.3009602497
 30
0.0
 10
37.6327064494
 20
72.1777215235
 30
0.0
 10
37.6384816469
 20
72.0369105835
 30
0.0
 10
37.6442663569
 20
71.8785775788
 30
0.0
 10
37.652367094
 20
71.6325845558
 30
0.0
 10
37.6623244101
 20
71.2818032027
 30
0.0
 10
37.673830977
 20
70.8095972564
 30
0.0
 10
37.6853677519
 20
70.2700478667
 30
0.0
 10
37.6969276646
 20
69.664686338
 30
0.0
 10
37.708502979
 20
68.9950652985
 30
0.0
 10
37.7200904318
 20
68.2627377382
 30
0.0
 10
37.7361225215
 20
67.1655064413
 30
0.0
 10
37.7558992321
 20
65.6506518844
 30
0.0
 10
37.7789370547
 20
63.6716355141
 30
0.0
 10
37.8020245085
 20
61.4918811889
 30
0.0
 10
37.8251415203
 20
59.1319747225
 30
0.0
 10
37.8482671366
 20
56.6141449966
 30
0.0
 10
37.8714130014
 20
53.9624163451
 30
0.0
 10
37.894572909
 20
51.2021755608
 30
0.0
 10
37.9177362779
 20
48.3595002798
 30
0.0
 10
37.9409027191
 20
45.4612847626
 30
0.0
 10
37.9640725433
 20
42.5352005447
 30
0.0
 10
37.9872430247
 20
39.6091499425
 30
0.0
 10
38.010412513
 20
36.7108127209
 30
0.0
 10
38.0335759043
 20
33.8676200474
 30
0.0
 10
38.0567287414
 20
31.1067492367
 30
0.0
 10
38.0798778246
 20
28.4545190067
 30
0.0
 10
38.1030135487
 20
25.9359635111
 30
0.0
 10
38.1261216751
 20
23.5748975835
 30
0.0
 10
38.149198362
 20
21.3940455357
 30
0.0
 10
38.1722542013
 20
19.4141210326
 30
0.0
 10
38.192034986
 20
17.8983991098
 30
0.0
 10
38.208056062
 20
16.7998479744
 30
0.0
 10
38.2196388427
 20
16.0663429327
 30
0.0
 10
38.2312122495
 20
15.3959802889
 30
0.0
 10
38.2427762663
 20
14.7903511245
 30
0.0
 10
38.2543182646
 20
14.2506978887
 30
0.0
 10
38.2658333041
 20
13.7780716665
 30
0.0
 10
38.2757877367
 20
13.4265882384
 30
0.0
 10
38.2838821586
 20
13.1797029286
 30
0.0
 10
38.2896659486
 20
13.0205547944
 30
0.0
 10
38.2954397943
 20
12.8789439419
 30
0.0
 10
38.3011986297
 20
12.7549990776
 30
0.0
 10
38.3069390954
 20
12.6488446397
 30
0.0
 10
38.3126393638
 20
12.5605557948
 30
0.0
 10
38.3183071053
 20
12.4901783138
 30
0.0
 10
38.3232662045
 20
12.4427149
 30
0.0
 10
38.3274807826
 20
12.4137564153
 30
0.0
 10
38.3302743372
 20
12.3986362121
 30
0.0
 10
38.3330397286
 20
12.3880186306
 30
0.0
 10
38.3352097062
 20
12.3823882538
 30
0.0
 10
38.3365636377
 20
12.3805832446
 30
0.0
  0
SPLINE
  5
2BC
100
AcDbEntity
  8
0
100
AcDbSpline
 62
7
  6
CONTINUOUS
 70
0
 71
3
 72
67
 73
63
 74
0
 42
0.0000001
 43
0.0000001
 44
0.0000000001
 40
0.0
 40
0.0
 40
0.0
 40
0.0
 40
0.0001073348
 40
0.0002850669
 40
0.0005355124
 40
0.0008594197
 40
0.0017287214
 40
0.0028941679
 40
0.0043560989
 40
0.0061145651
 40
0.0081685842
 40
0.0105162859
 40
0.0131557348
 40
0.0160849742
 40
0.022804884
 40
0.0306574595
 40
0.0396199757
 40
0.0496693604
 40
0.0607837596
 40
0.0729428859
 40
0.0861261522
 40
0.1154332536
 40
0.1483886301
 40
0.1846668151
 40
0.2239387747
 40
0.2658558782
 40
0.3099999706
 40
0.3559376609
 40
0.4032442101
 40
0.4514744435
 40
0.5001683301
 40
0.5488588226
 40
0.5970871134
 40
0.6443900885
 40
0.6903107725
 40
0.7344311642
 40
0.7763327819
 40
0.8156007094
 40
0.8518512531
 40
0.8847649195
 40
0.899879118
 40
0.9140450187
 40
0.9272223118
 40
0.9393776065
 40
0.9504836075
 40
0.9605137234
 40
0.9694483317
 40
0.977273016
 40
0.983973142
 40
0.9868957751
 40
0.9895298793
 40
0.9918727785
 40
0.9939218185
 40
0.9956744339
 40
0.9971295742
 40
0.9982878965
 40
0.9987560548
 40
0.9991504229
 40
0.999471249
 40
0.9997189469
 40
0.9998943691
 40
1.0
 40
1.0
 40
1.0
 40
1.0
 10
46.5879085066
 20
11.3801419198
 30
0.0
 10
46.5865702549
 20
11.3819246623
 30
0.0
 10
46.5844721181
 20
11.387599537
 30
0.0
 10
46.5817516604
 20
11.3983226902
 30
0.0
 10
46.578987657
 20
11.4137351281
 30
0.0
 10
46.5747664986
 20
11.4434046867
 30
0.0
 10
46.5697571762
 20
11.4921586324
 30
0.0
 10
46.5639966866
 20
11.564544588
 30
0.0
 10
46.5581974514
 20
11.6554514608
 30
0.0
 10
46.5523874823
 20
11.7648373624
 30
0.0
 10
46.5465991256
 20
11.8926433631
 30
0.0
 10
46.5408213513
 20
12.0387616743
 30
0.0
 10
46.5350522363
 20
12.2030696308
 30
0.0
 10
46.526990027
 20
12.4581540354
 30
0.0
 10
46.5170738154
 20
12.8214986419
 30
0.0
 10
46.5055621451
 20
13.3101420856
 30
0.0
 10
46.4940074378
 20
13.8679484121
 30
0.0
 10
46.4824310125
 20
14.4935090828
 30
0.0
 10
46.4708505009
 20
15.1854675368
 30
0.0
 10
46.4592613109
 20
15.9425190154
 30
0.0
 10
46.4432320879
 20
17.0773746909
 30
0.0
 10
46.4234538473
 20
18.6441189031
 30
0.0
 10
46.4004076347
 20
20.6904963863
 30
0.0
 10
46.3773168112
 20
22.9438368747
 30
0.0
 10
46.354188293
 20
25.3833043528
 30
0.0
 10
46.3310563548
 20
27.9861389346
 30
0.0
 10
46.3079089972
 20
30.7274133914
 30
0.0
 10
46.2847463935
 20
33.580620325
 30
0.0
 10
46.2615739218
 20
36.5186914494
 30
0.0
 10
46.2383980352
 20
39.5140053705
 30
0.0
 10
46.2152239866
 20
42.5380620886
 30
0.0
 10
46.1920504615
 20
45.5620784649
 30
0.0
 10
46.1688773714
 20
48.5572073411
 30
0.0
 10
46.1457071997
 20
51.4948107104
 30
0.0
 10
46.1225398163
 20
54.3470979405
 30
0.0
 10
46.0993906068
 20
57.0872053221
 30
0.0
 10
46.0762593235
 20
59.6891422969
 30
0.0
 10
46.0531429891
 20
62.1276304558
 30
0.0
 10
46.0300449713
 20
64.379446704
 30
0.0
 10
46.0103122198
 20
66.1296422317
 30
0.0
 10
45.9943810633
 20
67.4211932916
 30
0.0
 10
45.9827815812
 20
68.3028784249
 30
0.0
 10
45.971188753
 20
69.123107031
 30
0.0
 10
45.9596016717
 20
69.879780453
 30
0.0
 10
45.9480239048
 20
70.5710846999
 30
0.0
 10
45.936448129
 20
71.195491009
 30
0.0
 10
45.9248906675
 20
71.7517379328
 30
0.0
 10
45.9133727011
 20
72.238811089
 30
0.0
 10
45.903451901
 20
72.6010278027
 30
0.0
 10
45.8953882011
 20
72.8554527782
 30
0.0
 10
45.8896178458
 20
73.0194124702
 30
0.0
 10
45.8838422807
 20
73.1652166794
 30
0.0
 10
45.8780582365
 20
73.29269727
 30
0.0
 10
45.8722636012
 20
73.4017193052
 30
0.0
 10
45.8664660313
 20
73.4922100659
 30
0.0
 10
45.8614025732
 20
73.5560159237
 30
0.0
 10
45.8572298117
 20
73.5977764121
 30
0.0
 10
45.8543551635
 20
73.6221907691
 30
0.0
 10
45.8515095126
 20
73.6419734002
 30
0.0
 10
45.8487470186
 20
73.6572165018
 30
0.0
 10
45.8460255571
 20
73.6677911566
 30
0.0
 10
45.8439199583
 20
73.6733807554
 30
0.0
 10
45.8425764571
 20
73.6751149912
 30
0.0
  0
SPLINE
  5
2BD
100
AcDbEntity
  8
0
100
AcDbSpline
 62
7
  6
CONTINUOUS
 70
0
 71
3
 72
65
 73
61
 74
0
 42
0.0000001
 43
0.0000001
 44
0.0000000001
 40
0.0
 40
0.0
 40
0.0
 40
0.0
 40
0.0001122114
 40
0.0002939568
 40
0.0005477147
 40
0.0008743202
 40
0.0017473465
 40
0.002914451
 40
0.0043760848
 40
0.0061324239
 40
0.0081835274
 40
0.0105290858
 40
0.0131671586
 40
0.0160952712
 40
0.022811654
 40
0.0306582576
 40
0.0396150278
 40
0.0496618739
 40
0.0607786833
 40
0.072945019
 40
0.0861324835
 40
0.1154231099
 40
0.1483531332
 40
0.1846244087
 40
0.2239065204
 40
0.2658062856
 40
0.3099232852
 40
0.3558529642
 40
0.4031559384
 40
0.45137535
 40
0.5000541949
 40
0.5487341131
 40
0.5969542502
 40
0.6442534844
 40
0.6901745497
 40
0.7342905907
 40
0.7761891753
 40
0.8154583557
 40
0.851719001
 40
0.8846491357
 40
0.9139325397
 40
0.9271085081
 40
0.939264339
 40
0.9503768899
 40
0.9604232033
 40
0.9693803352
 40
0.9772253634
 40
0.9839354033
 40
0.9868576783
 40
0.9894884136
 40
0.9918270027
 40
0.9938730332
 40
0.9956261248
 40
0.9970859553
 40
0.9982523193
 40
0.9991252861
 40
0.9994519977
 40
0.9997058883
 40
0.9998877451
 40
1.0
 40
1.0
 40
1.0
 40
1.0
 10
28.5916547481
 20
72.673566564
 30
0.0
 10
28.593008172
 20
72.6717621851
 30
0.0
 10
28.5951782403
 20
72.6661367509
 30
0.0
 10
28.5979437378
 20
72.6555307189
 30
0.0
 10
28.6007375613
 20
72.6404333315
 30
0.0
 10
28.6049514658
 20
72.6115351357
 30
0.0
 10
28.6099104255
 20
72.564196117
 30
0.0
 10
28.6155783511
 20
72.4940397364
 30
0.0
 10
28.6212797624
 20
72.4060746079
 30
0.0
 10
28.6270235411
 20
72.3003166989
 30
0.0
 10
28.6327843301
 20
72.1767683901
 30
0.0
 10
28.6385576401
 20
72.0354808598
 30
0.0
 10
28.6443408573
 20
71.8765518846
 30
0.0
 10
28.6524364111
 20
71.6297927527
 30
0.0
 10
28.6623899563
 20
71.2783440443
 30
0.0
 10
28.6739035434
 20
70.8057136589
 30
0.0
 10
28.6854447547
 20
70.2661210327
 30
0.0
 10
28.6970082534
 20
69.6607813832
 30
0.0
 10
28.708586422
 20
68.9909160736
 30
0.0
 10
28.7201724902
 20
68.2579128857
 30
0.0
 10
28.7361941395
 20
67.1596236938
 30
0.0
 10
28.7559714537
 20
65.6439758455
 30
0.0
 10
28.7790246692
 20
63.6643266929
 30
0.0
 10
28.8021130543
 20
61.4838271169
 30
0.0
 10
28.8252185259
 20
59.1230180261
 30
0.0
 10
28.8483518347
 20
56.6044955351
 30
0.0
 10
28.8715040502
 20
53.9523453688
 30
0.0
 10
28.8946604824
 20
51.1915815669
 30
0.0
 10
28.9178233262
 20
48.3483525711
 30
0.0
 10
28.9409929645
 20
45.4498609485
 30
0.0
 10
28.9641653235
 20
42.5236905695
 30
0.0
 10
28.9873369936
 20
39.5975056021
 30
0.0
 10
29.010505668
 20
36.6990529943
 30
0.0
 10
29.0336678521
 20
33.8560577377
 30
0.0
 10
29.0568283678
 20
31.0955615685
 30
0.0
 10
29.0799784048
 20
28.4436275356
 30
0.0
 10
29.1031073622
 20
25.9254079484
 30
0.0
 10
29.1262172514
 20
23.5650962634
 30
0.0
 10
29.149309537
 20
21.3850681265
 30
0.0
 10
29.1723564043
 20
19.405775544
 30
0.0
 10
29.1921292488
 20
17.8905016781
 30
0.0
 10
29.2081574255
 20
16.7928000573
 30
0.0
 10
29.2197466945
 20
16.060324828
 30
0.0
 10
29.2313237013
 20
15.3907670107
 30
0.0
 10
29.242885941
 20
14.7855163927
 30
0.0
 10
29.2544252367
 20
14.2459588361
 30
0.0
 10
29.2659362134
 20
13.7734803283
 30
0.0
 10
29.2758886605
 20
13.4223081839
 30
0.0
 10
29.2839867161
 20
13.1759416672
 30
0.0
 10
29.2897717083
 20
13.017417941
 30
0.0
 10
29.2955472242
 20
12.8765203801
 30
0.0
 10
29.3013082949
 20
12.753279767
 30
0.0
 10
29.3070520275
 20
12.6477256589
 30
0.0
 10
29.3127533966
 20
12.5598771981
 30
0.0
 10
29.3184211804
 20
12.4897733187
 30
0.0
 10
29.3233795612
 20
12.4424482811
 30
0.0
 10
29.3275927923
 20
12.4135464037
 30
0.0
 10
29.330386387
 20
12.398441729
 30
0.0
 10
29.3331517932
 20
12.3878299382
 30
0.0
 10
29.3353213216
 20
12.3822006701
 30
0.0
 10
29.3366752883
 20
12.3803956049
 30
0.0
  0
SPLINE
  5
2BE
100
AcDbEntity
  8
0
100
AcDbSpline
 62
7
  6
CONTINUOUS
 70
0
 71
3
 72
65
 73
61
 74
0
 42
0.0000001
 43
0.0000001
 44
0.0000000001
 40
0.0
 40
0.0
 40
0.0
 40
0.0
 40
0.0001091569
 40
0.0002889832
 40
0.0005416963
 40
0.0008679078
 40
0.0017413214
 40
0.0029091671
 40
0.0043705011
 40
0.0061241546
 40
0.0081692457
 40
0.0105051517
 40
0.0131312263
 40
0.0160468044
 40
0.0227435689
 40
0.0305820597
 40
0.0395383487
 40
0.0495877052
 40
0.0607048199
 40
0.0728637741
 40
0.0860383878
 40
0.1153110603
 40
0.1482510554
 40
0.1845291583
 40
0.2237983871
 40
0.2657068735
 40
0.3098419396
 40
0.3557776221
 40
0.4030893165
 40
0.4513232342
 40
0.5000190892
 40
0.5487158807
 40
0.596946288
 40
0.644256075
 40
0.6902001765
 40
0.7343289521
 40
0.776227279
 40
0.8155065189
 40
0.8517859827
 40
0.8847145856
 40
0.9139825405
 40
0.9271620793
 40
0.939328861
 40
0.9504497203
 40
0.9604921826
 40
0.9694342341
 40
0.9772618762
 40
0.9839611061
 40
0.9868824509
 40
0.9895152111
 40
0.991857092
 40
0.9939058194
 40
0.9956591955
 40
0.9971162302
 40
0.9982773104
 40
0.9991431385
 40
0.9994657643
 40
0.9997153036
 40
0.9998925737
 40
1.0
 40
1.0
 40
1.0
 40
1.0
 10
37.5876746403
 20
11.3784140022
 30
0.0
 10
37.5863159389
 20
11.3802287897
 30
0.0
 10
37.5841835813
 20
11.3859783825
 30
0.0
 10
37.5814372333
 20
11.3968287395
 30
0.0
 10
37.5786595335
 20
11.4123794985
 30
0.0
 10
37.5744419503
 20
11.4422329441
 30
0.0
 10
37.5694635635
 20
11.4911752566
 30
0.0
 10
37.5637554333
 20
11.563690655
 30
0.0
 10
37.5580119421
 20
11.6545408075
 30
0.0
 10
37.5522386839
 20
11.7636334793
 30
0.0
 10
37.5464644248
 20
11.8909127839
 30
0.0
 10
37.5406868889
 20
12.0363265109
 30
0.0
 10
37.5349076312
 20
12.1998317875
 30
0.0
 10
37.5268196744
 20
12.4538799011
 30
0.0
 10
37.5168751157
 20
12.8161767612
 30
0.0
 10
37.5053630243
 20
13.3039312929
 30
0.0
 10
37.4938149601
 20
13.8613310531
 30
0.0
 10
37.4822463811
 20
14.486836077
 30
0.0
 10
37.4706683972
 20
15.1788664344
 30
0.0
 10
37.4590793695
 20
15.9358124823
 30
0.0
 10
37.4430481294
 20
17.069801889
 30
0.0
 10
37.4232535533
 20
18.6353760155
 30
0.0
 10
37.400208777
 20
20.6807752738
 30
0.0
 10
37.3771193876
 20
22.9338017607
 30
0.0
 10
37.3539902938
 20
25.3731009926
 30
0.0
 10
37.3308552848
 20
27.9755861687
 30
0.0
 10
37.3077026126
 20
30.7165301468
 30
0.0
 10
37.2845350522
 20
33.5696956135
 30
0.0
 10
37.2613625167
 20
36.5079917087
 30
0.0
 10
37.2381865295
 20
39.5036148029
 30
0.0
 10
37.2150093247
 20
42.5280054499
 30
0.0
 10
37.1918305147
 20
45.5523231751
 30
0.0
 10
37.1686524868
 20
48.5478531821
 30
0.0
 10
37.1454796006
 20
51.4862116076
 30
0.0
 10
37.1223191924
 20
54.3393817256
 30
0.0
 10
37.0991621233
 20
57.0801588683
 30
0.0
 10
37.0760175985
 20
59.6825102233
 30
0.0
 10
37.052901654
 20
62.1218347593
 30
0.0
 10
37.0298122104
 20
64.3748608331
 30
0.0
 10
37.0067575743
 20
66.4199536467
 30
0.0
 10
36.9869623639
 20
67.9852954466
 30
0.0
 10
36.9709359357
 20
69.1194518105
 30
0.0
 10
36.9593497435
 20
69.8767405665
 30
0.0
 10
36.9477747446
 20
70.5688681475
 30
0.0
 10
36.9362020615
 20
71.1940119377
 30
0.0
 10
36.9246455018
 20
71.7507471948
 30
0.0
 10
36.9131251607
 20
72.2380315776
 30
0.0
 10
36.9031922042
 20
72.6002743382
 30
0.0
 10
36.8951180534
 20
72.8546328592
 30
0.0
 10
36.8893432725
 20
73.018521244
 30
0.0
 10
36.8835666596
 20
73.1642737398
 30
0.0
 10
36.8777890491
 20
73.2917469835
 30
0.0
 10
36.8720034111
 20
73.4008194816
 30
0.0
 10
36.8662391845
 20
73.4914324589
 30
0.0
 10
36.8605117115
 20
73.5635577415
 30
0.0
 10
36.8555204871
 20
73.612124682
 30
0.0
 10
36.8512997896
 20
73.6416766392
 30
0.0
 10
36.8485264521
 20
73.6570319102
 30
0.0
 10
36.8457905368
 20
73.6677246945
 30
0.0
 10
36.8436675455
 20
73.6733834065
 30
0.0
 10
36.8423185524
 20
73.6751604991
 30
0.0
  0
SPLINE
  5
2BF
100
AcDbEntity
  8
0
100
AcDbSpline
 62
7
  6
CONTINUOUS
 70
0
 71
3
 72
30
 73
26
 74
0
 42
0.0000001
 43
0.0000001
 44
0.0000000001
 40
0.0
 40
0.0
 40
0.0
 40
0.0
 40
0.2157569169
 40
0.3161403915
 40
0.4109018322
 40
0.4996984357
 40
0.5822198498
 40
0.6581557463
 40
0.7271958314
 40
0.7890298651
 40
0.8433476946
 40
0.8898393673
 40
0.9100630901
 40
0.9282538224
 40
0.9444059102
 40
0.958513776
 40
0.9705719719
 40
0.9805752868
 40
0.9885189934
 40
0.9917173558
 40
0.9943996957
 40
0.9965661803
 40
0.9982178205
 40
0.9993579941
 40
1.0
 40
1.0
 40
1.0
 40
1.0
 10
47.5870632282
 20
58.1013917679
 30
0.0
 10
47.5771540401
 20
59.2216536408
 30
0.0
 10
47.5621326364
 20
60.8631264141
 30
0.0
 10
47.5410543459
 20
62.9966071124
 30
0.0
 10
47.5256252968
 20
64.4708769003
 30
0.0
 10
47.5102039286
 20
65.8523936376
 30
0.0
 10
47.4947945251
 20
67.1361534292
 30
0.0
 10
47.4794014309
 20
68.317320868
 30
0.0
 10
47.4640300607
 20
69.39106061
 30
0.0
 10
47.448692133
 20
70.3525376945
 30
0.0
 10
47.4333967333
 20
71.196917321
 30
0.0
 10
47.4201731815
 20
71.8252380489
 30
0.0
 10
47.4093962696
 20
72.265977058
 30
0.0
 10
47.4017020776
 20
72.5492066729
 30
0.0
 10
47.3940221147
 20
72.8006676006
 30
0.0
 10
47.3863594457
 20
73.0202691346
 30
0.0
 10
47.3787301332
 20
73.2079239118
 30
0.0
 10
47.3711358459
 20
73.3635388769
 30
0.0
 10
47.3645015221
 20
73.4731441974
 30
0.0
 10
47.3589957274
 20
73.5447107632
 30
0.0
 10
47.3552014804
 20
73.5863380881
 30
0.0
 10
47.3514065604
 20
73.6198448742
 30
0.0
 10
47.347763498
 20
73.6454263889
 30
0.0
 10
47.3440510972
 20
73.6627018884
 30
0.0
 10
47.341307165
 20
73.6718280034
 30
0.0
 10
47.3393068561
 20
73.6744947463
 30
0.0
  0
SPLINE
  5
2C0
100
AcDbEntity
  8
0
100
AcDbSpline
 62
7
  6
CONTINUOUS
 70
0
 71
3
 72
65
 73
61
 74
0
 42
0.0000001
 43
0.0000001
 44
0.0000000001
 40
0.0
 40
0.0
 40
0.0
 40
0.0
 40
0.0001094424
 40
0.0002886739
 40
0.0005400876
 40
0.0008644583
 40
0.0017331776
 40
0.0028959681
 40
0.0043530524
 40
0.0061043688
 40
0.0081492468
 40
0.0104865082
 40
0.0131149268
 40
0.0160332577
 40
0.0227345251
 40
0.0305746279
 40
0.0395293857
 40
0.0495738953
 40
0.0606844571
 40
0.0728389307
 40
0.0860149471
 40
0.1152996624
 40
0.148229922
 40
0.1844988058
 40
0.223775963
 40
0.2656798681
 40
0.3098067074
 40
0.3557400518
 40
0.4030503942
 40
0.451281884
 40
0.4999736678
 40
0.5486665253
 40
0.5968973463
 40
0.6442084122
 40
0.6901490226
 40
0.7342759954
 40
0.7761791264
 40
0.8154656962
 40
0.8517391715
 40
0.8846684283
 40
0.9139549366
 40
0.9271359015
 40
0.9392973025
 40
0.9504130392
 40
0.9604574622
 40
0.9694084522
 40
0.9772465195
 40
0.9839524272
 40
0.9868753135
 40
0.9895087808
 40
0.9918508178
 40
0.9938994327
 40
0.9956527068
 40
0.9971098795
 40
0.9982714954
 40
0.9991384182
 40
0.9994618586
 40
0.9997124281
 40
0.999890983
 40
1.0
 40
1.0
 40
1.0
 40
1.0
 10
30.0876432585
 20
11.3791850152
 30
0.0
 10
30.0862793181
 20
11.3810032328
 30
0.0
 10
30.0841233155
 20
11.3867344921
 30
0.0
 10
30.0813630126
 20
11.3975495268
 30
0.0
 10
30.0785760724
 20
11.4130183738
 30
0.0
 10
30.0743586949
 20
11.4427078069
 30
0.0
 10
30.0693951608
 20
11.4914085765
 30
0.0
 10
30.0637160404
 20
11.5636334918
 30
0.0
 10
30.0580029532
 20
11.6542415816
 30
0.0
 10
30.0522510104
 20
11.7631919626
 30
0.0
 10
30.0464862996
 20
11.8904445232
 30
0.0
 10
30.0407095312
 20
12.0359280868
 30
0.0
 10
30.0349251675
 20
12.1995642853
 30
0.0
 10
30.0268267771
 20
12.4538069088
 30
0.0
 10
30.016872261
 20
12.816281148
 30
0.0
 10
30.0053615039
 20
13.3041220631
 30
0.0
 10
29.9938194975
 20
13.8614127976
 30
0.0
 10
29.9822537721
 20
14.4866378874
 30
0.0
 10
29.9706733221
 20
15.1783257565
 30
0.0
 10
29.9590810429
 20
15.9350579445
 30
0.0
 10
29.9430491887
 20
17.069212922
 30
0.0
 10
29.9232716656
 20
18.6348358384
 30
0.0
 10
29.9002161687
 20
20.6800542004
 30
0.0
 10
29.8771225043
 20
22.9328106574
 30
0.0
 10
29.8540047564
 20
25.3719436641
 30
0.0
 10
29.8308689348
 20
27.9742801425
 30
0.0
 10
29.807715642
 20
30.7148596841
 30
0.0
 10
29.7845482404
 20
33.5677257503
 30
0.0
 10
29.7613801186
 20
36.5058413673
 30
0.0
 10
29.7382067213
 20
39.5012469317
 30
0.0
 10
29.715029004
 20
42.5253658762
 30
0.0
 10
29.6918504244
 20
45.5494709233
 30
0.0
 10
29.6686759264
 20
48.5448999149
 30
0.0
 10
29.6455070563
 20
51.4831675701
 30
0.0
 10
29.6223433548
 20
54.336202373
 30
0.0
 10
29.5991875159
 20
57.0769194968
 30
0.0
 10
29.5760469594
 20
59.6794381181
 30
0.0
 10
29.5529362442
 20
62.1188459698
 30
0.0
 10
29.5298417814
 20
64.3718724533
 30
0.0
 10
29.506782122
 20
66.4172025439
 30
0.0
 10
29.4870039292
 20
67.9829446405
 30
0.0
 10
29.4709740691
 20
69.117383553
 30
0.0
 10
29.4593829971
 20
69.874469919
 30
0.0
 10
29.4478041993
 20
70.5664073972
 30
0.0
 10
29.4362374847
 20
71.191659902
 30
0.0
 10
29.4246920209
 20
71.7488282176
 30
0.0
 10
29.413176679
 20
72.2366448588
 30
0.0
 10
29.4032248704
 20
72.599267909
 30
0.0
 10
29.3951309786
 20
72.8538066528
 30
0.0
 10
29.3893477885
 20
73.0177417216
 30
0.0
 10
29.3835718006
 20
73.1635071781
 30
0.0
 10
29.3778075413
 20
73.2909774387
 30
0.0
 10
29.3720543987
 20
73.4000480341
 30
0.0
 10
29.3663380161
 20
73.4906741019
 30
0.0
 10
29.3606556368
 20
73.5628387074
 30
0.0
 10
29.3556893278
 20
73.6114578672
 30
0.0
 10
29.3514705316
 20
73.6410722057
 30
0.0
 10
29.3486838462
 20
73.6564893893
 30
0.0
 10
29.345925011
 20
73.667263171
 30
0.0
 10
29.3437695282
 20
73.6729702204
 30
0.0
 10
29.3424075669
 20
73.674778874
 30
0.0
  0
SPLINE
  5
2C1
100
AcDbEntity
  8
0
100
AcDbSpline
 62
7
  6
CONTINUOUS
 70
0
 71
3
 72
65
 73
61
 74
0
 42
0.0000001
 43
0.0000001
 44
0.0000000001
 40
0.0
 40
0.0
 40
0.0
 40
0.0
 40
0.0001100573
 40
0.0002907342
 40
0.0005442939
 40
0.0008713711
 40
0.0017466264
 40
0.0029165226
 40
0.0043801728
 40
0.0061364513
 40
0.0081843816
 40
0.0105231304
 40
0.0131518386
 40
0.0160696293
 40
0.0227687436
 40
0.0306071145
 40
0.0395633006
 40
0.0496151495
 40
0.0607373669
 40
0.072901337
 40
0.0860782072
 40
0.115349306
 40
0.1482922026
 40
0.1845750889
 40
0.2238450639
 40
0.2657520722
 40
0.3098871568
 40
0.3558235109
 40
0.4031325129
 40
0.4513634819
 40
0.5000573526
 40
0.5487514288
 40
0.5969786667
 40
0.6442842439
 40
0.6902234448
 40
0.7343504663
 40
0.7762458834
 40
0.8155177485
 40
0.8517960352
 40
0.8847244093
 40
0.9139856488
 40
0.9271626844
 40
0.9393286201
 40
0.9504497014
 40
0.9604927614
 40
0.969434923
 40
0.9772615431
 40
0.9839581408
 40
0.9868778475
 40
0.9895091007
 40
0.9918498692
 40
0.9938981422
 40
0.9956519723
 40
0.9971103079
 40
0.9982731606
 40
0.9991408409
 40
0.9994642982
 40
0.9997145372
 40
0.9998923192
 40
1.0
 40
1.0
 40
1.0
 40
1.0
 10
26.3418718841
 20
73.6758886443
 30
0.0
 10
26.3432416551
 20
73.6740587729
 30
0.0
 10
26.3453961175
 20
73.6682787553
 30
0.0
 10
26.3481580129
 20
73.6573755846
 30
0.0
 10
26.3509442769
 20
73.6417725573
 30
0.0
 10
26.3551607124
 20
73.6118439244
 30
0.0
 10
26.3601210986
 20
73.562800308
 30
0.0
 10
26.3657974213
 20
73.4901527053
 30
0.0
 10
26.3715073554
 20
73.3991546023
 30
0.0
 10
26.3772578826
 20
73.2898984575
 30
0.0
 10
26.3830224473
 20
73.1624454535
 30
0.0
 10
26.3887991937
 20
73.0168581942
 30
0.0
 10
26.394583886
 20
72.8531925709
 30
0.0
 10
26.4026827286
 20
72.5989941064
 30
0.0
 10
26.4126396846
 20
72.2366036033
 30
0.0
 10
26.4241532895
 20
71.7488026543
 30
0.0
 10
26.4356974179
 20
71.1913530876
 30
0.0
 10
26.4472613958
 20
70.5656894582
 30
0.0
 10
26.4588374791
 20
69.8733939202
 30
0.0
 10
26.4704261238
 20
69.1161873263
 30
0.0
 10
26.4864569165
 20
67.9820743115
 30
0.0
 10
26.5062536273
 20
66.4164185335
 30
0.0
 10
26.5292957952
 20
64.3708828677
 30
0.0
 10
26.5523825601
 20
62.1176708357
 30
0.0
 10
26.5755101408
 20
59.6782761782
 30
0.0
 10
26.5986458616
 20
57.0757938068
 30
0.0
 10
26.621797487
 20
54.3348535302
 30
0.0
 10
26.6449619236
 20
51.4817164481
 30
0.0
 10
26.668134245
 20
48.5435099978
 30
0.0
 10
26.6913097043
 20
45.5480314394
 30
0.0
 10
26.7144853764
 20
42.523785665
 30
0.0
 10
26.7376621429
 20
39.4996173909
 30
0.0
 10
26.7608390395
 20
36.5042832006
 30
0.0
 10
26.7840114539
 20
33.5661662485
 30
0.0
 10
26.8071709269
 20
30.7132085979
 30
0.0
 10
26.8303255671
 20
27.9726174279
 30
0.0
 10
26.8534678684
 20
25.3705040738
 30
0.0
 10
26.8765864841
 20
22.9314063547
 30
0.0
 10
26.8996726203
 20
20.6785522214
 30
0.0
 10
26.9227220576
 20
18.6336185835
 30
0.0
 10
26.942520628
 20
17.0684658217
 30
0.0
 10
26.958546165
 20
15.9345132578
 30
0.0
 10
26.9701307996
 20
15.1772859374
 30
0.0
 10
26.9817044591
 20
14.4851556842
 30
0.0
 10
26.9932766751
 20
13.8599896837
 30
0.0
 10
27.0048335366
 20
13.3032583857
 30
0.0
 10
27.0163529883
 20
12.816045358
 30
0.0
 10
27.0262837
 20
12.4539108169
 30
0.0
 10
27.0343554249
 20
12.1996710895
 30
0.0
 10
27.0401287362
 20
12.0358703727
 30
0.0
 10
27.0459051694
 20
11.8901810808
 30
0.0
 10
27.0516846339
 20
11.7627304701
 30
0.0
 10
27.0574745644
 20
11.6536306376
 30
0.0
 10
27.0632451256
 20
11.5629442647
 30
0.0
 10
27.0689787096
 20
11.490716484
 30
0.0
 10
27.0739729011
 20
11.4420567344
 30
0.0
 10
27.0781929756
 20
11.412433578
 30
0.0
 10
27.0809643037
 20
11.3970348725
 30
0.0
 10
27.0836973477
 20
11.3863098536
 30
0.0
 10
27.0858146645
 20
11.3806326411
 30
0.0
 10
27.0871618191
 20
11.3788475131
 30
0.0
  0
SPLINE
  5
2C2
100
AcDbEntity
  8
0
100
AcDbSpline
 62
7
  6
CONTINUOUS
 70
0
 71
3
 72
65
 73
61
 74
0
 42
0.0000001
 43
0.0000001
 44
0.0000000001
 40
0.0
 40
0.0
 40
0.0
 40
0.0
 40
0.0001151443
 40
0.0003005226
 40
0.0005586402
 40
0.0008904522
 40
0.001776906
 40
0.002960904
 40
0.0044413307
 40
0.0062167647
 40
0.0082856692
 40
0.0106464505
 40
0.0132974541
 40
0.0162366428
 40
0.0229703669
 40
0.0308291318
 40
0.0397945817
 40
0.0498496603
 40
0.0609778017
 40
0.0731598559
 40
0.0863623758
 40
0.1156754421
 40
0.1486151971
 40
0.184881518
 40
0.2241553914
 40
0.2660599859
 40
0.3101705163
 40
0.3560781848
 40
0.4033572051
 40
0.4515580461
 40
0.5002172213
 40
0.5488732141
 40
0.5970664493
 40
0.6443318745
 40
0.6902291692
 40
0.7343335532
 40
0.7762077888
 40
0.8154474876
 40
0.851690714
 40
0.8846183911
 40
0.9138975758
 40
0.9270674002
 40
0.9392191941
 40
0.9503279014
 40
0.9603705161
 40
0.9693267798
 40
0.9771766067
 40
0.9838987504
 40
0.9868298941
 40
0.9894706558
 40
0.9918182289
 40
0.9938703429
 40
0.9956267899
 40
0.9970879194
 40
0.9982541981
 40
0.9991263676
 40
0.9994526237
 40
0.9997061323
 40
0.9998877597
 40
1.0
 40
1.0
 40
1.0
 40
1.0
 10
45.0930837873
 20
72.6748228754
 30
0.0
 10
45.0944310369
 20
72.672940823
 30
0.0
 10
45.096598884
 20
72.6671826533
 30
0.0
 10
45.0993662627
 20
72.6563449556
 30
0.0
 10
45.1021606382
 20
72.6409803107
 30
0.0
 10
45.106373051
 20
72.6116129331
 30
0.0
 10
45.1113284102
 20
72.5635557096
 30
0.0
 10
45.1169918773
 20
72.4924065573
 30
0.0
 10
45.1226901971
 20
72.4033360639
 30
0.0
 10
45.1284310067
 20
72.2964545337
 30
0.0
 10
45.1341892583
 20
72.171854607
 30
0.0
 10
45.1399618063
 20
72.029639365
 30
0.0
 10
45.145743177
 20
71.8699176757
 30
0.0
 10
45.15383151
 20
71.6223211726
 30
0.0
 10
45.1637787461
 20
71.2700484153
 30
0.0
 10
45.1752873937
 20
70.7966395683
 30
0.0
 10
45.1868248466
 20
70.2564502115
 30
0.0
 10
45.198384809
 20
69.6505290649
 30
0.0
 10
45.2099584634
 20
68.9799393069
 30
0.0
 10
45.2215367375
 20
68.2460730633
 30
0.0
 10
45.2375491209
 20
67.1466893211
 30
0.0
 10
45.2573132938
 20
65.630057904
 30
0.0
 10
45.2803512189
 20
63.6498170492
 30
0.0
 10
45.3034340345
 20
61.4693381004
 30
0.0
 10
45.3265357039
 20
59.1086441608
 30
0.0
 10
45.3496481905
 20
56.5902635747
 30
0.0
 10
45.3727847927
 20
53.9385292286
 30
0.0
 10
45.3959337373
 20
51.1787574834
 30
0.0
 10
45.4190903752
 20
48.336761969
 30
0.0
 10
45.4422458056
 20
45.439455471
 30
0.0
 10
45.4654027973
 20
42.5144690145
 30
0.0
 10
45.4885615753
 20
39.5896354659
 30
0.0
 10
45.5117207651
 20
36.6928191496
 30
0.0
 10
45.5348768374
 20
33.8514583471
 30
0.0
 10
45.5580240774
 20
31.0922919694
 30
0.0
 10
45.5811522539
 20
28.4414999219
 30
0.0
 10
45.6042740517
 20
25.9245402458
 30
0.0
 10
45.6273807658
 20
23.5656078876
 30
0.0
 10
45.6504602783
 20
21.386522956
 30
0.0
 10
45.6734874971
 20
19.4076701577
 30
0.0
 10
45.6932473481
 20
17.8926198746
 30
0.0
 10
45.7092739967
 20
16.7951831108
 30
0.0
 10
45.7208570669
 20
16.0629733078
 30
0.0
 10
45.7324279013
 20
15.3936331606
 30
0.0
 10
45.7439845057
 20
14.7885379545
 30
0.0
 10
45.75551872
 20
14.2489635311
 30
0.0
 10
45.7670253882
 20
13.7761519178
 30
0.0
 10
45.7769720275
 20
13.4244535144
 30
0.0
 10
45.7850628425
 20
13.1774577819
 30
0.0
 10
45.7908430794
 20
13.0183695509
 30
0.0
 10
45.7966132028
 20
12.8769637582
 30
0.0
 10
45.8023713043
 20
12.7533494985
 30
0.0
 10
45.8081126422
 20
12.6475767034
 30
0.0
 10
45.8138115984
 20
12.5596340654
 30
0.0
 10
45.8194770243
 20
12.4895199353
 30
0.0
 10
45.8244340612
 20
12.4422208271
 30
0.0
 10
45.828645967
 20
12.4133510621
 30
0.0
 10
45.8314386324
 20
12.398268109
 30
0.0
 10
45.8342027546
 20
12.387667798
 30
0.0
 10
45.8363719158
 20
12.382044913
 30
0.0
 10
45.8377233317
 20
12.3802382408
 30
0.0
  0
SPLINE
  5
2C3
100
AcDbEntity
  8
0
100
AcDbSpline
 62
7
  6
CONTINUOUS
 70
0
 71
3
 72
65
 73
61
 74
0
 42
0.0000001
 43
0.0000001
 44
0.0000000001
 40
0.0
 40
0.0
 40
0.0
 40
0.0
 40
0.0001082413
 40
0.0002869574
 40
0.0005383817
 40
0.0008631606
 40
0.0017334475
 40
0.0028981208
 40
0.0043566115
 40
0.0061081119
 40
0.0081518229
 40
0.010486988
 40
0.01311282
 40
0.016028512
 40
0.0227260459
 40
0.0305653062
 40
0.0395206862
 40
0.0495656784
 40
0.0606757189
 40
0.0728286412
 40
0.0860020698
 40
0.1152809789
 40
0.148211687
 40
0.1844797181
 40
0.2237503406
 40
0.265653955
 40
0.309781236
 40
0.3557119947
 40
0.4030216438
 40
0.4512531687
 40
0.4999452152
 40
0.5486390259
 40
0.5968694247
 40
0.6441805968
 40
0.6901243592
 40
0.7342524277
 40
0.7761550529
 40
0.8154431543
 40
0.8517209251
 40
0.8846517294
 40
0.9139360855
 40
0.9271191408
 40
0.9392849156
 40
0.9504045813
 40
0.960449898
 40
0.9693991829
 40
0.9772356294
 40
0.9839425006
 40
0.9868668899
 40
0.9895022371
 40
0.9918462963
 40
0.9938968407
 40
0.9956517196
 40
0.9971100382
 40
0.9982723237
 40
0.9991394317
 40
0.9994627822
 40
0.9997131425
 40
0.9998913773
 40
1.0
 40
1.0
 40
1.0
 40
1.0
 10
42.0877149051
 20
11.378859623
 30
0.0
 10
42.0863666049
 20
11.380658405
 30
0.0
 10
42.0842514343
 20
11.3863690292
 30
0.0
 10
42.08151832
 20
11.3971512104
 30
0.0
 10
42.0787478579
 20
11.4126223134
 30
0.0
 10
42.0745299871
 20
11.4423525203
 30
0.0
 10
42.0695378266
 20
11.4911314475
 30
0.0
 10
42.0638051752
 20
11.5634535319
 30
0.0
 10
42.058035094
 20
11.6541309289
 30
0.0
 10
42.0522434676
 20
11.7630886761
 30
0.0
 10
42.0464615478
 20
11.8902771964
 30
0.0
 10
42.0406832628
 20
12.0356399411
 30
0.0
 10
42.0349083834
 20
12.1991252442
 30
0.0
 10
42.0268302952
 20
12.4531837796
 30
0.0
 10
42.0168980617
 20
12.8155107346
 30
0.0
 10
42.0053888121
 20
13.3032722522
 30
0.0
 10
41.9938391132
 20
13.8605713916
 30
0.0
 10
41.9822668844
 20
14.4858119767
 30
0.0
 10
41.9706868634
 20
15.177470692
 30
0.0
 10
41.9590972912
 20
15.9341103478
 30
0.0
 10
41.9430674044
 20
17.0680651166
 30
0.0
 10
41.923284234
 20
18.6335316779
 30
0.0
 10
41.9002326999
 20
20.6786325224
 30
0.0
 10
41.8771411583
 20
22.9312574638
 30
0.0
 10
41.8540186602
 20
25.3702445802
 30
0.0
 10
41.8308847543
 20
27.9724630268
 30
0.0
 10
41.8077324146
 20
30.7130073149
 30
0.0
 10
41.7845642751
 20
33.5658303808
 30
0.0
 10
41.7613954509
 20
36.5038950292
 30
0.0
 10
41.7382217903
 20
39.4993091061
 30
0.0
 10
41.7150445769
 20
42.5234709249
 30
0.0
 10
41.6918659002
 20
45.5476093442
 30
0.0
 10
41.6686904016
 20
48.5430682914
 30
0.0
 10
41.6455205946
 20
51.4814112496
 30
0.0
 10
41.6223589891
 20
54.3345524309
 30
0.0
 10
41.5992023764
 20
57.0753625729
 30
0.0
 10
41.5760599811
 20
59.6779397751
 30
0.0
 10
41.5529498474
 20
62.1174717775
 30
0.0
 10
41.5298565635
 20
64.3706640228
 30
0.0
 10
41.5067974942
 20
66.4160822051
 30
0.0
 10
41.4870154645
 20
67.9818638536
 30
0.0
 10
41.4709864497
 20
69.1163986749
 30
0.0
 10
41.459396265
 20
69.8737051578
 30
0.0
 10
41.4478189288
 20
70.5658375518
 30
0.0
 10
41.4362528854
 20
71.1911583259
 30
0.0
 10
41.4247065856
 20
71.7482792161
 30
0.0
 10
41.4131888162
 20
72.2360494498
 30
0.0
 10
41.4032348052
 20
72.5986920275
 30
0.0
 10
41.3951400882
 20
72.8533224785
 30
0.0
 10
41.3893561632
 20
73.0173707618
 30
0.0
 10
41.3835806138
 20
73.1632582533
 30
0.0
 10
41.3778184591
 20
73.2908448439
 30
0.0
 10
41.3720697029
 20
73.4000135825
 30
0.0
 10
41.3663594931
 20
73.4907117913
 30
0.0
 10
41.3606828675
 20
73.5629187451
 30
0.0
 10
41.3557200643
 20
73.6115549333
 30
0.0
 10
41.3515007144
 20
73.641166516
 30
0.0
 10
41.3487132584
 20
73.6565715277
 30
0.0
 10
41.3459523278
 20
73.667323301
 30
0.0
 10
41.3437931556
 20
73.6730162754
 30
0.0
 10
41.3424266445
 20
73.6748112288
 30
0.0
  0
SPLINE
  5
2C4
100
AcDbEntity
  8
0
100
AcDbSpline
 62
7
  6
CONTINUOUS
 70
0
 71
3
 72
65
 73
61
 74
0
 42
0.0000001
 43
0.0000001
 44
0.0000000001
 40
0.0
 40
0.0
 40
0.0
 40
0.0
 40
0.0001122546
 40
0.0002941112
 40
0.0005480017
 40
0.0008747131
 40
0.0017476794
 40
0.0029140426
 40
0.0043738721
 40
0.0061269626
 40
0.0081729921
 40
0.0105115803
 40
0.0131423148
 40
0.0160645894
 40
0.0227746293
 40
0.0306196586
 40
0.0395767922
 40
0.0496231079
 40
0.0607356614
 40
0.0728914949
 40
0.0860674657
 40
0.1153508737
 40
0.1482810115
 40
0.1845416596
 40
0.2238108427
 40
0.2657094303
 40
0.309825474
 40
0.355746542
 40
0.4030457784
 40
0.4512659173
 40
0.499945837
 40
0.5486246831
 40
0.5968440955
 40
0.64414707
 40
0.690076749
 40
0.7341937481
 40
0.7760935125
 40
0.8153756229
 40
0.8516468968
 40
0.8845769179
 40
0.9138675418
 40
0.9270550049
 40
0.9392213391
 40
0.9503381469
 40
0.9603849912
 40
0.9693417597
 40
0.9771883614
 40
0.9839047422
 40
0.9868328538
 40
0.9894709255
 40
0.9918164828
 40
0.9938675852
 40
0.9956239231
 40
0.9970855556
 40
0.9982526588
 40
0.9991256837
 40
0.9994522884
 40
0.9997060455
 40
0.9998877899
 40
1.0
 40
1.0
 40
1.0
 40
1.0
 10
33.092468383
 20
72.6750139216
 30
0.0
 10
33.0938223564
 20
72.6732087617
 30
0.0
 10
33.095991877
 20
72.6675792611
 30
0.0
 10
33.0987572858
 20
72.6569670468
 30
0.0
 10
33.1015508785
 20
72.6418617835
 30
0.0
 10
33.1057641104
 20
72.6129587906
 30
0.0
 10
33.1107224907
 20
72.5656319483
 30
0.0
 10
33.1163902749
 20
72.4955254062
 30
0.0
 10
33.1220916441
 20
72.4076736154
 30
0.0
 10
33.1278353768
 20
72.3021155044
 30
0.0
 10
33.1335964476
 20
72.1788702106
 30
0.0
 10
33.1393719636
 20
72.0379672858
 30
0.0
 10
33.1451569559
 20
71.8794375077
 30
0.0
 10
33.1532550119
 20
71.6330615453
 30
0.0
 10
33.163207459
 20
71.281875896
 30
0.0
 10
33.1747184355
 20
70.8093791824
 30
0.0
 10
33.1862577311
 20
70.2698008012
 30
0.0
 10
33.1978199707
 20
69.6645268068
 30
0.0
 10
33.2093969774
 20
68.9949431284
 30
0.0
 10
33.2209862465
 20
68.2624396204
 30
0.0
 10
33.237014423
 20
67.1646956703
 30
0.0
 10
33.2567872676
 20
65.6493634332
 30
0.0
 10
33.2798341353
 20
63.6699946588
 30
0.0
 10
33.3029264212
 20
61.4898826475
 30
0.0
 10
33.3260363106
 20
59.1294801725
 30
0.0
 10
33.3491652681
 20
56.6111637329
 30
0.0
 10
33.3723153053
 20
53.9591277196
 30
0.0
 10
33.3954758211
 20
51.1985254162
 30
0.0
 10
33.4186380054
 20
48.3554208779
 30
0.0
 10
33.44180668
 20
45.4568568813
 30
0.0
 10
33.4649783502
 20
42.530559482
 30
0.0
 10
33.4881507094
 20
39.604276693
 30
0.0
 10
33.5113203478
 20
36.7056737448
 30
0.0
 10
33.5344831918
 20
33.8623355682
 30
0.0
 10
33.5576396241
 20
31.1014657756
 30
0.0
 10
33.5807918398
 20
28.449213813
 30
0.0
 10
33.6039251487
 20
25.9305946806
 30
0.0
 10
33.6270306204
 20
23.5696950282
 30
0.0
 10
33.6501190057
 20
21.3891118371
 30
0.0
 10
33.6731722213
 20
19.4093868036
 30
0.0
 10
33.6929495357
 20
17.8936808816
 30
0.0
 10
33.7089711851
 20
16.7953496273
 30
0.0
 10
33.7205572534
 20
16.0623183839
 30
0.0
 10
33.7321354221
 20
15.3924274478
 30
0.0
 10
33.7436989208
 20
14.7870646534
 30
0.0
 10
33.7552401322
 20
14.247451411
 30
0.0
 10
33.7667537192
 20
13.7748029846
 30
0.0
 10
33.7767072645
 20
13.4233408725
 30
0.0
 10
33.7848028185
 20
13.1765723401
 30
0.0
 10
33.7905860357
 20
13.0176373204
 30
0.0
 10
33.7963593457
 20
12.8763444242
 30
0.0
 10
33.8021201347
 20
12.7527914315
 30
0.0
 10
33.8078639133
 20
12.6470295225
 30
0.0
 10
33.8135653242
 20
12.5590610782
 30
0.0
 10
33.8192332498
 20
12.488902067
 30
0.0
 10
33.8241922082
 20
12.4415612828
 30
0.0
 10
33.8284061143
 20
12.4126620168
 30
0.0
 10
33.8311999346
 20
12.3975640836
 30
0.0
 10
33.8339654334
 20
12.3869576823
 30
0.0
 10
33.8361354938
 20
12.3813320492
 30
0.0
 10
33.8374889283
 20
12.3795276018
 30
0.0
  0
SPLINE
  5
2C5
100
AcDbEntity
  8
0
100
AcDbSpline
 62
7
  6
CONTINUOUS
 70
0
 71
3
 72
30
 73
26
 74
0
 42
0.0000001
 43
0.0000001
 44
0.0000000001
 40
0.0
 40
0.0
 40
0.0
 40
0.0
 40
0.215335377
 40
0.3156083244
 40
0.4103564307
 40
0.4991527011
 40
0.581657458
 40
0.6575557872
 40
0.7265328132
 40
0.7882737184
 40
0.8424734627
 40
0.8889258562
 40
0.9092004177
 40
0.9274826735
 40
0.9437542757
 40
0.9579969574
 40
0.9701925878
 40
0.9803232869
 40
0.9883716899
 40
0.991610209
 40
0.9943246285
 40
0.9965164436
 40
0.9981880332
 40
0.99934423
 40
1.0
 40
1.0
 40
1.0
 40
1.0
 10
39.5891386919
 20
27.4528011911
 30
0.0
 10
39.5990352029
 20
26.3706625427
 30
0.0
 10
39.6140441645
 20
24.7846202794
 30
0.0
 10
39.635091036
 20
22.7224509305
 30
0.0
 10
39.6504907001
 20
21.2961889593
 30
0.0
 10
39.6658880739
 20
19.9592278368
 30
0.0
 10
39.6812751282
 20
18.7170042508
 30
0.0
 10
39.6966454603
 20
17.5743917449
 30
0.0
 10
39.7119942028
 20
16.5361394919
 30
0.0
 10
39.7273084006
 20
15.6069475675
 30
0.0
 10
39.7425957196
 20
14.7909717259
 30
0.0
 10
39.7558152649
 20
14.1833878203
 30
0.0
 10
39.7665648367
 20
13.7563025658
 30
0.0
 10
39.774247556
 20
13.4808650199
 30
0.0
 10
39.7819158753
 20
13.2357536195
 30
0.0
 10
39.7895665733
 20
13.0212476071
 30
0.0
 10
39.7971832425
 20
12.8376229209
 30
0.0
 10
39.804763939
 20
12.6851609538
 30
0.0
 10
39.8113848112
 20
12.5777193521
 30
0.0
 10
39.8168832222
 20
12.5075737286
 30
0.0
 10
39.8206736164
 20
12.4668029729
 30
0.0
 10
39.8244618146
 20
12.4339935041
 30
0.0
 10
39.8281080264
 20
12.408942602
 30
0.0
 10
39.8318084639
 20
12.3919839702
 30
0.0
 10
39.8345682242
 20
12.3830304232
 30
0.0
 10
39.8365457518
 20
12.3803940427
 30
0.0
  0
SPLINE
  5
2C6
100
AcDbEntity
  8
0
100
AcDbSpline
 62
7
  6
CONTINUOUS
 70
0
 71
3
 72
65
 73
61
 74
0
 42
0.0000001
 43
0.0000001
 44
0.0000000001
 40
0.0
 40
0.0
 40
0.0
 40
0.0
 40
0.0001125982
 40
0.0002955182
 40
0.000551107
 40
0.0008800555
 40
0.0017587282
 40
0.0029318034
 40
0.0043985897
 40
0.0061581234
 40
0.0082093246
 40
0.0105510561
 40
0.0131821484
 40
0.0161014134
 40
0.0227996467
 40
0.0306360378
 40
0.0395951335
 40
0.049649952
 40
0.0607720964
 40
0.0729331557
 40
0.0861047095
 40
0.1153655466
 40
0.1482980685
 40
0.1845658093
 40
0.223818665
 40
0.2657029797
 40
0.3098190676
 40
0.3557350375
 40
0.4030183155
 40
0.4512281701
 40
0.4999026508
 40
0.5485763993
 40
0.5967850238
 40
0.6440758358
 40
0.6900039283
 40
0.7341245915
 40
0.7760117792
 40
0.8152854029
 40
0.8515723308
 40
0.884505303
 40
0.9137832211
 40
0.9269704644
 40
0.9391467966
 40
0.9502799006
 40
0.9603376187
 40
0.9692949012
 40
0.9771367304
 40
0.9838488802
 40
0.9867769001
 40
0.9894171998
 40
0.9917680321
 40
0.9938276685
 40
0.995594413
 40
0.9970666275
 40
0.9982427913
 40
0.9991218524
 40
0.9994503032
 40
0.9997052497
 40
0.9998876222
 40
1.0
 40
1.0
 40
1.0
 40
1.0
 10
27.0916358784
 20
72.6746601596
 30
0.0
 10
27.0929939657
 20
72.6728494978
 30
0.0
 10
27.0951605296
 20
72.6671863123
 30
0.0
 10
27.0979252241
 20
72.656511421
 30
0.0
 10
27.1007169109
 20
72.6413030855
 30
0.0
 10
27.1049288119
 20
72.6122050389
 30
0.0
 10
27.109884789
 20
72.5645823707
 30
0.0
 10
27.1155512603
 20
72.4940863339
 30
0.0
 10
27.1212514147
 20
72.4058308076
 30
0.0
 10
27.1269940883
 20
72.299900569
 30
0.0
 10
27.1327541442
 20
72.1763603165
 30
0.0
 10
27.1385286961
 20
72.0352852332
 30
0.0
 10
27.1443127949
 20
71.87674819
 30
0.0
 10
27.1524098633
 20
71.630667102
 30
0.0
 10
27.162368817
 20
71.2799591445
 30
0.0
 10
27.1738812002
 20
70.8078419483
 30
0.0
 10
27.1854138585
 20
70.2682356744
 30
0.0
 10
27.1969710627
 20
69.6625684413
 30
0.0
 10
27.2085437269
 20
68.9925270144
 30
0.0
 10
27.2201290219
 20
68.2598265703
 30
0.0
 10
27.2361555426
 20
67.1625383764
 30
0.0
 10
27.2559419327
 20
65.6477261559
 30
0.0
 10
27.2789728907
 20
63.6686533676
 30
0.0
 10
27.3020527975
 20
61.4887152494
 30
0.0
 10
27.3251692604
 20
59.1288246992
 30
0.0
 10
27.3482973821
 20
56.6111644272
 30
0.0
 10
27.3714375597
 20
53.9595609935
 30
0.0
 10
27.3945931635
 20
51.1994270048
 30
0.0
 10
27.4177567819
 20
48.356999827
 30
0.0
 10
27.4409209761
 20
45.45912092
 30
0.0
 10
27.4640881404
 20
42.533290748
 30
0.0
 10
27.4872551572
 20
39.6074853029
 30
0.0
 10
27.5104221673
 20
36.7094944157
 30
0.0
 10
27.5335847934
 20
33.8666968204
 30
0.0
 10
27.5567368731
 20
31.1060756897
 30
0.0
 10
27.5798780743
 20
28.4540788447
 30
0.0
 10
27.6030134942
 20
25.9358514285
 30
0.0
 10
27.6261244671
 20
23.5750998814
 30
0.0
 10
27.6491955216
 20
21.3943494123
 30
0.0
 10
27.6722417973
 20
19.4145386588
 30
0.0
 10
27.6920272152
 20
17.8990586003
 30
0.0
 10
27.7080478979
 20
16.8008044792
 30
0.0
 10
27.7196314094
 20
16.0672612105
 30
0.0
 10
27.7312014067
 20
15.3966340527
 30
0.0
 10
27.7427588743
 20
14.7907246301
 30
0.0
 10
27.7543006607
 20
14.2509873707
 30
0.0
 10
27.765815856
 20
13.7785175487
 30
0.0
 10
27.7757711161
 20
13.4272442481
 30
0.0
 10
27.783865196
 20
13.1805219123
 30
0.0
 10
27.7896489701
 20
13.0214404949
 30
0.0
 10
27.7954230698
 20
12.8798273704
 30
0.0
 10
27.8011824801
 20
12.7557891086
 30
0.0
 10
27.8069240911
 20
12.6494345784
 30
0.0
 10
27.8126226416
 20
12.5608621384
 30
0.0
 10
27.8182858911
 20
12.4901862385
 30
0.0
 10
27.8232427579
 20
12.4425033666
 30
0.0
 10
27.8274580252
 20
12.4134207876
 30
0.0
 10
27.8302508216
 20
12.3982475625
 30
0.0
 10
27.8330159276
 20
12.3876009103
 30
0.0
 10
27.8351851815
 20
12.3819566654
 30
0.0
 10
27.8365406517
 20
12.3801495787
 30
0.0
  0
SPLINE
  5
2C7
100
AcDbEntity
  8
0
100
AcDbSpline
 62
7
  6
CONTINUOUS
 70
0
 71
3
 72
65
 73
61
 74
0
 42
0.0000001
 43
0.0000001
 44
0.0000000001
 40
0.0
 40
0.0
 40
0.0
 40
0.0
 40
0.0001118531
 40
0.0002935604
 40
0.0005475904
 40
0.0008747606
 40
0.0017497283
 40
0.0029197488
 40
0.0043851511
 40
0.006145932
 40
0.0082009886
 40
0.0105483589
 40
0.013186029
 40
0.0161119687
 40
0.0228204985
 40
0.0306583793
 40
0.039611141
 40
0.0496641215
 40
0.0607942937
 40
0.0729684796
 40
0.0861529554
 40
0.1154268269
 40
0.1483648254
 40
0.184649579
 40
0.2239249249
 40
0.2658210236
 40
0.3099460939
 40
0.3558808564
 40
0.403179783
 40
0.4513984625
 40
0.5000823213
 40
0.548764631
 40
0.5969830224
 40
0.6442787526
 40
0.6902014884
 40
0.7343229317
 40
0.7762165593
 40
0.8154737751
 40
0.8517448135
 40
0.8846769902
 40
0.9139387868
 40
0.927111615
 40
0.9392719754
 40
0.9503910199
 40
0.9604401382
 40
0.9693940783
 40
0.9772307622
 40
0.9839288112
 40
0.9868462789
 40
0.9894747683
 40
0.9918133749
 40
0.9938612126
 40
0.9956174218
 40
0.9970810554
 40
0.9982510878
 40
0.9991267364
 40
0.9994541379
 40
0.9997081219
 40
0.9998893287
 40
1.0
 40
1.0
 40
1.0
 40
1.0
 10
43.5874335094
 20
11.3790455224
 30
0.0
 10
43.5860466935
 20
11.380909201
 30
0.0
 10
43.5838448417
 20
11.3867299683
 30
0.0
 10
43.5810510565
 20
11.3977003893
 30
0.0
 10
43.5782462433
 20
11.4133317397
 30
0.0
 10
43.5740320585
 20
11.4432677374
 30
0.0
 10
43.5691075077
 20
11.4923128271
 30
0.0
 10
43.5634968971
 20
11.5649986363
 30
0.0
 10
43.5578563095
 20
11.6561332502
 30
0.0
 10
43.5521545083
 20
11.7656697358
 30
0.0
 10
43.5464121653
 20
11.893544165
 30
0.0
 10
43.54063867
 20
12.0396445357
 30
0.0
 10
43.5348440892
 20
12.2038438991
 30
0.0
 10
43.5267259686
 20
12.4585919211
 30
0.0
 10
43.516745505
 20
12.821335073
 30
0.0
 10
43.5052279573
 20
13.3092482787
 30
0.0
 10
43.4936924228
 20
13.8666379794
 30
0.0
 10
43.482138439
 20
14.4924169019
 30
0.0
 10
43.4705669119
 20
15.1851106758
 30
0.0
 10
43.4589794859
 20
15.9428496567
 30
0.0
 10
43.4429528358
 20
17.0773859424
 30
0.0
 10
43.4231628962
 20
18.6431493556
 30
0.0
 10
43.4001188112
 20
20.6886714451
 30
0.0
 10
43.3770366587
 20
22.9419231058
 30
0.0
 10
43.3539235426
 20
25.3812318728
 30
0.0
 10
43.3307863567
 20
27.9833807731
 30
0.0
 10
43.3076368718
 20
30.7238424558
 30
0.0
 10
43.2844826145
 20
33.5765178838
 30
0.0
 10
43.2613154018
 20
36.5142150437
 30
0.0
 10
43.2381437424
 20
39.5090091862
 30
0.0
 10
43.2149722189
 20
42.53253531
 30
0.0
 10
43.1918017931
 20
45.5560554593
 30
0.0
 10
43.1686315736
 20
48.5507450678
 30
0.0
 10
43.1454645052
 20
51.4881200711
 30
0.0
 10
43.122305323
 20
54.3404039519
 30
0.0
 10
43.0991589533
 20
57.0804892181
 30
0.0
 10
43.0760284618
 20
59.6821349736
 30
0.0
 10
43.0529061161
 20
62.1207309162
 30
0.0
 10
43.0298245981
 20
64.3732002396
 30
0.0
 10
43.0067876152
 20
66.418065827
 30
0.0
 10
42.9869954035
 20
67.9832155688
 30
0.0
 10
42.970968319
 20
69.1169719465
 30
0.0
 10
42.9593823122
 20
69.8739507076
 30
0.0
 10
42.947808862
 20
70.5660459085
 30
0.0
 10
42.9362474838
 20
71.1915377959
 30
0.0
 10
42.9247059131
 20
71.7488467564
 30
0.0
 10
42.9131948112
 20
72.2365419731
 30
0.0
 10
42.9032402117
 20
72.5988671908
 30
0.0
 10
42.8951433751
 20
72.8530313058
 30
0.0
 10
42.8893600185
 20
73.016682105
 30
0.0
 10
42.8835846138
 20
73.1622594072
 30
0.0
 10
42.8778213961
 20
73.2897056287
 30
0.0
 10
42.8720721708
 20
73.3989577173
 30
0.0
 10
42.8663632195
 20
73.4899564803
 30
0.0
 10
42.860687859
 20
73.5626147593
 30
0.0
 10
42.8557279568
 20
73.611675574
 30
0.0
 10
42.8515129943
 20
73.6416288059
 30
0.0
 10
42.848726438
 20
73.6572575805
 30
0.0
 10
42.8459643952
 20
73.6681963806
 30
0.0
 10
42.843810043
 20
73.6739982496
 30
0.0
 10
42.8424434357
 20
73.6758463572
 30
0.0
  0
SPLINE
  5
2C8
100
AcDbEntity
  8
0
100
AcDbSpline
 62
7
  6
CONTINUOUS
 70
0
 71
3
 72
31
 73
27
 74
0
 42
0.0000001
 43
0.0000001
 44
0.0000000001
 40
0.0
 40
0.0
 40
0.0
 40
0.0
 40
0.2154016197
 40
0.3157133354
 40
0.4104845463
 40
0.4993022025
 40
0.5818263236
 40
0.6577370365
 40
0.7267125435
 40
0.7884388814
 40
0.8426448286
 40
0.8668485957
 40
0.8890889051
 40
0.9093499925
 40
0.9276161487
 40
0.943871457
 40
0.9580979571
 40
0.9702767644
 40
0.9803891925
 40
0.9884180019
 40
0.9916486369
 40
0.9943567442
 40
0.9965427556
 40
0.9982079328
 40
0.9993558713
 40
1.0
 40
1.0
 40
1.0
 40
1.0
 10
38.8399166641
 20
26.9525353675
 30
0.0
 10
38.8497922809
 20
25.8341081312
 30
0.0
 10
38.864832398
 20
24.1948384203
 30
0.0
 10
38.8858903452
 20
22.0635053158
 30
0.0
 10
38.9012912129
 20
20.5894346234
 30
0.0
 10
38.9166947164
 20
19.2077312191
 30
0.0
 10
38.9320891591
 20
17.9239671583
 30
0.0
 10
38.9474632391
 20
16.7432409924
 30
0.0
 10
38.9628143106
 20
15.6705167093
 30
0.0
 10
38.9781496096
 20
14.7105067657
 30
0.0
 10
38.9913374727
 20
13.9829702641
 30
0.0
 10
39.0020105536
 20
13.460454757
 30
0.0
 10
39.0097044494
 20
13.1141740798
 30
0.0
 10
39.0173961472
 20
12.7987326009
 30
0.0
 10
39.0250887273
 20
12.5143783765
 30
0.0
 10
39.0327859108
 20
12.2613713923
 30
0.0
 10
39.0404694266
 20
12.0399893239
 30
0.0
 10
39.0481005559
 20
11.8505227033
 30
0.0
 10
39.055659452
 20
11.693268171
 30
0.0
 10
39.062209804
 20
11.5824791115
 30
0.0
 10
39.0676207893
 20
11.5101595325
 30
0.0
 10
39.0713426157
 20
11.4681208032
 30
0.0
 10
39.0750663851
 20
11.4342991432
 30
0.0
 10
39.0786381544
 20
11.4084921315
 30
0.0
 10
39.0822969615
 20
11.3910835244
 30
0.0
 10
39.0849927542
 20
11.3818876412
 30
0.0
 10
39.0869834133
 20
11.3791999209
 30
0.0
  0
SPLINE
  5
2C9
100
AcDbEntity
  8
0
100
AcDbSpline
 62
7
  6
CONTINUOUS
 70
0
 71
3
 72
65
 73
61
 74
0
 42
0.0000001
 43
0.0000001
 44
0.0000000001
 40
0.0
 40
0.0
 40
0.0
 40
0.0
 40
0.0001122825
 40
0.0002948884
 40
0.0005501465
 40
0.0008787147
 40
0.0017563337
 40
0.0029277176
 40
0.0043918772
 40
0.0061475696
 40
0.0081938564
 40
0.0105301465
 40
0.0131558336
 40
0.0160702925
 40
0.0227629047
 40
0.0305972841
 40
0.0395528303
 40
0.049607824
 40
0.0607364782
 40
0.0729062726
 40
0.0860840768
 40
0.1153414879
 40
0.1482718671
 40
0.1845621729
 40
0.2238446042
 40
0.2657371571
 40
0.3098584378
 40
0.3558023184
 40
0.4031133734
 40
0.4513407797
 40
0.5000315882
 40
0.5487209537
 40
0.596947046
 40
0.6442549737
 40
0.6901970494
 40
0.7343211471
 40
0.7762076307
 40
0.815484236
 40
0.851770734
 40
0.8847025218
 40
0.9139563772
 40
0.9271274779
 40
0.9392917905
 40
0.9504180956
 40
0.960473695
 40
0.9694277186
 40
0.9772595623
 40
0.9839522463
 40
0.9868662794
 40
0.9894905212
 40
0.9918244442
 40
0.9938675407
 40
0.9956193352
 40
0.9970794095
 40
0.9982473539
 40
0.9991225202
 40
0.9994502906
 40
0.999705067
 40
0.9998875269
 40
1.0
 40
1.0
 40
1.0
 40
1.0
 10
46.5927180364
 20
72.6757974926
 30
0.0
 10
46.5940779386
 20
72.673996016
 30
0.0
 10
46.5962453068
 20
72.668344742
 30
0.0
 10
46.5990106801
 20
72.6576904495
 30
0.0
 10
46.6018030797
 20
72.6425020237
 30
0.0
 10
46.6060163328
 20
72.6134389905
 30
0.0
 10
46.6109734857
 20
72.5658773507
 30
0.0
 10
46.6166416296
 20
72.4954868229
 30
0.0
 10
46.6223434484
 20
72.4073919335
 30
0.0
 10
46.6280884857
 20
72.3016864222
 30
0.0
 10
46.6338511609
 20
72.1784266716
 30
0.0
 10
46.6396280787
 20
72.0376627104
 30
0.0
 10
46.6454145052
 20
71.8794337927
 30
0.0
 10
46.6535174033
 20
71.6336607503
 30
0.0
 10
46.6634799087
 20
71.2831879479
 30
0.0
 10
46.6749937222
 20
70.8112753572
 30
0.0
 10
46.6865371516
 20
70.2717544212
 30
0.0
 10
46.6981001669
 20
69.6659982241
 30
0.0
 10
46.7096739838
 20
68.9956180032
 30
0.0
 10
46.7212605775
 20
68.2624539442
 30
0.0
 10
46.7372872307
 20
67.1648862191
 30
0.0
 10
46.7570882733
 20
65.6499954206
 30
0.0
 10
46.7801388923
 20
63.6704961522
 30
0.0
 10
46.8032222223
 20
61.4894592953
 30
0.0
 10
46.8263351568
 20
59.128253537
 30
0.0
 10
46.8494783675
 20
56.6096206943
 30
0.0
 10
46.8726372369
 20
53.9570724296
 30
0.0
 10
46.8957969183
 20
51.1955960345
 30
0.0
 10
46.9189650754
 20
48.351574476
 30
0.0
 10
46.9421390606
 20
45.4523316983
 30
0.0
 10
46.9653177144
 20
42.5253809199
 30
0.0
 10
46.9884970613
 20
39.5984565618
 30
0.0
 10
47.0116716435
 20
36.6993320814
 30
0.0
 10
47.0348391494
 20
33.8554360856
 30
0.0
 10
47.0579999907
 20
31.0940022228
 30
0.0
 10
47.0811547215
 20
28.4415555866
 30
0.0
 10
47.1043016651
 20
25.9231052785
 30
0.0
 10
47.1274149585
 20
23.5622152058
 30
0.0
 10
47.1504981995
 20
21.3813437027
 30
0.0
 10
47.1735468838
 20
19.4019641295
 30
0.0
 10
47.19334559
 20
17.8872512278
 30
0.0
 10
47.2093771908
 20
16.790000038
 30
0.0
 10
47.2209647617
 20
16.0571282041
 30
0.0
 10
47.2325391237
 20
15.3868932583
 30
0.0
 10
47.2440978656
 20
14.7812026469
 30
0.0
 10
47.2556408579
 20
14.2417511165
 30
0.0
 10
47.2671587263
 20
13.7699187923
 30
0.0
 10
47.2771186346
 20
13.4195040341
 30
0.0
 10
47.2852212817
 20
13.17376717
 30
0.0
 10
47.2910076837
 20
13.0156235041
 30
0.0
 10
47.2967843597
 20
12.875000414
 30
0.0
 10
47.3025465746
 20
12.7519309213
 30
0.0
 10
47.3082915391
 20
12.6464503152
 30
0.0
 10
47.3139945439
 20
12.5585856482
 30
0.0
 10
47.31966308
 20
12.4883962014
 30
0.0
 10
47.324620789
 20
12.4409701549
 30
0.0
 10
47.3288335421
 20
12.4119823954
 30
0.0
 10
47.3316268178
 20
12.3968241292
 30
0.0
 10
47.3343925876
 20
12.3861772916
 30
0.0
 10
47.3365608331
 20
12.3805280683
 30
0.0
 10
47.3379175635
 20
12.3787194109
 30
0.0
  0
SPLINE
  5
2CA
100
AcDbEntity
  8
0
100
AcDbSpline
 62
7
  6
CONTINUOUS
 70
0
 71
3
 72
65
 73
61
 74
0
 42
0.0000001
 43
0.0000001
 44
0.0000000001
 40
0.0
 40
0.0
 40
0.0
 40
0.0
 40
0.0001124751
 40
0.0002951852
 40
0.0005507359
 40
0.0008800705
 40
0.0017610114
 40
0.0029380548
 40
0.0044101377
 40
0.0061759227
 40
0.0082339566
 40
0.0105827282
 40
0.0132206947
 40
0.0161462942
 40
0.0228540834
 40
0.0306934292
 40
0.0396515757
 40
0.0497109644
 40
0.06084234
 40
0.0730146778
 40
0.0861969437
 40
0.1154670917
 40
0.1484003484
 40
0.1846815719
 40
0.2239464481
 40
0.2658293158
 40
0.3099477592
 40
0.3558699345
 40
0.4031549206
 40
0.4513608525
 40
0.5000324123
 40
0.5487042428
 40
0.5969107545
 40
0.6441930755
 40
0.6901110997
 40
0.7342279752
 40
0.7761101503
 40
0.8153678767
 40
0.851642516
 40
0.8845761618
 40
0.9138403266
 40
0.927017219
 40
0.9391843276
 40
0.9503119173
 40
0.9603702625
 40
0.9693297338
 40
0.9771671173
 40
0.9838701052
 40
0.9867927052
 40
0.9894275216
 40
0.9917731787
 40
0.9938283201
 40
0.995591621
 40
0.9970618141
 40
0.9982377478
 40
0.9991185429
 40
0.9994482176
 40
0.9997042784
 40
0.9998873957
 40
1.0
 40
1.0
 40
1.0
 40
1.0
 10
31.592591054
 20
72.6755178721
 30
0.0
 10
31.593947707
 20
72.6737091106
 30
0.0
 10
31.5961163801
 20
72.6680543234
 30
0.0
 10
31.598881317
 20
72.6573860897
 30
0.0
 10
31.6016735788
 20
72.6421745546
 30
0.0
 10
31.6058865091
 20
72.613022165
 30
0.0
 10
31.610840626
 20
72.5652634563
 30
0.0
 10
31.6165057017
 20
72.4945318402
 30
0.0
 10
31.6222046844
 20
72.4059600434
 30
0.0
 10
31.6279466355
 20
72.2996553873
 30
0.0
 10
31.6337060714
 20
72.1757050504
 30
0.0
 10
31.6394801112
 20
72.0342067438
 30
0.0
 10
31.6452637395
 20
71.8752558558
 30
0.0
 10
31.6533580744
 20
71.6287067066
 30
0.0
 10
31.6633138223
 20
71.2776052952
 30
0.0
 10
31.674829007
 20
70.8052363111
 30
0.0
 10
31.6863678865
 20
70.265475793
 30
0.0
 10
31.6979222416
 20
69.6595252259
 30
0.0
 10
31.709492911
 20
68.9889520196
 30
0.0
 10
31.7210763407
 20
68.2555937602
 30
0.0
 10
31.7370975603
 20
67.157631149
 30
0.0
 10
31.7568845581
 20
65.6423394503
 30
0.0
 10
31.7799228993
 20
63.6627125017
 30
0.0
 10
31.8029949266
 20
61.4821573459
 30
0.0
 10
31.8261067662
 20
59.1216862817
 30
0.0
 10
31.849239932
 20
56.6036628029
 30
0.0
 10
31.8723780468
 20
53.9518075008
 30
0.0
 10
31.8955301264
 20
51.1913537537
 30
0.0
 10
31.9186922167
 20
48.3487296706
 30
0.0
 10
31.941857088
 20
45.4508350624
 30
0.0
 10
31.9650226742
 20
42.5250609205
 30
0.0
 10
31.9881883686
 20
39.599275122
 30
0.0
 10
32.0113521387
 20
36.7014169836
 30
0.0
 10
32.0345146936
 20
33.8589182723
 30
0.0
 10
32.0576679153
 20
31.0986330788
 30
0.0
 10
32.0808058177
 20
28.4469066685
 30
0.0
 10
32.1039362593
 20
25.9290723395
 30
0.0
 10
32.1270500572
 20
23.5688913155
 30
0.0
 10
32.1501254443
 20
21.3886044727
 30
0.0
 10
32.1731578969
 20
19.4092222849
 30
0.0
 10
32.1929456481
 20
17.8941510822
 30
0.0
 10
32.2089687802
 20
16.7965219482
 30
0.0
 10
32.2205528572
 20
16.0634529784
 30
0.0
 10
32.2321242668
 20
15.3930820155
 30
0.0
 10
32.2436794036
 20
14.7872019319
 30
0.0
 10
32.2552137113
 20
14.2474751157
 30
0.0
 10
32.2667287724
 20
13.7752154871
 30
0.0
 10
32.2766856877
 20
13.4243104375
 30
0.0
 10
32.2847810336
 20
13.1779815759
 30
0.0
 10
32.2905647686
 20
13.0192170414
 30
0.0
 10
32.2963389513
 20
12.8779029694
 30
0.0
 10
32.3020986146
 20
12.7541235174
 30
0.0
 10
32.3078408645
 20
12.6479651565
 30
0.0
 10
32.3135405081
 20
12.5595038726
 30
0.0
 10
32.3192063672
 20
12.4888357426
 30
0.0
 10
32.3241615964
 20
12.4410956835
 30
0.0
 10
32.3283732007
 20
12.4119289581
 30
0.0
 10
32.3311643757
 20
12.3966913293
 30
0.0
 10
32.333928089
 20
12.386001697
 30
0.0
 10
32.3360960202
 20
12.3803342154
 30
0.0
 10
32.3374542135
 20
12.378523363
 30
0.0
  0
SPLINE
  5
2CB
100
AcDbEntity
  8
0
100
AcDbSpline
 62
7
  6
CONTINUOUS
 70
0
 71
3
 72
11
 73
7
 74
0
 42
0.0000001
 43
0.0000001
 44
0.0000000001
 40
0.0
 40
0.0
 40
0.0
 40
0.0
 40
0.243080644
 40
0.4909811866
 40
0.7438652159
 40
1.0
 40
1.0
 40
1.0
 40
1.0
 10
13.6616334159
 20
76.507311058
 30
0.0
 10
13.7094668009
 20
76.6491840567
 30
0.0
 10
13.8543001361
 20
76.9217049889
 30
0.0
 10
14.1909294752
 20
77.2432116013
 30
0.0
 10
14.616385042
 20
77.4506011738
 30
0.0
 10
14.9319774793
 20
77.4981608883
 30
0.0
 10
15.0897375358
 20
77.4981608883
 30
0.0
  0
SPLINE
  5
2CC
100
AcDbEntity
  8
0
100
AcDbSpline
 62
7
  6
CONTINUOUS
 70
0
 71
3
 72
39
 73
35
 74
0
 42
0.0000001
 43
0.0000001
 44
0.0000000001
 40
0.0
 40
0.0
 40
0.0
 40
0.0
 40
0.0002176796
 40
0.0006029912
 40
0.0011609817
 40
0.0018932977
 40
0.0028007683
 40
0.0038839298
 40
0.0065788645
 40
0.0099790471
 40
0.0140785853
 40
0.0188699341
 40
0.024345474
 40
0.030497675
 40
0.0373201759
 40
0.0448072438
 40
0.0529531412
 40
0.0711954016
 40
0.0919692633
 40
0.115180623
 40
0.1407258897
 40
0.1684939755
 40
0.1983708591
 40
0.2302392129
 40
0.2639669691
 40
0.3363777692
 40
0.4143788505
 40
0.4966634669
 40
0.5818215242
 40
0.6684173431
 40
0.754986477
 40
0.8400598167
 40
0.9221911584
 40
1.0
 40
1.0
 40
1.0
 40
1.0
 10
38.3420052094
 20
73.6747870307
 30
0.0
 10
38.3440369324
 20
73.6720726225
 30
0.0
 10
38.3468320476
 20
73.6628155807
 30
0.0
 10
38.3505765751
 20
73.6452870781
 30
0.0
 10
38.3542366031
 20
73.6193508183
 30
0.0
 10
38.358030631
 20
73.5853616464
 30
0.0
 10
38.3618141608
 20
73.5431029199
 30
0.0
 10
38.3672993471
 20
73.4703317405
 30
0.0
 10
38.373906935
 20
73.3587092185
 30
0.0
 10
38.3815015914
 20
73.2001001366
 30
0.0
 10
38.3891578142
 20
73.0088062123
 30
0.0
 10
38.3968636412
 20
72.7851680061
 30
0.0
 10
38.4045913098
 20
72.5295415628
 30
0.0
 10
38.4123249513
 20
72.2422656564
 30
0.0
 10
38.4200595305
 20
71.9236481963
 30
0.0
 10
38.4277968997
 20
71.5739688819
 30
0.0
 10
38.4385271029
 20
71.046439754
 30
0.0
 10
38.4517771657
 20
70.3119661967
 30
0.0
 10
38.4671867268
 20
69.3428375405
 30
0.0
 10
38.4826191307
 20
68.2599453376
 30
0.0
 10
38.4980695935
 20
67.0681019484
 30
0.0
 10
38.5135371586
 20
65.772429096
 30
0.0
 10
38.5290185184
 20
64.3782619881
 30
0.0
 10
38.5445065644
 20
62.8912622314
 30
0.0
 10
38.5656623297
 20
60.7417807816
 30
0.0
 10
38.5918481267
 20
57.8737545491
 30
0.0
 10
38.6226249878
 20
54.2494215704
 30
0.0
 10
38.6534244799
 20
50.4265317069
 30
0.0
 10
38.6842442592
 20
46.4697668663
 30
0.0
 10
38.7150846519
 20
42.4462648765
 30
0.0
 10
38.7459035251
 20
38.4240823398
 30
0.0
 10
38.7767165241
 20
34.4714400962
 30
0.0
 10
38.8076496591
 20
30.6552529902
 30
0.0
 10
38.8284184214
 20
28.1641226304
 30
0.0
 10
38.8394602739
 20
26.9522281456
 30
0.0
  0
SPLINE
  5
2CD
100
AcDbEntity
  8
0
100
AcDbSpline
 62
7
  6
CONTINUOUS
 70
0
 71
3
 72
37
 73
33
 74
0
 42
0.0000001
 43
0.0000001
 44
0.0000000001
 40
0.0
 40
0.0
 40
0.0
 40
0.0
 40
0.000220043
 40
0.0006083476
 40
0.0011698583
 40
0.0019061193
 40
0.0028178531
 40
0.0039054878
 40
0.0066095179
 40
0.0100171825
 40
0.0141224443
 40
0.0189186677
 40
0.0243991322
 40
0.0305570717
 40
0.0373856926
 40
0.0530277195
 40
0.0712706239
 40
0.0920522729
 40
0.1152735613
 40
0.1408239189
 40
0.1685927532
 40
0.1984694585
 40
0.2303409421
 40
0.2640686363
 40
0.3364782959
 40
0.4144682818
 40
0.4967456822
 40
0.5818917801
 40
0.6684711895
 40
0.7550269546
 40
0.840086528
 40
1.0
 40
1.0
 40
1.0
 40
1.0
 10
39.0917115091
 20
72.6736688468
 30
0.0
 10
39.0937019786
 20
72.6710151509
 30
0.0
 10
39.0964737902
 20
72.6619943356
 30
0.0
 10
39.1001945469
 20
72.6449100288
 30
0.0
 10
39.1038589552
 20
72.619666719
 30
0.0
 10
39.1076673082
 20
72.586606498
 30
0.0
 10
39.111477475
 20
72.5455274113
 30
0.0
 10
39.1170066785
 20
72.4748417424
 30
0.0
 10
39.1236659988
 20
72.3665037069
 30
0.0
 10
39.1312841248
 20
72.2126675803
 30
0.0
 10
39.1389400644
 20
72.0272577931
 30
0.0
 10
39.1466302652
 20
71.8105798854
 30
0.0
 10
39.154338559
 20
71.5629404087
 30
0.0
 10
39.1620614312
 20
71.2846492196
 30
0.0
 10
39.1728665168
 20
70.8531964282
 30
0.0
 10
39.1861535018
 20
70.2395652352
 30
0.0
 10
39.2015259264
 20
69.4155868409
 30
0.0
 10
39.2169216783
 20
68.4773310277
 30
0.0
 10
39.2323495163
 20
67.4288998376
 30
0.0
 10
39.2477998621
 20
66.2751240112
 30
0.0
 10
39.2632670051
 20
65.02100707
 30
0.0
 10
39.2787463101
 20
63.6715900277
 30
0.0
 10
39.2942289359
 20
62.232335269
 30
0.0
 10
39.3153830419
 20
60.1519031323
 30
0.0
 10
39.3415633002
 20
57.3762313974
 30
0.0
 10
39.37233814
 20
53.8686647594
 30
0.0
 10
39.4031290339
 20
50.1690843022
 30
0.0
 10
39.4339484478
 20
46.3400107358
 30
0.0
 10
39.4647768862
 20
42.4464371187
 30
0.0
 10
39.4955980404
 20
38.5541678418
 30
0.0
 10
39.5358766984
 20
33.556398024
 30
0.0
 10
39.5670985023
 20
29.8634605544
 30
0.0
 10
39.5891364552
 20
27.4528003841
 30
0.0
  0
SPLINE
  5
2CE
100
AcDbEntity
  8
0
100
AcDbSpline
 62
7
  6
CONTINUOUS
 70
0
 71
3
 72
65
 73
61
 74
0
 42
0.0000001
 43
0.0000001
 44
0.0000000001
 40
0.0
 40
0.0
 40
0.0
 40
0.0
 40
0.000112221
 40
0.0002940168
 40
0.00054789
 40
0.0008746998
 40
0.0017484966
 40
0.0029170135
 40
0.004380892
 40
0.0061404988
 40
0.0081956844
 40
0.0105446186
 40
0.0131850259
 40
0.0161146111
 40
0.0228320708
 40
0.0306784582
 40
0.0396351572
 40
0.0496835151
 40
0.0608048581
 40
0.0729774548
 40
0.0861680147
 40
0.1154588703
 40
0.1483890882
 40
0.1846678278
 40
0.2239523931
 40
0.265850733
 40
0.3099688266
 40
0.3559016816
 40
0.4032040919
 40
0.4514216338
 40
0.5000996659
 40
0.5487793903
 40
0.5969982565
 40
0.6442935809
 40
0.6902113047
 40
0.7343271461
 40
0.7762232485
 40
0.8154844665
 40
0.8517434541
 40
0.8846738169
 40
0.9139505157
 40
0.9271211637
 40
0.9392750332
 40
0.9503877663
 40
0.9604350138
 40
0.9693924403
 40
0.9772357326
 40
0.983940628
 40
0.986859497
 40
0.9894878342
 40
0.9918250179
 40
0.9938704458
 40
0.9956235475
 40
0.9970838106
 40
0.9982508395
 40
0.9991245129
 40
0.9994515336
 40
0.9997056719
 40
0.9998876907
 40
1.0
 40
1.0
 40
1.0
 40
1.0
 10
25.5916851378
 20
72.6735668784
 30
0.0
 10
25.593038683
 20
72.6717623372
 30
0.0
 10
25.5952087846
 20
72.6661355111
 30
0.0
 10
25.5979742539
 20
72.6555258378
 30
0.0
 10
25.6007680054
 20
72.6404207749
 30
0.0
 10
25.6049822463
 20
72.6115003848
 30
0.0
 10
25.609941333
 20
72.5641129063
 30
0.0
 10
25.6156091937
 20
72.4938669601
 30
0.0
 10
25.6213104946
 20
72.4057619738
 30
0.0
 10
25.6270536711
 20
72.2998104646
 30
0.0
 10
25.6328120342
 20
72.176045725
 30
0.0
 10
25.638585558
 20
72.034560647
 30
0.0
 10
25.6443691148
 20
71.8754865747
 30
0.0
 10
25.6524640165
 20
71.6286282135
 30
0.0
 10
25.6624180137
 20
71.2771312028
 30
0.0
 10
25.6739324784
 20
70.8044830787
 30
0.0
 10
25.6854742276
 20
70.2648636927
 30
0.0
 10
25.6970381328
 20
69.6594015272
 30
0.0
 10
25.7086151941
 20
68.9892861173
 30
0.0
 10
25.7201983821
 20
68.2560007266
 30
0.0
 10
25.7362198181
 20
67.157514456
 30
0.0
 10
25.7559986746
 20
65.6417898423
 30
0.0
 10
25.7790542757
 20
63.6619742591
 30
0.0
 10
25.8021369436
 20
61.4812626519
 30
0.0
 10
25.8252432585
 20
59.1202734493
 30
0.0
 10
25.8483779616
 20
56.601698271
 30
0.0
 10
25.8715295119
 20
53.9494803465
 30
0.0
 10
25.8946836983
 20
51.1886310234
 30
0.0
 10
25.9178469991
 20
48.3453757767
 30
0.0
 10
25.9410167259
 20
45.4469378614
 30
0.0
 10
25.9641884847
 20
42.5208136357
 30
0.0
 10
25.9873593043
 20
39.5946627815
 30
0.0
 10
26.0105270002
 20
36.6963066507
 30
0.0
 10
26.0336895713
 20
33.8534713788
 30
0.0
 10
26.0568504873
 20
31.0931139891
 30
0.0
 10
26.0799986044
 20
28.4412904511
 30
0.0
 10
26.1031253694
 20
25.9232747739
 30
0.0
 10
26.1262392805
 20
23.5631970029
 30
0.0
 10
26.1493297078
 20
21.3833489586
 30
0.0
 10
26.1723725574
 20
19.4042119724
 30
0.0
 10
26.1921454267
 20
17.8891692237
 30
0.0
 10
26.2081772154
 20
16.791744465
 30
0.0
 10
26.2197656428
 20
16.0594090322
 30
0.0
 10
26.2313419024
 20
15.389865525
 30
0.0
 10
26.2429031178
 20
14.7845841093
 30
0.0
 10
26.2544411589
 20
14.2450345696
 30
0.0
 10
26.2659501709
 20
13.7726865461
 30
0.0
 10
26.2759030964
 20
13.42171985
 30
0.0
 10
26.2840042123
 20
13.1755726479
 30
0.0
 10
26.289789144
 20
13.0171933051
 30
0.0
 10
26.2955645451
 20
12.8763838193
 30
0.0
 10
26.3013254787
 20
12.7531829152
 30
0.0
 10
26.3070690661
 20
12.6476316027
 30
0.0
 10
26.3127702697
 20
12.5597604724
 30
0.0
 10
26.318437851
 20
12.4896199371
 30
0.0
 10
26.3233957831
 20
12.4422606785
 30
0.0
 10
26.3276086773
 20
12.4133330497
 30
0.0
 10
26.3304019743
 20
12.3982134411
 30
0.0
 10
26.3331672649
 20
12.3875922212
 30
0.0
 10
26.3353362875
 20
12.3819577028
 30
0.0
 10
26.3366909083
 20
12.3801517512
 30
0.0
  0
SPLINE
  5
2CF
100
AcDbEntity
  8
0
100
AcDbSpline
 62
7
  6
CONTINUOUS
 70
0
 71
3
 72
62
 73
58
 74
0
 42
0.0000001
 43
0.0000001
 44
0.0000000001
 40
0.0
 40
0.0
 40
0.0
 40
0.0
 40
0.0001122213
 40
0.0002939858
 40
0.0005477485
 40
0.0008743204
 40
0.0017470683
 40
0.0029134535
 40
0.0043737364
 40
0.0061279022
 40
0.0081758194
 40
0.0105172981
 40
0.0131518809
 40
0.0160775424
 40
0.0227914337
 40
0.030637575
 40
0.039594489
 40
0.0496406609
 40
0.0607545547
 40
0.0729146208
 40
0.0860969808
 40
0.1153850832
 40
0.1483150963
 40
0.2038649475
 40
0.265756456
 40
0.332635188
 40
0.4031000564
 40
0.475631432
 40
0.5486794357
 40
0.6206941858
 40
0.6901269714
 40
0.7554957493
 40
0.7862241779
 40
0.8154199623
 40
0.8429191715
 40
0.8685857811
 40
0.892290203
 40
0.9139028583
 40
0.9332946787
 40
0.9503591835
 40
0.9579950924
 40
0.965021321
 40
0.9714287888
 40
0.977208424
 40
0.9823511678
 40
0.9868479831
 40
0.9906899859
 40
0.9938719566
 40
0.9952151319
 40
0.9963930112
 40
0.997405564
 40
0.9982528124
 40
0.9989348827
 40
0.9994521384
 40
0.9998056219
 40
0.9999220348
 40
1.0
 40
1.0
 40
1.0
 40
1.0
 10
30.0924933578
 20
72.6748259866
 30
0.0
 10
30.0938469333
 20
72.6730213687
 30
0.0
 10
30.0960168028
 20
72.6673949277
 30
0.0
 10
30.0987822804
 20
72.6567878304
 30
0.0
 10
30.1015760483
 20
72.6416900355
 30
0.0
 10
30.1057896178
 20
72.6127969523
 30
0.0
 10
30.1107483408
 20
72.5654769964
 30
0.0
 10
30.11641624
 20
72.4953653592
 30
0.0
 10
30.1221176781
 20
72.4074824443
 30
0.0
 10
30.127861476
 20
72.3018556952
 30
0.0
 10
30.1336225899
 20
72.178492766
 30
0.0
 10
30.1393979984
 20
72.0374164638
 30
0.0
 10
30.1451812092
 20
71.8786831487
 30
0.0
 10
30.1532775881
 20
71.6320844782
 30
0.0
 10
30.1632306535
 20
71.2807313891
 30
0.0
 10
30.1747430648
 20
70.8081399352
 30
0.0
 10
30.1862834489
 20
70.2685472236
 30
0.0
 10
30.197846447
 20
69.6632543854
 30
0.0
 10
30.2094241057
 20
68.9935624316
 30
0.0
 10
30.2210129828
 20
68.2608193738
 30
0.0
 10
30.2370365229
 20
67.1627688616
 30
0.0
 10
30.2568125965
 20
65.6472183193
 30
0.0
 10
30.2843719139
 20
63.2800403958
 30
0.0
 10
30.3155262866
 20
60.2574778003
 30
0.0
 10
30.3499289316
 20
56.5524876095
 30
0.0
 10
30.3844215322
 20
52.5476689635
 30
0.0
 10
30.4189404596
 20
48.3289635958
 30
0.0
 10
30.4534875068
 20
43.9862415432
 30
0.0
 10
30.4880426542
 20
39.612363315
 30
0.0
 10
30.522580441
 20
35.300773852
 30
0.0
 10
30.5570946835
 20
31.1435548698
 30
0.0
 10
30.5863916189
 20
27.8162471915
 30
0.0
 10
30.6100739469
 20
25.2977547192
 30
0.0
 10
30.6274597092
 20
23.5404800958
 30
0.0
 10
30.6448431039
 20
21.8849619294
 30
0.0
 10
30.6622135905
 20
20.3398358789
 30
0.0
 10
30.679565262
 20
18.913047447
 30
0.0
 10
30.6968884281
 20
17.61240273
 30
0.0
 10
30.7141855509
 20
16.4452444205
 30
0.0
 10
30.7290690419
 20
15.5590390214
 30
0.0
 10
30.7411185255
 20
14.9213927783
 30
0.0
 10
30.7498110853
 20
14.4979466071
 30
0.0
 10
30.7584949116
 20
14.1118230709
 30
0.0
 10
30.7671673575
 20
13.7635710026
 30
0.0
 10
30.7758245774
 20
13.4537391456
 30
0.0
 10
30.7844564222
 20
13.1828731526
 30
0.0
 10
30.7930612578
 20
12.9514443013
 30
0.0
 10
30.8005480071
 20
12.7834141992
 30
0.0
 10
30.8066767572
 20
12.6689365499
 30
0.0
 10
30.8110013549
 20
12.598036449
 30
0.0
 10
30.8153082212
 20
12.5371231217
 30
0.0
 10
30.8196007019
 20
12.4862100231
 30
0.0
 10
30.8238314597
 20
12.4452732914
 30
0.0
 10
30.8280443711
 20
12.4143640344
 30
0.0
 10
30.8316844057
 20
12.3947914497
 30
0.0
 10
30.8349302446
 20
12.3842831863
 30
0.0
 10
30.8365784656
 20
12.3806800065
 30
0.0
 10
30.8375188484
 20
12.37942625
 30
0.0
  0
SPLINE
  5
2D0
100
AcDbEntity
  8
0
100
AcDbSpline
 62
7
  6
CONTINUOUS
 70
0
 71
3
 72
65
 73
61
 74
0
 42
0.0000001
 43
0.0000001
 44
0.0000000001
 40
0.0
 40
0.0
 40
0.0
 40
0.0
 40
0.0001112816
 40
0.0002915328
 40
0.0005433139
 40
0.0008675223
 40
0.00173472
 40
0.0028949764
 40
0.0043491688
 40
0.0060978509
 40
0.0081405579
 40
0.0104759497
 40
0.0131026284
 40
0.01601918
 40
0.0227161124
 40
0.0305504045
 40
0.0394981909
 40
0.0495349528
 40
0.0606371761
 40
0.0727826648
 40
0.0859489912
 40
0.1152124742
 40
0.1481195011
 40
0.1843635129
 40
0.223614722
 40
0.2654921706
 40
0.3095925972
 40
0.3555001123
 40
0.4027858184
 40
0.450994513
 40
0.4996658628
 40
0.5483412083
 40
0.5965579933
 40
0.6438589768
 40
0.689793951
 40
0.7339201408
 40
0.7758274953
 40
0.8151238239
 40
0.8514128401
 40
0.884363128
 40
0.9136765515
 40
0.926873193
 40
0.9390516347
 40
0.9501859205
 40
0.9602505261
 40
0.9692230087
 40
0.97708336
 40
0.9838119334
 40
0.9867465433
 40
0.9893923217
 40
0.9917475055
 40
0.993810346
 40
0.9955791345
 40
0.9970527388
 40
0.9982307929
 40
0.9991132507
 40
0.9994438499
 40
0.9997010436
 40
0.999885615
 40
1.0
 40
1.0
 40
1.0
 40
1.0
 10
45.0875616018
 20
11.3792938948
 30
0.0
 10
45.0861747596
 20
11.3811426681
 30
0.0
 10
45.0839627675
 20
11.3869135544
 30
0.0
 10
45.0811641036
 20
11.3977920562
 30
0.0
 10
45.0783552725
 20
11.4132811445
 30
0.0
 10
45.0741409373
 20
11.4429444959
 30
0.0
 10
45.0692212703
 20
11.491561056
 30
0.0
 10
45.063621426
 20
11.5636472616
 30
0.0
 10
45.0579927499
 20
11.654092203
 30
0.0
 10
45.0522999957
 20
11.7628849208
 30
0.0
 10
45.0465619301
 20
11.8899991327
 30
0.0
 10
45.0407895937
 20
12.0353618867
 30
0.0
 10
45.0349938822
 20
12.1988847653
 30
0.0
 10
45.0268680332
 20
12.452961883
 30
0.0
 10
45.016883965
 20
12.8151855622
 30
0.0
 10
45.0053767948
 20
13.3026682677
 30
0.0
 10
44.9938510836
 20
13.8595297496
 30
0.0
 10
44.9823000786
 20
14.4842726527
 30
0.0
 10
44.9707241792
 20
15.1754359569
 30
0.0
 10
44.9591331908
 20
15.9316028349
 30
0.0
 10
44.9431041349
 20
17.0649226049
 30
0.0
 10
44.923336724
 20
18.6294120762
 30
0.0
 10
44.9002906029
 20
20.6731789685
 30
0.0
 10
44.8772053814
 20
22.9243848497
 30
0.0
 10
44.8540970126
 20
25.3618992943
 30
0.0
 10
44.8309702855
 20
27.9625842965
 30
0.0
 10
44.8078261129
 20
30.701514055
 30
0.0
 10
44.7846678438
 20
33.5527675133
 30
0.0
 10
44.7615088117
 20
36.4893451759
 30
0.0
 10
44.738344543
 20
39.4833245215
 30
0.0
 10
44.7151759386
 20
42.5061650486
 30
0.0
 10
44.6920064507
 20
45.5291735965
 30
0.0
 10
44.6688409975
 20
48.52372124
 30
0.0
 10
44.6456811878
 20
51.4613545155
 30
0.0
 10
44.6225265291
 20
54.3140306695
 30
0.0
 10
44.5993796386
 20
57.0546868945
 30
0.0
 10
44.576247912
 20
59.6574651331
 30
0.0
 10
44.5531463844
 20
62.0974725611
 30
0.0
 10
44.5300597558
 20
64.3514487448
 30
0.0
 10
44.5070088562
 20
66.3980860571
 30
0.0
 10
44.4872428079
 20
67.9651409633
 30
0.0
 10
44.4712152429
 20
69.1008121306
 30
0.0
 10
44.4596232703
 20
69.8589590714
 30
0.0
 10
44.4480484368
 20
70.55205118
 30
0.0
 10
44.4365017936
 20
71.1785515027
 30
0.0
 10
44.4249792229
 20
71.7370457593
 30
0.0
 10
44.4134675513
 20
72.2262400723
 30
0.0
 10
44.4034677797
 20
72.590037269
 30
0.0
 10
44.3953297078
 20
72.8455435472
 30
0.0
 10
44.3895259491
 20
73.0102496136
 30
0.0
 10
44.3837530013
 20
73.156839127
 30
0.0
 10
44.3780249901
 20
73.2852017341
 30
0.0
 10
44.3723584357
 20
73.3952362788
 30
0.0
 10
44.3667713163
 20
73.4868761564
 30
0.0
 10
44.3612122033
 20
73.5600584926
 30
0.0
 10
44.3563186353
 20
73.6095004389
 30
0.0
 10
44.352110163
 20
73.6397326523
 30
0.0
 10
44.3492941065
 20
73.655559792
 30
0.0
 10
44.3464769722
 20
73.666710311
 30
0.0
 10
44.3442449179
 20
73.6726360829
 30
0.0
 10
44.3428426796
 20
73.6745536559
 30
0.0
  0
SPLINE
  5
2D1
100
AcDbEntity
  8
0
100
AcDbSpline
 62
7
  6
CONTINUOUS
 70
0
 71
3
 72
65
 73
61
 74
0
 42
0.0000001
 43
0.0000001
 44
0.0000000001
 40
0.0
 40
0.0
 40
0.0
 40
0.0
 40
0.0001097045
 40
0.0002890956
 40
0.0005405791
 40
0.0008649364
 40
0.0017333919
 40
0.0028956155
 40
0.004351839
 40
0.0061020329
 40
0.0081460569
 40
0.0104837155
 40
0.0131145585
 40
0.0160365778
 40
0.022743469
 40
0.0305829761
 40
0.0395336094
 40
0.0495738447
 40
0.0606821372
 40
0.0728369295
 40
0.0860143801
 40
0.1152938854
 40
0.1482168578
 40
0.1844760505
 40
0.2237487588
 40
0.2656460875
 40
0.3097614014
 40
0.3556870421
 40
0.4029905152
 40
0.4512136605
 40
0.499897133
 40
0.5485815872
 40
0.5968076774
 40
0.6441160585
 40
0.690048541
 40
0.7341724618
 40
0.7760801353
 40
0.8153649263
 40
0.8516377184
 40
0.8845756034
 40
0.9138713345
 40
0.92705739
 40
0.9392210347
 40
0.9503383639
 40
0.9603878202
 40
0.9693478586
 40
0.9771969546
 40
0.9839136182
 40
0.9868405922
 40
0.9894764348
 40
0.9918191115
 40
0.9938681571
 40
0.9956233756
 40
0.9970846255
 40
0.9982518744
 40
0.9991253472
 40
0.9994522034
 40
0.9997061697
 40
0.9998880023
 40
1.0
 40
1.0
 40
1.0
 40
1.0
 10
31.587609817
 20
11.379391337
 30
0.0
 10
31.586242714
 20
11.3812139739
 30
0.0
 10
31.5840792216
 20
11.3869514025
 30
0.0
 10
31.5813138343
 20
11.397776174
 30
0.0
 10
31.5785240617
 20
11.4132487796
 30
0.0
 10
31.5743074828
 20
11.4429340043
 30
0.0
 10
31.5693503833
 20
11.4916175204
 30
0.0
 10
31.5636825905
 20
11.5638077829
 30
0.0
 10
31.5579816447
 20
11.6543631126
 30
0.0
 10
31.5522376611
 20
11.7632543817
 30
0.0
 10
31.5464763491
 20
11.8904736616
 30
0.0
 10
31.5407005975
 20
12.0359974821
 30
0.0
 10
31.5349170009
 20
12.1997682297
 30
0.0
 10
31.5268194821
 20
12.45425356
 30
0.0
 10
31.5168654416
 20
12.8169071934
 30
0.0
 10
31.5053523264
 20
13.3047645369
 30
0.0
 10
31.4938111565
 20
13.8618658384
 30
0.0
 10
31.4822473076
 20
14.4868664404
 30
0.0
 10
31.4706687608
 20
15.1784218036
 30
0.0
 10
31.4590789637
 20
15.935139763
 30
0.0
 10
31.4430535903
 20
17.0692177154
 30
0.0
 10
31.4232764638
 20
18.6346035242
 30
0.0
 10
31.4002246778
 20
20.6793515123
 30
0.0
 10
31.3771308839
 20
22.9316523961
 30
0.0
 10
31.3540224332
 20
25.3703438141
 30
0.0
 10
31.3308891748
 20
27.9721997752
 30
0.0
 10
31.3077357619
 20
30.7122305327
 30
0.0
 10
31.2845749974
 20
33.5645412617
 30
0.0
 10
31.2614107231
 20
36.502167182
 30
0.0
 10
31.2382394895
 20
39.4970701523
 30
0.0
 10
31.2150652849
 20
42.5206545198
 30
0.0
 10
31.1918910736
 20
45.544300048
 30
0.0
 10
31.1687198204
 20
48.5393865005
 30
0.0
 10
31.1455555123
 20
51.4773176147
 30
0.0
 10
31.1223947456
 20
54.3300511329
 30
0.0
 10
31.0992412672
 20
57.0706175966
 30
0.0
 10
31.0761078999
 20
59.6731181107
 30
0.0
 10
31.0529993793
 20
62.1125577764
 30
0.0
 10
31.029905475
 20
64.3657017833
 30
0.0
 10
31.0068534406
 20
66.411378952
 30
0.0
 10
30.9870765124
 20
67.9775902254
 30
0.0
 10
30.9710516382
 20
69.1123677928
 30
0.0
 10
30.9594617907
 20
69.8696360516
 30
0.0
 10
30.9478831302
 20
70.5617545214
 30
0.0
 10
30.9363191309
 20
71.1873297252
 30
0.0
 10
30.9247777366
 20
71.7450171204
 30
0.0
 10
30.9132643053
 20
72.2334720475
 30
0.0
 10
30.9033104303
 20
72.5966308691
 30
0.0
 10
30.8952134482
 20
72.8515261141
 30
0.0
 10
30.8894297392
 20
73.0156079974
 30
0.0
 10
30.883653821
 20
73.1614444035
 30
0.0
 10
30.8778922049
 20
73.2889768135
 30
0.0
 10
30.872147848
 20
73.3981816023
 30
0.0
 10
30.866445991
 20
73.4890503453
 30
0.0
 10
30.860777288
 20
73.5615550102
 30
0.0
 10
30.8558188867
 20
73.6104988338
 30
0.0
 10
30.851604273
 20
73.64039554
 30
0.0
 10
30.8488123087
 20
73.6560213934
 30
0.0
 10
30.8460443918
 20
73.667005734
 30
0.0
 10
30.843881299
 20
73.6728385717
 30
0.0
 10
30.8425212198
 20
73.6747254863
 30
0.0
  0
SPLINE
  5
2D2
100
AcDbEntity
  8
0
100
AcDbSpline
 62
7
  6
CONTINUOUS
 70
0
 71
3
 72
15
 73
11
 74
0
 42
0.0000001
 43
0.0000001
 44
0.0000000001
 40
0.0
 40
0.0
 40
0.0
 40
0.0
 40
0.1271268034
 40
0.254020587
 40
0.3802406235
 40
0.5057074649
 40
0.6303126013
 40
0.7540806892
 40
0.8772856299
 40
1.0
 40
1.0
 40
1.0
 40
1.0
 10
15.0897375358
 20
74.4079909446
 30
0.0
 10
14.9908144905
 20
74.4079909446
 30
0.0
 10
14.79261316
 20
74.3885235703
 30
0.0
 10
14.5076296796
 20
74.3024820187
 30
0.0
 10
14.2458969562
 20
74.1631716799
 30
0.0
 10
14.0176121609
 20
73.9768253907
 30
0.0
 10
13.831281199
 20
73.7510047138
 30
0.0
 10
13.6933633739
 20
73.4947244681
 30
0.0
 10
13.6088265333
 20
73.2178890299
 30
0.0
 10
13.5897375358
 20
73.0260030609
 30
0.0
 10
13.5897375358
 20
72.9305135271
 30
0.0
  0
SPLINE
  5
2D3
100
AcDbEntity
  8
0
100
AcDbSpline
 62
7
  6
CONTINUOUS
 70
0
 71
3
 72
67
 73
63
 74
0
 42
0.0000001
 43
0.0000001
 44
0.0000000001
 40
0.0
 40
0.0
 40
0.0
 40
0.0
 40
0.0001101316
 40
0.0002909612
 40
0.0005448761
 40
0.0008725171
 40
0.0017495237
 40
0.0029219884
 40
0.0043890022
 40
0.0061493973
 40
0.0082018962
 40
0.0105451672
 40
0.0131778483
 40
0.0160985598
 40
0.0227984976
 40
0.030633781
 40
0.0395920998
 40
0.0496502629
 40
0.0607786068
 40
0.0729473696
 40
0.0861267804
 40
0.1153984325
 40
0.1483426157
 40
0.1846305116
 40
0.2239037992
 40
0.2658034203
 40
0.3099391394
 40
0.3558768934
 40
0.4031793254
 40
0.451405799
 40
0.5000968779
 40
0.5487864345
 40
0.59700858
 40
0.644307531
 40
0.6902409269
 40
0.734367337
 40
0.7762545599
 40
0.815519943
 40
0.8517974031
 40
0.8847222617
 40
0.8998253823
 40
0.913979532
 40
0.9271536294
 40
0.9393165972
 40
0.9504373641
 40
0.9604848677
 40
0.9694299099
 40
0.9772550774
 40
0.9839475971
 40
0.986865145
 40
0.9894947776
 40
0.991834929
 40
0.9938840511
 40
0.9956406266
 40
0.9971031931
 40
0.9982704006
 40
0.9987429003
 40
0.9991412018
 40
0.9994653111
 40
0.9997155553
 40
0.9998928844
 40
1.0
 40
1.0
 40
1.0
 40
1.0
 10
33.0875425756
 20
11.3784619961
 30
0.0
 10
33.0861701796
 20
11.3802918405
 30
0.0
 10
33.0840083344
 20
11.3860744739
 30
0.0
 10
33.0812436844
 20
11.3969896857
 30
0.0
 10
33.0784558088
 20
11.412615103
 30
0.0
 10
33.0742398788
 20
11.4425999834
 30
0.0
 10
33.0692848437
 20
11.4917463213
 30
0.0
 10
33.063617381
 20
11.5645549588
 30
0.0
 10
33.0579165355
 20
11.6557631126
 30
0.0
 10
33.0521723829
 20
11.7652706173
 30
0.0
 10
33.0464108012
 20
11.8929988623
 30
0.0
 10
33.0406345633
 20
12.0388582743
 30
0.0
 10
33.0348487323
 20
12.2027617829
 30
0.0
 10
33.0267498469
 20
12.4571216667
 30
0.0
 10
33.0167889874
 20
12.8195272122
 30
0.0
 10
33.0052697556
 20
13.3073273572
 30
0.0
 10
32.9937311839
 20
13.8648907144
 30
0.0
 10
32.9821717587
 20
14.4908597735
 30
0.0
 10
32.9705960112
 20
15.1835161837
 30
0.0
 10
32.9590075661
 20
15.9410055317
 30
0.0
 10
32.9429780024
 20
17.0752871262
 30
0.0
 10
32.9231825531
 20
18.6410404634
 30
0.0
 10
32.9001414711
 20
20.686726979
 30
0.0
 10
32.8770574046
 20
22.9401480531
 30
0.0
 10
32.853934864
 20
25.3795723978
 30
0.0
 10
32.8307956663
 20
27.9819941888
 30
0.0
 10
32.8076489847
 20
30.7228348165
 30
0.0
 10
32.784486965
 20
33.5758896682
 30
0.0
 10
32.7613156093
 20
36.5139076893
 30
0.0
 10
32.738143045
 20
39.5091110121
 30
0.0
 10
32.7149685495
 20
42.5331242421
 30
0.0
 10
32.6917941733
 20
45.5570475801
 30
0.0
 10
32.6686205044
 20
48.5520570824
 30
0.0
 10
32.6454496535
 20
51.4898223987
 30
0.0
 10
32.6222888295
 20
54.3425211011
 30
0.0
 10
32.5991420539
 20
57.0828203639
 30
0.0
 10
32.5759999611
 20
59.684627099
 30
0.0
 10
32.5528802707
 20
62.1234130513
 30
0.0
 10
32.5297974162
 20
64.3760517866
 30
0.0
 10
32.5100703173
 20
66.1268738561
 30
0.0
 10
32.4941287934
 20
67.4182310816
 30
0.0
 10
32.4825251411
 20
68.2994083728
 30
0.0
 10
32.4709288345
 20
69.1195163266
 30
0.0
 10
32.4593416719
 20
69.8766175739
 30
0.0
 10
32.447766702
 20
70.5687748205
 30
0.0
 10
32.4362082498
 20
71.194089299
 30
0.0
 10
32.4246652776
 20
71.7509451914
 30
0.0
 10
32.4131463322
 20
72.2381052632
 30
0.0
 10
32.403186396
 20
72.600080789
 30
0.0
 10
32.3950879333
 20
72.8541574837
 30
0.0
 10
32.389302218
 20
73.0178670045
 30
0.0
 10
32.3835268734
 20
73.1635282626
 30
0.0
 10
32.3777643289
 20
73.2910413974
 30
0.0
 10
32.372025635
 20
73.4003087924
 30
0.0
 10
32.3663133556
 20
73.4912299842
 30
0.0
 10
32.3613237766
 20
73.5554742161
 30
0.0
 10
32.357191918
 20
73.5975984047
 30
0.0
 10
32.3543314636
 20
73.6222572246
 30
0.0
 10
32.3514845831
 20
73.6422449626
 30
0.0
 10
32.3486995252
 20
73.6576493616
 30
0.0
 10
32.3459370252
 20
73.6683393203
 30
0.0
 10
32.34377355
 20
73.6739895244
 30
0.0
 10
32.3423938484
 20
73.6757346908
 30
0.0
  0
SPLINE
  5
2D4
100
AcDbEntity
  8
0
100
AcDbSpline
 62
7
  6
CONTINUOUS
 70
0
 71
3
 72
65
 73
61
 74
0
 42
0.0000001
 43
0.0000001
 44
0.0000000001
 40
0.0
 40
0.0
 40
0.0
 40
0.0
 40
0.0001097155
 40
0.0002891301
 40
0.0005406735
 40
0.0008651511
 40
0.0017341247
 40
0.0028973956
 40
0.0043553864
 40
0.0061082583
 40
0.0081560616
 40
0.0104984933
 40
0.0131336249
 40
0.0160589776
 40
0.0227703698
 40
0.0306126679
 40
0.0395657968
 40
0.0496096467
 40
0.0607240879
 40
0.0728886749
 40
0.0860750451
 40
0.115365366
 40
0.1482974083
 40
0.1845728111
 40
0.2238610135
 40
0.2657685854
 40
0.3098948152
 40
0.3558348623
 40
0.4031490437
 40
0.4513801701
 40
0.5000709048
 40
0.5487625535
 40
0.5969939262
 40
0.6443035655
 40
0.6902338896
 40
0.7343577684
 40
0.7762624706
 40
0.8155357552
 40
0.851798347
 40
0.8847280815
 40
0.914008505
 40
0.927181959
 40
0.939334634
 40
0.9504433763
 40
0.9604852092
 40
0.969437169
 40
0.9772763126
 40
0.9839797319
 40
0.9868984132
 40
0.9895253855
 40
0.9918600494
 40
0.9939019886
 40
0.9956508169
 40
0.9971062036
 40
0.9982679288
 40
0.9991360343
 40
0.9994602134
 40
0.9997114864
 40
0.9998906148
 40
1.0
 40
1.0
 40
1.0
 40
1.0
 10
34.5875798859
 20
11.3794960647
 30
0.0
 10
34.5862126575
 20
11.3813189075
 30
0.0
 10
34.5840486587
 20
11.3870569203
 30
0.0
 10
34.5812828266
 20
11.3978836847
 30
0.0
 10
34.5784925852
 20
11.4133605749
 30
0.0
 10
34.5742750032
 20
11.443060448
 30
0.0
 10
34.5693169085
 20
11.4917793016
 30
0.0
 10
34.5636482114
 20
11.5640392456
 30
0.0
 10
34.5579464121
 20
11.6547092387
 30
0.0
 10
34.5522015585
 20
11.7637720031
 30
0.0
 10
34.5464396611
 20
11.8912253106
 30
0.0
 10
34.5406651125
 20
12.037016729
 30
0.0
 10
34.5348806406
 20
12.2010457653
 30
0.0
 10
34.5267826905
 20
12.4557841291
 30
0.0
 10
34.5168266298
 20
12.8186600894
 30
0.0
 10
34.5053105469
 20
13.3067228913
 30
0.0
 10
34.4937667565
 20
13.8640115551
 30
0.0
 10
34.4822006098
 20
14.4892695757
 30
0.0
 10
34.470619754
 20
15.1812342668
 30
0.0
 10
34.4590309472
 20
15.9384720783
 30
0.0
 10
34.4430051282
 20
17.0731684829
 30
0.0
 10
34.4232229423
 20
18.6391595639
 30
0.0
 10
34.4001644031
 20
20.6846663904
 30
0.0
 10
34.3770705973
 20
22.9378242837
 30
0.0
 10
34.3539596969
 20
25.3773978871
 30
0.0
 10
34.3308209315
 20
27.9800267855
 30
0.0
 10
34.3076632322
 20
30.7208085245
 30
0.0
 10
34.2845013032
 20
33.5738804262
 30
0.0
 10
34.2613329605
 20
36.5122069263
 30
0.0
 10
34.2381578158
 20
39.5076623564
 30
0.0
 10
34.2149799484
 20
42.531726335
 30
0.0
 10
34.1918027713
 20
45.5557954334
 30
0.0
 10
34.1686285949
 20
48.5511806341
 30
0.0
 10
34.1454609141
 20
51.4892159837
 30
0.0
 10
34.1222949028
 20
54.3419427515
 30
0.0
 10
34.0991393968
 20
57.0824141376
 30
0.0
 10
34.0760050063
 20
59.6846248155
 30
0.0
 10
34.0528896694
 20
62.1235628717
 30
0.0
 10
34.029792012
 20
64.3760968819
 30
0.0
 10
34.0067398662
 20
66.4210841986
 30
0.0
 10
33.9869621195
 20
67.9865535753
 30
0.0
 10
33.9709296462
 20
69.1205286253
 30
0.0
 10
33.9593376777
 20
69.8771323129
 30
0.0
 10
33.9477580062
 20
70.5686893227
 30
0.0
 10
33.9361931464
 20
71.1937628064
 30
0.0
 10
33.9246513149
 20
71.7509197996
 30
0.0
 10
33.9131378992
 20
72.238727215
 30
0.0
 10
33.9031829204
 20
72.6012334365
 30
0.0
 10
33.8950823368
 20
72.8554978947
 30
0.0
 10
33.8892960903
 20
73.0190572522
 30
0.0
 10
33.8835193785
 20
73.1643956603
 30
0.0
 10
33.8777572651
 20
73.2914814899
 30
0.0
 10
33.8720125175
 20
73.4002840327
 30
0.0
 10
33.8663109098
 20
73.4907835683
 30
0.0
 10
33.8606425035
 20
73.5629388871
 30
0.0
 10
33.8556852031
 20
73.6116014199
 30
0.0
 10
33.8514679713
 20
73.6412708761
 30
0.0
 10
33.8486783275
 20
73.6567304455
 30
0.0
 10
33.8459129979
 20
73.6675370983
 30
0.0
 10
33.8437494947
 20
73.6732636048
 30
0.0
 10
33.8423805458
 20
73.6750765664
 30
0.0
  0
SPLINE
  5
2D5
100
AcDbEntity
  8
0
100
AcDbSpline
 62
7
  6
CONTINUOUS
 70
0
 71
3
 72
15
 73
11
 74
0
 42
0.0000001
 43
0.0000001
 44
0.0000000001
 40
0.0
 40
0.0
 40
0.0
 40
0.0
 40
0.0881273908
 40
0.1829021875
 40
0.2890916548
 40
0.4090044256
 40
0.5425453605
 40
0.687789256
 40
0.8416970942
 40
1.0
 40
1.0
 40
1.0
 40
1.0
 10
13.5897375358
 20
66.3969207931
 30
0.0
 10
13.5897375358
 20
66.4518100605
 30
0.0
 10
13.6105406752
 20
66.5665241907
 30
0.0
 10
13.6996118056
 20
66.725940228
 30
0.0
 10
13.8408179964
 20
66.8699722278
 30
0.0
 10
14.0282189317
 20
66.9949376007
 30
0.0
 10
14.2555458303
 20
67.0971579842
 30
0.0
 10
14.5148579498
 20
67.1732141773
 30
0.0
 10
14.7965114717
 20
67.2200464455
 30
0.0
 10
14.9911401479
 20
67.2305841646
 30
0.0
 10
15.0897375358
 20
67.2305841646
 30
0.0
  0
ENDSEC
  0
SECTION
  2
OBJECTS
  0
DICTIONARY
  5
C
100
AcDbDictionary
280
0
281
1
  3
ACAD_GROUP
350
D
  3
ACAD_MLINESTYLE
350
17
  3
ACAD_LAYOUT
350
1A
  3
ACAD_PLOTSETTINGS
350
19
  3
ACAD_PLOTSTYLENAME
350
E
  0
DICTIONARY
  5
D
102
{ACAD_REACTORS
330
C
102
}
100
AcDbDictionary
280
0
281
1
  0
ACDBDICTIONARYWDFLT
  5
E
102
{ACAD_REACTORS
330
C
102
}
100
AcDbDictionary
281
1
  3
Normal
350
F
100
AcDbDictionaryWithDefault
340
F
  0
DICTIONARY
  5
17
102
{ACAD_REACTORS
330
C
102
}
100
AcDbDictionary
280
0
281
1
  3
Standard
350
18
  0
DICTIONARY
  5
19
102
{ACAD_REACTORS
330
C
102
}
100
AcDbDictionary
281
1
  0
DICTIONARY
  5
1A
102
{ACAD_REACTORS
330
C
102
}
100
AcDbDictionary
281
1
  3
Model
350
2D6
  3
Layout1
350
2D7
  0
ACDBPLACEHOLDER
  5
F
102
{ACAD_REACTORS
330
E
102
}
  0
MLINESTYLE
  5
18
102
{ACAD_REACTORS
330
17
102
}
100
AcDbMlineStyle
  2
STANDARD
 70
0
  3

 62
256
 51
90.0
 52
90.0
 71
2
 49
0.5
 62
256
  6
BYLAYER
 49
-0.5
 62
256
  6
BYLAYER
  0
LAYOUT
  5
2D6
102
{ACAD_REACTORS
330
1A
102
}
100
AcDbPlotSettings
  1

  2
none_device
  4

  6

 40
0.0
 41
0.0
 42
0.0
 43
0.0
 44
210.0
 45
297.0
 46
0.0
 47
0.0
 48
0.0
 49
0.0
140
0.0
141
0.0
142
1.0
143
1.0
 70
1024
 72
1
 73
0
 74
0
  7

 75
0
147
1.0
148
0.0
149
0.0
100
AcDbLayout
  1
Model
 70
0
 71
0
 10
0.0
 20
0.0
 11
210.0
 21
297.0
 12
0.0
 22
0.0
 32
0.0
 14
0.0
 24
0.0
 34
0.0
 15
0.0
 25
0.0
 35
0.0
146
0.0
 13
0.0
 23
0.0
 33
0.0
 16
1.0
 26
0.0
 36
0.0
 17
0.0
 27
1.0
 37
0.0
 76
0
330
210
345
0
346
0
  0
LAYOUT
  5
2D7
102
{ACAD_REACTORS
330
1A
102
}
100
AcDbPlotSettings
  1

  2
none_device
  4

  6

 40
0.0
 41
0.0
 42
0.0
 43
0.0
 44
210.0
 45
297.0
 46
0.0
 47
0.0
 48
0.0
 49
0.0
140
0.0
141
0.0
142
1.0
143
1.0
 70
0
 72
1
 73
0
 74
0
  7

 75
0
147
1.0
148
0.0
149
0.0
100
AcDbLayout
  1
Layout1
 70
0
 71
1
 10
0.0
 20
0.0
 11
210.0
 21
297.0
 12
0.0
 22
0.0
 32
0.0
 14
0.0
 24
0.0
 34
0.0
 15
0.0
 25
0.0
 35
0.0
146
0.0
 13
0.0
 23
0.0
 33
0.0
 16
1.0
 26
0.0
 36
0.0
 17
0.0
 27
1.0
 37
0.0
 76
0
330
211
345
0
346
0
  0
ENDSEC
  0
EOF
