999
DXF file: C:\Users\sesa63760\Dev\_Creo\CAD\MCADPD0005308_3D-CAD\drw0001_2.dxf
999
Pro/ENGINEER 2019471 by Parametric Technology Corporation
  0
SECTION
  2
HEADER
  9
$ACADVER
  1
AC1024
  9
$DWGCODEPAGE
  3
ANSI_1252
  9
$EXTMAX
 10
226.5399088929
 20
320.3921568627
 30
0.0
  9
$EXTMIN
 10
0.0
 20
0.0
 30
0.0
  9
$LIMMIN
 10
0.0
 20
0.0
  9
$LIMMAX
 10
226.5399088929
 20
320.3921568627
  9
$VIEWCTR
 10
113.2699544464
 20
160.1960784314
  9
$VIEWSIZE
 40
320.3921568627
  9
$CLAYER
  8
0
  9
$LTSCALE
 40
20.884822077
  9
$CELTYPE
  6
BYLAYER
  9
$DIMSCALE
 40
1.0
  9
$DIMASZ
 40
2.6969036773
  9
$DIMEXO
 40
1.0
  9
$DIMDLI
 40
14.429513435
  9
$DIMEXE
 40
1.0
  9
$DIMCEN
 40
3.4175163399
  9
$DIMLFAC
 40
1.0
  9
$DIMBLK
  1
_FILLED
  9
$DIMALT
 70
0
  9
$DIMALTF
 40
0.0393700787
  9
$DIMTXT
 40
3.7756651482
  9
$DIMTOL
 70
1
  9
$DIMLIM
 70
0
  9
$DIMTFAC
 40
1.0
  9
$DIMTP
 40
0.01
  9
$DIMTM
 40
0.01
  9
$DIMGAP
 40
0.625
  9
$DIMDSEP
 70
46
  9
$AUNITS
 70
0
  9
$PDMODE
 70
3
  9
$PDSIZE
 40
0.3125
  9
$HANDSEED
  5
25B
  9
$TILEMODE
 70
1
  9
$MEASUREMENT
 70
1
  9
$INSUNITS
 70
4
  0
ENDSEC
  0
SECTION
  2
CLASSES
  0
CLASS
  1
ACDBDICTIONARYWDFLT
  2
AcDbDictionaryWithDefault
  3
AutoCAD 2000
 90
0
 91
1
280
0
281
0
  0
CLASS
  1
ACDBPLACEHOLDER
  2
AcDbPlaceHolder
  3
AutoCAD 2000
 90
0
 91
1
280
0
281
0
  0
CLASS
  1
LAYOUT
  2
AcDbLayout
  3
AutoCAD 2000
 90
0
 91
0
280
0
281
0
  0
ENDSEC
  0
SECTION
  2
TABLES
  0
TABLE
  2
VPORT
  5
8
100
AcDbSymbolTable
 70
2
  0
VPORT
  5
1F4
100
AcDbSymbolTableRecord
100
AcDbViewportTableRecord
  2
*ACTIVE
 70
0
 10
0.0
 20
0.0
 11
1.0
 21
1.0
 12
113.2699544464
 22
160.1960784314
 13
0.0
 23
0.0
 14
1.0
 24
1.0
 15
0.0
 25
0.0
 16
0.0
 26
0.0
 36
1.0
 17
0.0
 27
0.0
 37
0.0
 40
320.3921568627
 41
0.7070707071
 42
50.0
 43
0.0
 44
0.0
 50
0.0
 51
0.0
 71
0
 72
100
 73
1
 74
1
 75
0
 76
0
 77
0
 78
0
  0
ENDTAB
  0
TABLE
  2
LTYPE
  5
5
100
AcDbSymbolTable
 70
6
  0
LTYPE
  5
14
100
AcDbSymbolTableRecord
100
AcDbLinetypeTableRecord
  2
BYBLOCK
 70
0
  3

 72
65
 73
0
 40
0.0
  0
LTYPE
  5
15
100
AcDbSymbolTableRecord
100
AcDbLinetypeTableRecord
  2
BYLAYER
 70
0
  3

 72
65
 73
0
 40
0.0
  0
LTYPE
  5
16
100
AcDbSymbolTableRecord
100
AcDbLinetypeTableRecord
  2
CONTINUOUS
 70
64
  3
Solid line
 72
65
 73
0
 40
0.0
  0
LTYPE
  5
1F5
100
AcDbSymbolTableRecord
100
AcDbLinetypeTableRecord
  2
CENTER
 70
64
  3
____ _ ____ _ ____ _ ____ _ ____ _ ____ _ ____
 72
65
 73
4
 40
0.6
 49
0.375
 74
0
 49
-0.075
 74
0
 49
0.075
 74
0
 49
-0.075
 74
0
  0
LTYPE
  5
1F6
100
AcDbSymbolTableRecord
100
AcDbLinetypeTableRecord
  2
HIDDEN
 70
64
  3
- - - - - - - - - - - - - - - - - - - -
 72
65
 73
2
 40
0.2
 49
0.1
 74
0
 49
-0.1
 74
0
  0
LTYPE
  5
1F7
100
AcDbSymbolTableRecord
100
AcDbLinetypeTableRecord
  2
PHANTOM
 70
64
  3
_____ _ _ _____ _ _ _____ _ _ _____
 72
65
 73
6
 40
0.8
 49
0.45
 74
0
 49
-0.05
 74
0
 49
0.1
 74
0
 49
-0.05
 74
0
 49
0.1
 74
0
 49
-0.05
 74
0
  0
LTYPE
  5
1F8
100
AcDbSymbolTableRecord
100
AcDbLinetypeTableRecord
  2
DOT
 70
64
  3
. . . . . . . . . . . . . . . . . . . .
 72
65
 73
2
 40
0.2
 49
0.1
 74
0
 49
-0.1
 74
0
  0
LTYPE
  5
1F9
100
AcDbSymbolTableRecord
100
AcDbLinetypeTableRecord
  2
DASHED
 70
64
  3
- - - - - - - - - - - - - - - - - - - -
 72
65
 73
2
 40
0.2
 49
0.1
 74
0
 49
-0.1
 74
0
  0
ENDTAB
  0
TABLE
  2
LAYER
  5
2
100
AcDbSymbolTable
 70
36
  0
LAYER
  5
10
100
AcDbSymbolTableRecord
100
AcDbLayerTableRecord
  2
0
 70
0
 62
7
  6
CONTINUOUS
370
-3
390
F
  0
LAYER
  5
1FA
100
AcDbSymbolTableRecord
100
AcDbLayerTableRecord
  2
DEFAULT_1
 70
0
 62
7
  6
CENTER
370
-3
390
F
  0
LAYER
  5
1FB
100
AcDbSymbolTableRecord
100
AcDbLayerTableRecord
  2
DEFAULT_2
 70
0
 62
7
  6
HIDDEN
370
-3
390
F
  0
LAYER
  5
1FC
100
AcDbSymbolTableRecord
100
AcDbLayerTableRecord
  2
DEFAULT_3
 70
0
 62
7
  6
PHANTOM
370
-3
390
F
  0
LAYER
  5
1FD
100
AcDbSymbolTableRecord
100
AcDbLayerTableRecord
  2
00_COMPONENTS
 70
0
 62
7
  6
CONTINUOUS
370
-3
390
F
  0
LAYER
  5
1FE
100
AcDbSymbolTableRecord
100
AcDbLayerTableRecord
  2
01_1_DEFAULT_DATUMS
 70
0
 62
7
  6
CONTINUOUS
370
-3
390
F
  0
LAYER
  5
1FF
100
AcDbSymbolTableRecord
100
AcDbLayerTableRecord
  2
01_PLANES
 70
0
 62
7
  6
CONTINUOUS
370
-3
390
F
  0
LAYER
  5
200
100
AcDbSymbolTableRecord
100
AcDbLayerTableRecord
  2
02_COORD_SYS
 70
0
 62
7
  6
CONTINUOUS
370
-3
390
F
  0
LAYER
  5
201
100
AcDbSymbolTableRecord
100
AcDbLayerTableRecord
  2
03_AXES
 70
0
 62
7
  6
CONTINUOUS
370
-3
390
F
  0
LAYER
  5
202
100
AcDbSymbolTableRecord
100
AcDbLayerTableRecord
  2
04_POINTS
 70
0
 62
7
  6
CONTINUOUS
370
-3
390
F
  0
LAYER
  5
203
100
AcDbSymbolTableRecord
100
AcDbLayerTableRecord
  2
05_CURVES
 70
0
 62
7
  6
CONTINUOUS
370
-3
390
F
  0
LAYER
  5
204
100
AcDbSymbolTableRecord
100
AcDbLayerTableRecord
  2
06_SURFS
 70
0
 62
7
  6
CONTINUOUS
370
-3
390
F
  0
LAYER
  5
205
100
AcDbSymbolTableRecord
100
AcDbLayerTableRecord
  2
07_COSMETICS
 70
0
 62
7
  6
CONTINUOUS
370
-3
390
F
  0
LAYER
  5
206
100
AcDbSymbolTableRecord
100
AcDbLayerTableRecord
  2
10_NOTES
 70
0
 62
7
  6
CONTINUOUS
370
-3
390
F
  0
LAYER
  5
207
100
AcDbSymbolTableRecord
100
AcDbLayerTableRecord
  2
11_NOTES_PUB
 70
0
 62
7
  6
CONTINUOUS
370
-3
390
F
  0
LAYER
  5
208
100
AcDbSymbolTableRecord
100
AcDbLayerTableRecord
  2
13_REF_GTOL
 70
0
 62
7
  6
CONTINUOUS
370
-3
390
F
  0
LAYER
  5
209
100
AcDbSymbolTableRecord
100
AcDbLayerTableRecord
  2
16_MISC
 70
0
 62
7
  6
CONTINUOUS
370
-3
390
F
  0
LAYER
  5
20A
100
AcDbSymbolTableRecord
100
AcDbLayerTableRecord
  2
17_NO_PRINT
 70
0
 62
7
  6
CONTINUOUS
370
-3
390
F
  0
LAYER
  5
20B
100
AcDbSymbolTableRecord
100
AcDbLayerTableRecord
  2
18_DATUM_CAMS_JOINTS
 70
0
 62
7
  6
CONTINUOUS
370
-3
390
F
  0
LAYER
  5
20C
100
AcDbSymbolTableRecord
100
AcDbLayerTableRecord
  2
19_DATUM_FUNCTIONAL
 70
0
 62
7
  6
CONTINUOUS
370
-3
390
F
  0
LAYER
  5
20D
100
AcDbSymbolTableRecord
100
AcDbLayerTableRecord
  2
20_DATUM_KINEMATIC_SCHEME
 70
0
 62
7
  6
CONTINUOUS
370
-3
390
F
  0
ENDTAB
  0
TABLE
  2
STYLE
  5
3
100
AcDbSymbolTable
 70
1
  0
STYLE
  5
11
100
AcDbSymbolTableRecord
100
AcDbTextStyleTableRecord
  2
STANDARD
 70
0
 40
0.0
 41
1.0
 50
0.0
 71
0
 42
0.2
  3
ARIAL.TTF
  4

  0
STYLE
  5
20E
100
AcDbSymbolTableRecord
100
AcDbTextStyleTableRecord
  2
TEXTSTYLE_1
 70
0
 40
0.0
 41
0.8
 50
0.0
 71
0
 42
0.2
  3
gdt
  4

  0
ENDTAB
  0
TABLE
  2
VIEW
  5
6
100
AcDbSymbolTable
 70
0
  0
ENDTAB
  0
TABLE
  2
UCS
  5
7
100
AcDbSymbolTable
 70
0
  0
ENDTAB
  0
TABLE
  2
APPID
  5
9
100
AcDbSymbolTable
 70
1
  0
APPID
  5
20F
100
AcDbSymbolTableRecord
100
AcDbRegAppTableRecord
  2
ACAD
 70
0
  0
ENDTAB
  0
TABLE
  2
BLOCK_RECORD
  5
1
100
AcDbSymbolTable
 70
0
  0
BLOCK_RECORD
  5
210
100
AcDbSymbolTableRecord
100
AcDbBlockTableRecord
  2
*Model_Space
  0
BLOCK_RECORD
  5
211
100
AcDbSymbolTableRecord
100
AcDbBlockTableRecord
  2
*Paper_Space
  0
BLOCK_RECORD
  5
212
100
AcDbSymbolTableRecord
100
AcDbBlockTableRecord
  2
_FILLED
  0
ENDTAB
  0
TABLE
  2
DIMSTYLE
  5
A
100
AcDbSymbolTable
 70
1
100
AcDbDimStyleTable
 71
0
  0
DIMSTYLE
105
213
100
AcDbSymbolTableRecord
100
AcDbDimStyleTableRecord
  2
STANDARD
 70
0
  3

  4

 40
1.0
 41
2.6969036773
 42
1.0
 43
0.38
 44
1.0
 45
0.0
 46
0.0
 47
0.01
 48
0.01
140
3.7756651482
141
0.09
142
0.0
143
25.4
144
1.0
145
0.0
146
1.0
147
0.625
 71
1
 72
0
 73
0
 74
0
 75
0
 76
0
 77
1
 78
8
 79
2
170
0
171
1
172
0
173
0
174
0
175
0
176
0
177
0
178
0
270
2
179
2
271
2
272
2
273
2
274
2
275
0
280
0
281
0
282
0
283
1
284
8
285
0
286
0
287
3
288
0
340
11
278
46
341
212
342
212
343
212
344
212
  0
ENDTAB
  0
ENDSEC
  0
SECTION
  2
BLOCKS
  0
BLOCK
  5
20
100
AcDbEntity
  8
0
100
AcDbBlockBegin
  2
*Model_Space
 70
0
 10
0.0
 20
0.0
 30
0.0
  3
*Model_Space
  1

  0
ENDBLK
  5
21
100
AcDbEntity
  8
0
100
AcDbBlockEnd
  0
BLOCK
  5
1C
100
AcDbEntity
  8
0
100
AcDbBlockBegin
  2
*Paper_Space
 70
0
 10
0.0
 20
0.0
 30
0.0
  3
*Paper_Space
  1

  0
ENDBLK
  5
1D
100
AcDbEntity
  8
0
100
AcDbBlockEnd
  0
BLOCK
  5
214
100
AcDbEntity
  8
0
100
AcDbBlockBegin
  2
_FILLED
 70
64
 10
0.0
 20
0.0
  3
_FILLED
  1

  0
SOLID
  5
215
100
AcDbEntity
  8
0
  6
BYBLOCK
 62
0
100
AcDbTrace
 10
0.0
 20
0.0
 11
-1.0
 21
0.25
 12
-1.0
 22
-0.25
 13
-1.0
 23
-0.25
  0
ENDBLK
  5
216
100
AcDbEntity
  8
0
  6
BYBLOCK
 62
0
100
AcDbBlockEnd
  0
ENDSEC
  0
SECTION
  2
ENTITIES
  0
LINE
  5
217
100
AcDbEntity
  8
0
100
AcDbLine
 62
7
  6
BYLAYER
 10
24.8385818974
 20
84.3578431373
 11
24.8385818974
 21
160.5713096578
  0
LINE
  5
218
100
AcDbEntity
  8
0
100
AcDbLine
 62
7
  6
BYLAYER
 10
28.8385818974
 20
136.2878431373
 11
28.8385818974
 21
84.3578431373
  0
LINE
  5
219
100
AcDbEntity
  8
0
100
AcDbLine
 62
7
  6
BYLAYER
 10
30.3385818974
 20
160.5713096578
 11
30.3385818974
 21
136.2878431373
  0
LINE
  5
21A
100
AcDbEntity
  8
0
100
AcDbLine
 62
7
  6
BYLAYER
 10
25.5754421766
 20
163.3213096578
 11
39.6838813575
 21
187.7578431347
  0
LINE
  5
21B
100
AcDbEntity
  8
0
100
AcDbLine
 62
7
  6
BYLAYER
 10
30.3385818974
 20
160.5713096578
 11
44.0140083779
 21
184.2578431373
  0
LINE
  5
21C
100
AcDbEntity
  8
0
100
AcDbLine
 62
7
  6
BYLAYER
 10
24.8385818974
 20
84.3578431373
 11
204.8385818974
 21
84.3578431373
  0
LINE
  5
21D
100
AcDbEntity
  8
0
100
AcDbLine
 62
7
  6
BYLAYER
 10
44.0140094176
 20
184.257843301
 11
43.1479840975
 21
189.7578431644
  0
LINE
  5
21E
100
AcDbEntity
  8
0
100
AcDbLine
 62
7
  6
BYLAYER
 10
25.5754421766
 20
163.3213096578
 11
30.3385818974
 21
160.5713096578
  0
LINE
  5
21F
100
AcDbEntity
  8
0
100
AcDbLine
 62
7
  6
BYLAYER
 10
84.8385818974
 20
189.7578431373
 11
84.8385818974
 21
194.0578431373
  0
LINE
  5
220
100
AcDbEntity
  8
0
100
AcDbLine
 62
7
  6
BYLAYER
 10
87.8385818974
 20
189.7578431373
 11
87.8385818974
 21
195.0578431373
  0
LINE
  5
221
100
AcDbEntity
  8
0
100
AcDbLine
 62
7
  6
BYLAYER
 10
92.3385818974
 20
202.5578431373
 11
92.3385818974
 21
195.0578431373
  0
LINE
  5
222
100
AcDbEntity
  8
0
100
AcDbLine
 62
7
  6
BYLAYER
 10
24.8399866114
 20
136.2878431373
 11
204.837178169
 21
136.2878431373
  0
LINE
  5
223
100
AcDbEntity
  8
0
100
AcDbLine
 62
7
  6
BYLAYER
 10
109.4075006701
 20
232.9276421307
 11
108.8386904703
 21
216.6390491798
  0
LINE
  5
224
100
AcDbEntity
  8
0
100
AcDbLine
 62
7
  6
BYLAYER
 10
204.8385818974
 20
160.5713096578
 11
199.3385818974
 21
160.5713096578
  0
LINE
  5
225
100
AcDbEntity
  8
0
100
AcDbLine
 62
7
  6
BYLAYER
 10
30.3385818974
 20
160.5713096578
 11
24.8385818974
 21
160.5713096578
  0
LINE
  5
226
100
AcDbEntity
  8
0
100
AcDbLine
 62
7
  6
BYLAYER
 10
120.8386904701
 20
216.6390491796
 11
120.2698802703
 21
232.9276421308
  0
LINE
  5
227
100
AcDbEntity
  8
0
100
AcDbLine
 62
7
  6
BYLAYER
 10
137.3385818974
 20
202.5578431373
 11
137.3385818974
 21
195.0578431373
  0
LINE
  5
228
100
AcDbEntity
  8
0
100
AcDbLine
 62
7
  6
BYLAYER
 10
141.8385818974
 20
189.7578431373
 11
141.8385818974
 21
195.0578431373
  0
LINE
  5
229
100
AcDbEntity
  8
0
100
AcDbLine
 62
7
  6
BYLAYER
 10
144.8385818974
 20
189.7578431373
 11
144.8385818974
 21
194.0578431373
  0
LINE
  5
22A
100
AcDbEntity
  8
0
100
AcDbLine
 62
7
  6
BYLAYER
 10
185.6631554169
 20
184.2578431373
 11
44.0140083779
 21
184.2578431373
  0
LINE
  5
22B
100
AcDbEntity
  8
0
100
AcDbLine
 62
7
  6
BYLAYER
 10
43.1479829742
 20
189.7578431373
 11
186.5291808206
 21
189.7578431373
  0
LINE
  5
22C
100
AcDbEntity
  8
0
100
AcDbLine
 62
7
  6
BYLAYER
 10
144.8385818974
 20
194.0578431373
 11
84.8385818974
 21
194.0578431373
  0
LINE
  5
22D
100
AcDbEntity
  8
0
100
AcDbLine
 62
7
  6
BYLAYER
 10
85.8385818974
 20
195.0578431373
 11
143.8385818974
 21
195.0578431373
  0
LINE
  5
22E
100
AcDbEntity
  8
0
100
AcDbLine
 62
7
  6
BYLAYER
 10
199.3385818974
 20
160.5713096578
 11
204.1017216182
 21
163.3213096578
  0
LINE
  5
22F
100
AcDbEntity
  8
0
100
AcDbLine
 62
7
  6
BYLAYER
 10
137.3385818974
 20
202.5578431373
 11
135.0804802045
 21
202.5578431373
  0
LINE
  5
230
100
AcDbEntity
  8
0
100
AcDbLine
 62
7
  6
BYLAYER
 10
94.596927878
 20
202.5578431373
 11
92.3385818974
 21
202.5578431373
  0
LINE
  5
231
100
AcDbEntity
  8
0
100
AcDbLine
 62
7
  6
BYLAYER
 10
134.8380589752
 20
205.0578431373
 11
132.8313803951
 21
205.0578431373
  0
LINE
  5
232
100
AcDbEntity
  8
0
100
AcDbLine
 62
7
  6
BYLAYER
 10
96.8460005452
 20
205.0578431373
 11
94.8391049346
 21
205.0578431373
  0
LINE
  5
233
100
AcDbEntity
  8
0
100
AcDbLine
 62
7
  6
BYLAYER
 10
186.5291808206
 20
189.7578431373
 11
185.6631554169
 21
184.2578431373
  0
LINE
  5
234
100
AcDbEntity
  8
0
100
AcDbLine
 62
7
  6
BYLAYER
 10
118.1373200476
 20
232.8578431373
 11
111.5400877855
 21
232.8578431373
  0
LINE
  5
235
100
AcDbEntity
  8
0
100
AcDbLine
 62
7
  6
BYLAYER
 10
118.2710946419
 20
234.8578431373
 11
111.4062862986
 21
234.8578431373
  0
LINE
  5
236
100
AcDbEntity
  8
0
100
AcDbLine
 62
7
  6
BYLAYER
 10
185.6631554169
 20
184.2578431373
 11
199.3385818974
 21
160.5713096578
  0
LINE
  5
237
100
AcDbEntity
  8
0
100
AcDbLine
 62
7
  6
BYLAYER
 10
189.9932824405
 20
187.7578431292
 11
204.1017216182
 21
163.3213096578
  0
LINE
  5
238
100
AcDbEntity
  8
0
100
AcDbLine
 62
7
  6
BYLAYER
 10
199.3385818974
 20
136.2878431373
 11
199.3385818974
 21
160.5713096578
  0
LINE
  5
239
100
AcDbEntity
  8
0
100
AcDbLine
 62
7
  6
BYLAYER
 10
200.8385818974
 20
84.3578431373
 11
200.8385818974
 21
136.2878431373
  0
LINE
  5
23A
100
AcDbEntity
  8
0
100
AcDbLine
 62
7
  6
BYLAYER
 10
204.8385818974
 20
160.5713096578
 11
204.8385818974
 21
84.3578431373
  0
ARC
  5
23B
100
AcDbEntity
  8
0
100
AcDbCircle
 62
7
  6
BYLAYER
 10
132.8313803944
 20
217.0578431373
 40
12.0
100
AcDbArc
 50
181.9999999869
 51
270.0000000031
  0
ARC
  5
23C
100
AcDbEntity
  8
0
100
AcDbCircle
 62
7
  6
BYLAYER
 10
96.846000546
 20
217.0578431373
 40
12.0
100
AcDbArc
 50
269.9999999964
 51
358.0000000141
  0
ARC
  5
23D
100
AcDbEntity
  8
0
100
AcDbCircle
 62
7
  6
BYLAYER
 10
30.3385818974
 20
160.5713096578
 40
5.5
100
AcDbArc
 50
150.0
 51
180.0
  0
ARC
  5
23E
100
AcDbEntity
  8
0
100
AcDbCircle
 62
7
  6
BYLAYER
 10
199.3385818974
 20
160.5713096578
 40
5.5
100
AcDbArc
 50
0.0
 51
30.0
  0
ARC
  5
23F
100
AcDbEntity
  8
0
100
AcDbCircle
 62
7
  6
BYLAYER
 10
186.5291808206
 20
185.7578431373
 40
4.0
100
AcDbArc
 50
29.9999999329
 51
90.0
  0
ARC
  5
240
100
AcDbEntity
  8
0
100
AcDbCircle
 62
7
  6
BYLAYER
 10
43.1479829742
 20
185.7578431373
 40
4.0
100
AcDbArc
 50
90.0
 51
150.0000000885
  0
ARC
  5
241
100
AcDbEntity
  8
0
100
AcDbCircle
 62
7
  6
BYLAYER
 10
94.8385818974
 20
202.5578431373
 40
2.5
100
AcDbArc
 50
90.0
 51
180.0
  0
ARC
  5
242
100
AcDbEntity
  8
0
100
AcDbCircle
 62
7
  6
BYLAYER
 10
134.8385818974
 20
202.5578431373
 40
2.5
100
AcDbArc
 50
0.0
 51
90.0
  0
ARC
  5
243
100
AcDbEntity
  8
0
100
AcDbCircle
 62
7
  6
BYLAYER
 10
118.2710986163
 20
232.8578431373
 40
2.0
100
AcDbArc
 50
2.000000002
 51
90.0
  0
ARC
  5
244
100
AcDbEntity
  8
0
100
AcDbCircle
 62
7
  6
BYLAYER
 10
111.4062823241
 20
232.8578431373
 40
2.0
100
AcDbArc
 50
90.0
 51
177.999999999
  0
ARC
  5
245
100
AcDbEntity
  8
0
100
AcDbCircle
 62
7
  6
BYLAYER
 10
85.8385818974
 20
194.0578431373
 40
1.0
100
AcDbArc
 50
90.0
 51
180.0
  0
ARC
  5
246
100
AcDbEntity
  8
0
100
AcDbCircle
 62
7
  6
BYLAYER
 10
143.8385818974
 20
194.0578431373
 40
1.0
100
AcDbArc
 50
0.0
 51
90.0
  0
SPLINE
  5
247
100
AcDbEntity
  8
0
100
AcDbSpline
 62
7
  6
BYLAYER
 70
0
 71
3
 72
26
 73
22
 74
0
 42
0.0000001
 43
0.0000001
 44
0.0000000001
 40
0.0
 40
0.0
 40
0.0
 40
0.0
 40
0.1938904542
 40
0.3807394357
 40
0.553225368
 40
0.6320729571
 40
0.70495312
 40
0.7711103439
 40
0.8299008711
 40
0.880724206
 40
0.9230395042
 40
0.9408784172
 40
0.956440125
 40
0.9696761108
 40
0.9805459704
 40
0.9890298805
 40
0.9951112354
 40
0.9972457672
 40
0.9987734377
 40
0.9996921818
 40
1.0
 40
1.0
 40
1.0
 40
1.0
 10
44.0140083779
 20
184.2578431373
 30
0.0
 10
43.7348664763
 20
184.4849303879
 30
0.0
 10
43.1847083734
 20
184.9283784964
 30
0.0
 10
42.3858515464
 20
185.5733801874
 30
0.0
 10
41.7538808287
 20
186.0852015515
 30
0.0
 10
41.2856548809
 20
186.4631245626
 30
0.0
 10
40.9709808083
 20
186.7170958583
 30
0.0
 10
40.6854288247
 20
186.94788036
 30
0.0
 10
40.4318224391
 20
187.1530674685
 30
0.0
 10
40.212610555
 20
187.3304148861
 30
0.0
 10
40.0523959664
 20
187.4598514739
 30
0.0
 10
39.9430696843
 20
187.5481331661
 30
0.0
 10
39.8757159698
 20
187.6025039426
 30
0.0
 10
39.8184687427
 20
187.6487621405
 30
0.0
 10
39.7713485091
 20
187.6867681285
 30
0.0
 10
39.7348515068
 20
187.7164906054
 30
0.0
 10
39.7103516647
 20
187.7359385731
 30
0.0
 10
39.6968846441
 20
187.7474312292
 30
0.0
 10
39.6893615246
 20
187.7526592379
 30
0.0
 10
39.6870633586
 20
187.756156992
 30
0.0
 10
39.6835956945
 20
187.7573483955
 30
0.0
 10
39.6838813567
 20
187.7578431332
 30
0.0
  0
SPLINE
  5
248
100
AcDbEntity
  8
0
100
AcDbSpline
 62
7
  6
BYLAYER
 70
0
 71
3
 72
8
 73
4
 74
0
 42
0.0000001
 43
0.0000001
 44
0.0000000001
 40
0.0
 40
0.0
 40
0.0
 40
0.0
 40
1.0
 40
1.0
 40
1.0
 40
1.0
 10
118.7779252388
 20
216.5518000186
 30
0.0
 10
118.5646869614
 20
221.9871582901
 30
0.0
 10
118.3511882788
 20
227.4225063533
 30
0.0
 10
118.1373959466
 20
232.85784286
 30
0.0
  0
SPLINE
  5
249
100
AcDbEntity
  8
0
100
AcDbSpline
 62
7
  6
BYLAYER
 70
0
 71
3
 72
9
 73
5
 74
0
 42
0.0000001
 43
0.0000001
 44
0.0000000001
 40
0.0
 40
0.0
 40
0.0
 40
0.0
 40
0.4762421625
 40
1.0
 40
1.0
 40
1.0
 40
1.0
 10
132.8313804079
 20
205.0578431373
 30
0.0
 10
133.0533749941
 20
205.0578431373
 30
0.0
 10
133.5227308952
 20
204.9801304519
 30
0.0
 10
133.9389787338
 20
204.7481937413
 30
0.0
 10
134.1309929693
 20
204.5974072783
 30
0.0
  0
SPLINE
  5
24A
100
AcDbEntity
  8
0
100
AcDbSpline
 62
7
  6
BYLAYER
 70
0
 71
3
 72
9
 73
5
 74
0
 42
0.0000001
 43
0.0000001
 44
0.0000000001
 40
0.0
 40
0.0
 40
0.0
 40
0.0
 40
0.5095412488
 40
1.0
 40
1.0
 40
1.0
 40
1.0
 10
134.1309929693
 20
204.5974072783
 30
0.0
 10
134.4392070306
 20
204.3553704938
 30
0.0
 10
134.9227547237
 20
203.71234933
 30
0.0
 10
135.0804802221
 20
202.9350566469
 30
0.0
 10
135.0804802222
 20
202.5578431373
 30
0.0
  0
SPLINE
  5
24B
100
AcDbEntity
  8
0
100
AcDbSpline
 62
7
  6
BYLAYER
 70
0
 71
3
 72
14
 73
10
 74
0
 42
0.0000001
 43
0.0000001
 44
0.0000000001
 40
0.0
 40
0.0
 40
0.0
 40
0.0
 40
0.1714920551
 40
0.2855722049
 40
0.4149650474
 40
0.5552600078
 40
0.7016140671
 40
0.8504610673
 40
1.0
 40
1.0
 40
1.0
 40
1.0
 10
135.0804802045
 20
202.5578431373
 30
0.0
 10
133.7277172385
 20
202.5578639584
 30
0.0
 10
131.464576006
 20
202.8071267893
 30
0.0
 10
128.3276472033
 20
203.776427176
 30
0.0
 10
125.6014545482
 20
205.1311521114
 30
0.0
 10
122.9865568421
 20
207.1535964026
 30
0.0
 10
120.771920577
 20
209.8214585582
 30
0.0
 10
119.2453528462
 20
213.0220060862
 30
0.0
 10
118.8242478047
 20
215.3731182101
 30
0.0
 10
118.7779173407
 20
216.5518004365
 30
0.0
  0
SPLINE
  5
24C
100
AcDbEntity
  8
0
100
AcDbSpline
 62
7
  6
BYLAYER
 70
0
 71
3
 72
21
 73
17
 74
0
 42
0.0000001
 43
0.0000001
 44
0.0000000001
 40
0.0
 40
0.0
 40
0.0
 40
0.0
 40
0.198705533
 40
0.3924430681
 40
0.5712762599
 40
0.7258678282
 40
0.7913451391
 40
0.848175739
 40
0.8960701864
 40
0.9347391608
 40
0.9640275164
 40
0.9843163339
 40
0.9912474696
 40
0.9961233568
 40
0.9990116791
 40
1.0
 40
1.0
 40
1.0
 40
1.0
 10
118.7779173592
 20
216.5517999454
 30
0.0
 10
118.9144583014
 20
216.5567188466
 30
0.0
 10
119.1841211228
 20
216.5665792527
 30
0.0
 10
119.5766505941
 20
216.5813901977
 30
0.0
 10
119.9388470384
 20
216.5955950417
 30
0.0
 10
120.21290389
 20
216.6068285873
 30
0.0
 10
120.40311805
 20
216.6150432518
 30
0.0
 10
120.5200408427
 20
216.6202921612
 30
0.0
 10
120.6185000351
 20
216.6249529786
 30
0.0
 10
120.6981370791
 20
216.6289179777
 30
0.0
 10
120.7585300896
 20
216.6323480579
 30
0.0
 10
120.7976950944
 20
216.6346164878
 30
0.0
 10
120.8191961401
 20
216.6365318868
 30
0.0
 10
120.8300609455
 20
216.6371243721
 30
0.0
 10
120.8346332493
 20
216.6384641542
 30
0.0
 10
120.8387141983
 20
216.6383696177
 30
0.0
 10
120.8386904844
 20
216.6390487713
 30
0.0
  0
SPLINE
  5
24D
100
AcDbEntity
  8
0
100
AcDbSpline
 62
7
  6
BYLAYER
 70
0
 71
3
 72
9
 73
5
 74
0
 42
0.0000001
 43
0.0000001
 44
0.0000000001
 40
0.0
 40
0.0
 40
0.0
 40
0.0
 40
0.5370858357
 40
1.0
 40
1.0
 40
1.0
 40
1.0
 10
118.1373196437
 20
232.8578431373
 30
0.0
 10
118.1373196437
 20
233.1450953552
 30
0.0
 10
118.1201043909
 20
233.6796426687
 30
0.0
 10
118.0677584282
 20
234.2136119914
 30
0.0
 10
118.0201683876
 20
234.4565777166
 30
0.0
  0
SPLINE
  5
24E
100
AcDbEntity
  8
0
100
AcDbSpline
 62
7
  6
BYLAYER
 70
0
 71
3
 72
11
 73
7
 74
0
 42
0.0000001
 43
0.0000001
 44
0.0000000001
 40
0.0
 40
0.0
 40
0.0
 40
0.0
 40
0.4070509967
 40
0.7025595974
 40
0.8904101309
 40
1.0
 40
1.0
 40
1.0
 40
1.0
 10
118.0201683876
 20
234.4565777166
 30
0.0
 10
118.0083384371
 20
234.5169742296
 30
0.0
 10
117.9855597553
 20
234.6207835299
 30
0.0
 10
117.942159621
 20
234.7489046312
 30
0.0
 10
117.9019424269
 20
234.8287991158
 30
0.0
 10
117.8606684915
 20
234.8578430392
 30
0.0
 10
117.8440990222
 20
234.8578431373
 30
0.0
  0
SPLINE
  5
24F
100
AcDbEntity
  8
0
100
AcDbSpline
 62
7
  6
BYLAYER
 70
0
 71
3
 72
21
 73
17
 74
0
 42
0.0000001
 43
0.0000001
 44
0.0000000001
 40
0.0
 40
0.0
 40
0.0
 40
0.0
 40
0.0011655193
 40
0.0046400421
 40
0.0104189404
 40
0.0184888381
 40
0.0414439432
 40
0.0733697995
 40
0.1139900184
 40
0.1629643365
 40
0.2199446569
 40
0.2844696313
 40
0.4339506867
 40
0.6067568722
 40
0.7976279809
 40
1.0
 40
1.0
 40
1.0
 40
1.0
 10
120.269520824
 20
232.9276295779
 30
0.0
 10
120.269620991
 20
232.9268068358
 30
0.0
 10
120.2641977327
 20
232.9276109778
 30
0.0
 10
120.2588771333
 20
232.9258460632
 30
0.0
 10
120.2454161409
 20
232.9257366305
 30
0.0
 10
120.2199874537
 20
232.9239395975
 30
0.0
 10
120.1747443612
 20
232.9222250164
 30
0.0
 10
120.1071373886
 20
232.9193414653
 30
0.0
 10
120.0206868386
 20
232.9161623882
 30
0.0
 10
119.9165553111
 20
232.91243824
 30
0.0
 10
119.7953842213
 20
232.9083020551
 30
0.0
 10
119.6027924277
 20
232.9019161741
 30
0.0
 10
119.3278611222
 20
232.8931679296
 30
0.0
 10
118.9631189641
 20
232.8819975112
 30
0.0
 10
118.5607715621
 20
232.870006674
 30
0.0
 10
118.2812477677
 20
232.861920572
 30
0.0
 10
118.1373959466
 20
232.85784286
 30
0.0
  0
SPLINE
  5
250
100
AcDbEntity
  8
0
100
AcDbSpline
 62
7
  6
BYLAYER
 70
0
 71
3
 72
11
 73
7
 74
0
 42
0.0000001
 43
0.0000001
 44
0.0000000001
 40
0.0
 40
0.0
 40
0.0
 40
0.0
 40
0.1123740587
 40
0.300685351
 40
0.5945653277
 40
1.0
 40
1.0
 40
1.0
 40
1.0
 10
111.8332873466
 20
234.8578431372
 30
0.0
 10
111.8175490836
 20
234.8578430534
 30
0.0
 10
111.7784363366
 20
234.8317949648
 30
0.0
 10
111.7393142186
 20
234.7582293134
 30
0.0
 10
111.6975422979
 20
234.6405884137
 30
0.0
 10
111.6754034935
 20
234.5450930221
 30
0.0
 10
111.6638664975
 20
234.4894952963
 30
0.0
  0
SPLINE
  5
251
100
AcDbEntity
  8
0
100
AcDbSpline
 62
7
  6
BYLAYER
 70
0
 71
3
 72
9
 73
5
 74
0
 42
0.0000001
 43
0.0000001
 44
0.0000000001
 40
0.0
 40
0.0
 40
0.0
 40
0.0
 40
0.4588384771
 40
1.0
 40
1.0
 40
1.0
 40
1.0
 10
111.6638664975
 20
234.4894952963
 30
0.0
 10
111.6129647015
 20
234.2441953849
 30
0.0
 10
111.5583006639
 20
233.6989280055
 30
0.0
 10
111.5400884422
 20
233.1533169959
 30
0.0
 10
111.5400884399
 20
232.8578431373
 30
0.0
  0
SPLINE
  5
252
100
AcDbEntity
  8
0
100
AcDbSpline
 62
7
  6
BYLAYER
 70
0
 71
3
 72
21
 73
17
 74
0
 42
0.0000001
 43
0.0000001
 44
0.0000000001
 40
0.0
 40
0.0
 40
0.0
 40
0.0
 40
0.2023489855
 40
0.3932010763
 40
0.5659941861
 40
0.7154693595
 40
0.7799943813
 40
0.8369768534
 40
0.8859555275
 40
0.9265823153
 40
0.9585169465
 40
0.9814830316
 40
0.9895592204
 40
0.995344925
 40
0.998826754
 40
1.0
 40
1.0
 40
1.0
 40
1.0
 10
111.5400610675
 20
232.8578430457
 30
0.0
 10
111.3962171764
 20
232.8619189456
 30
0.0
 10
111.1167068709
 20
232.8700018859
 30
0.0
 10
110.7143751136
 20
232.8819901687
 30
0.0
 10
110.3496386165
 20
232.8931604845
 30
0.0
 10
110.0747048013
 20
232.9019087963
 30
0.0
 10
109.8821042039
 20
232.9082948502
 30
0.0
 10
109.7609217936
 20
232.9124312774
 30
0.0
 10
109.656773646
 20
232.916156069
 30
0.0
 10
109.5703075463
 20
232.9193354099
 30
0.0
 10
109.5026688741
 20
232.9222213449
 30
0.0
 10
109.457423464
 20
232.9239344581
 30
0.0
 10
109.4319510076
 20
232.9257366372
 30
0.0
 10
109.4185155919
 20
232.9258403547
 30
0.0
 10
109.4131095135
 20
232.9276202219
 30
0.0
 10
109.4077423091
 20
232.9267997922
 30
0.0
 10
109.4078115617
 20
232.9276312738
 30
0.0
  0
SPLINE
  5
253
100
AcDbEntity
  8
0
100
AcDbSpline
 62
7
  6
BYLAYER
 70
0
 71
3
 72
25
 73
21
 74
0
 42
0.0000001
 43
0.0000001
 44
0.0000000001
 40
0.0
 40
0.0
 40
0.0
 40
0.0
 40
0.0012485455
 40
0.0027815991
 40
0.0049193497
 40
0.0110020774
 40
0.0194821726
 40
0.0303446202
 40
0.0435726281
 40
0.0591293191
 40
0.076965002
 40
0.1192736935
 40
0.1700824235
 40
0.2288588179
 40
0.2950214401
 40
0.367927027
 40
0.4468039368
 40
0.6193124577
 40
0.8061302161
 40
1.0
 40
1.0
 40
1.0
 40
1.0
 10
189.9932824409
 20
187.7578431284
 30
0.0
 10
189.9944410537
 20
187.755836363
 30
0.0
 10
189.9864205535
 20
187.752741088
 30
0.0
 10
189.9815217577
 20
187.7467313479
 30
0.0
 10
189.9663083816
 20
187.7353723575
 30
0.0
 10
189.9430236244
 20
187.7158982637
 30
0.0
 10
189.9057525891
 20
187.6864524993
 30
0.0
 10
189.8587240714
 20
187.6486659643
 30
0.0
 10
189.8013049527
 20
187.602581287
 30
0.0
 10
189.7339546205
 20
187.5482872007
 30
0.0
 10
189.6246278317
 20
187.4600344635
 30
0.0
 10
189.4645167732
 20
187.3305486888
 30
0.0
 10
189.2453627722
 20
187.1532280529
 30
0.0
 10
188.9917762985
 20
186.948083411
 30
0.0
 10
188.7062154462
 20
186.717256968
 30
0.0
 10
188.3915407171
 20
186.4631052646
 30
0.0
 10
187.923312476
 20
186.084951256
 30
0.0
 10
187.2911275494
 20
185.5733263151
 30
0.0
 10
186.4921601031
 20
184.9285395019
 30
0.0
 10
185.9421566979
 20
184.4850456078
 30
0.0
 10
185.6631554169
 20
184.2578431373
 30
0.0
  0
SPLINE
  5
254
100
AcDbEntity
  8
0
100
AcDbSpline
 62
7
  6
BYLAYER
 70
0
 71
3
 72
8
 73
4
 74
0
 42
0.0000001
 43
0.0000001
 44
0.0000000001
 40
0.0
 40
0.0
 40
0.0
 40
0.0
 40
1.0
 40
1.0
 40
1.0
 40
1.0
 10
111.5400610675
 20
232.8578430457
 30
0.0
 10
111.3262847305
 20
227.4225049157
 30
0.0
 10
111.1126657792
 20
221.9871605827
 30
0.0
 10
110.8994466334
 20
216.5518005665
 30
0.0
  0
SPLINE
  5
255
100
AcDbEntity
  8
0
100
AcDbSpline
 62
7
  6
BYLAYER
 70
0
 71
3
 72
21
 73
17
 74
0
 42
0.0000001
 43
0.0000001
 44
0.0000000001
 40
0.0
 40
0.0
 40
0.0
 40
0.0
 40
0.1987046446
 40
0.3924418067
 40
0.5712750522
 40
0.7258669249
 40
0.7913444221
 40
0.848175208
 40
0.8960698273
 40
0.9347389459
 40
0.9640274073
 40
0.9843162937
 40
0.9912474516
 40
0.9961233532
 40
0.9990116824
 40
1.0
 40
1.0
 40
1.0
 40
1.0
 10
110.8994907332
 20
216.5518004443
 30
0.0
 10
110.7629486075
 20
216.556719364
 30
0.0
 10
110.4932831098
 20
216.5665798111
 30
0.0
 10
110.1007493097
 20
216.5813908067
 30
0.0
 10
109.738548114
 20
216.5955956969
 30
0.0
 10
109.4644872839
 20
216.6068292653
 30
0.0
 10
109.2742701559
 20
216.6150439316
 30
0.0
 10
109.1573454497
 20
216.620292834
 30
0.0
 10
109.0588846158
 20
216.6249536364
 30
0.0
 10
108.9792462299
 20
216.6289186054
 30
0.0
 10
108.9188522067
 20
216.6323486583
 30
0.0
 10
108.8796865388
 20
216.6346170294
 30
0.0
 10
108.8581851447
 20
216.6365324121
 30
0.0
 10
108.847320145
 20
216.6371248307
 30
0.0
 10
108.8427477939
 20
216.6384646526
 30
0.0
 10
108.8386667568
 20
216.6383700235
 30
0.0
 10
108.8386904704
 20
216.6390491837
 30
0.0
  0
SPLINE
  5
256
100
AcDbEntity
  8
0
100
AcDbSpline
 62
7
  6
BYLAYER
 70
0
 71
3
 72
13
 73
9
 74
0
 42
0.0000001
 43
0.0000001
 44
0.0000000001
 40
0.0
 40
0.0
 40
0.0
 40
0.0
 40
0.1496448244
 40
0.2985967089
 40
0.4450596514
 40
0.5854343664
 40
0.8282692507
 40
1.0
 40
1.0
 40
1.0
 40
1.0
 10
110.8994907429
 20
216.5518004367
 30
0.0
 10
110.8531552253
 20
215.3732630124
 30
0.0
 10
110.4322896742
 20
213.022311664
 30
0.0
 10
108.9058575271
 20
209.8225738408
 30
0.0
 10
106.692334138
 20
207.1531442778
 30
0.0
 10
103.3662617436
 20
204.5861752429
 30
0.0
 10
99.2251290693
 20
202.9184873441
 30
0.0
 10
95.9504493183
 20
202.5578690295
 30
0.0
 10
94.596927878
 20
202.5578431373
 30
0.0
  0
SPLINE
  5
257
100
AcDbEntity
  8
0
100
AcDbSpline
 62
7
  6
BYLAYER
 70
0
 71
3
 72
9
 73
5
 74
0
 42
0.0000001
 43
0.0000001
 44
0.0000000001
 40
0.0
 40
0.0
 40
0.0
 40
0.0
 40
0.4897178713
 40
1.0
 40
1.0
 40
1.0
 40
1.0
 10
94.5969296753
 20
202.5578431373
 30
0.0
 10
94.5969296675
 20
202.9240971162
 30
0.0
 10
94.7458418976
 20
203.6793224477
 30
0.0
 10
95.2021364464
 20
204.3121724209
 30
0.0
 10
95.4955057187
 20
204.5562600635
 30
0.0
  0
SPLINE
  5
258
100
AcDbEntity
  8
0
100
AcDbSpline
 62
7
  6
BYLAYER
 70
0
 71
3
 72
9
 73
5
 74
0
 42
0.0000001
 43
0.0000001
 44
0.0000000001
 40
0.0
 40
0.0
 40
0.0
 40
0.0
 40
0.5244740327
 40
1.0
 40
1.0
 40
1.0
 40
1.0
 10
95.4955057187
 20
204.5562600635
 30
0.0
 10
95.6921177765
 20
204.7198442497
 30
0.0
 10
96.1227795542
 20
204.9727478123
 30
0.0
 10
96.6141064807
 20
205.0578431379
 30
0.0
 10
96.8460020917
 20
205.0578431373
 30
0.0
  0
ENDSEC
  0
SECTION
  2
OBJECTS
  0
DICTIONARY
  5
C
100
AcDbDictionary
280
0
281
1
  3
ACAD_GROUP
350
D
  3
ACAD_MLINESTYLE
350
17
  3
ACAD_LAYOUT
350
1A
  3
ACAD_PLOTSETTINGS
350
19
  3
ACAD_PLOTSTYLENAME
350
E
  0
DICTIONARY
  5
D
102
{ACAD_REACTORS
330
C
102
}
100
AcDbDictionary
280
0
281
1
  0
ACDBDICTIONARYWDFLT
  5
E
102
{ACAD_REACTORS
330
C
102
}
100
AcDbDictionary
281
1
  3
Normal
350
F
100
AcDbDictionaryWithDefault
340
F
  0
DICTIONARY
  5
17
102
{ACAD_REACTORS
330
C
102
}
100
AcDbDictionary
280
0
281
1
  3
Standard
350
18
  0
DICTIONARY
  5
19
102
{ACAD_REACTORS
330
C
102
}
100
AcDbDictionary
281
1
  0
DICTIONARY
  5
1A
102
{ACAD_REACTORS
330
C
102
}
100
AcDbDictionary
281
1
  3
Model
350
259
  3
Layout1
350
25A
  0
ACDBPLACEHOLDER
  5
F
102
{ACAD_REACTORS
330
E
102
}
  0
MLINESTYLE
  5
18
102
{ACAD_REACTORS
330
17
102
}
100
AcDbMlineStyle
  2
STANDARD
 70
0
  3

 62
256
 51
90.0
 52
90.0
 71
2
 49
0.5
 62
256
  6
BYLAYER
 49
-0.5
 62
256
  6
BYLAYER
  0
LAYOUT
  5
259
102
{ACAD_REACTORS
330
1A
102
}
100
AcDbPlotSettings
  1

  2
none_device
  4

  6

 40
0.0
 41
0.0
 42
0.0
 43
0.0
 44
210.0
 45
297.0
 46
0.0
 47
0.0
 48
0.0
 49
0.0
140
0.0
141
0.0
142
1.0
143
1.0
 70
1024
 72
1
 73
0
 74
0
  7

 75
0
147
1.0
148
0.0
149
0.0
100
AcDbLayout
  1
Model
 70
0
 71
0
 10
0.0
 20
0.0
 11
210.0
 21
297.0
 12
0.0
 22
0.0
 32
0.0
 14
0.0
 24
0.0
 34
0.0
 15
0.0
 25
0.0
 35
0.0
146
0.0
 13
0.0
 23
0.0
 33
0.0
 16
1.0
 26
0.0
 36
0.0
 17
0.0
 27
1.0
 37
0.0
 76
0
330
210
345
0
346
0
  0
LAYOUT
  5
25A
102
{ACAD_REACTORS
330
1A
102
}
100
AcDbPlotSettings
  1

  2
none_device
  4

  6

 40
0.0
 41
0.0
 42
0.0
 43
0.0
 44
210.0
 45
297.0
 46
0.0
 47
0.0
 48
0.0
 49
0.0
140
0.0
141
0.0
142
1.0
143
1.0
 70
0
 72
1
 73
0
 74
0
  7

 75
0
147
1.0
148
0.0
149
0.0
100
AcDbLayout
  1
Layout1
 70
0
 71
1
 10
0.0
 20
0.0
 11
210.0
 21
297.0
 12
0.0
 22
0.0
 32
0.0
 14
0.0
 24
0.0
 34
0.0
 15
0.0
 25
0.0
 35
0.0
146
0.0
 13
0.0
 23
0.0
 33
0.0
 16
1.0
 26
0.0
 36
0.0
 17
0.0
 27
1.0
 37
0.0
 76
0
330
211
345
0
346
0
  0
ENDSEC
  0
EOF
