999
DXF file: C:\Users\sesa63760\Dev\_Creo\CAD\MCADID0004354_3D-CAD\drw0001_2.dxf
999
Pro/ENGINEER 2019471 by Parametric Technology Corporation
  0
SECTION
  2
HEADER
  9
$ACADVER
  1
AC1024
  9
$DWGCODEPAGE
  3
ANSI_1252
  9
$EXTMAX
 10
35.2341858299
 20
49.8312056738
 30
0.0
  9
$EXTMIN
 10
0.0
 20
0.0
 30
0.0
  9
$LIMMIN
 10
0.0
 20
0.0
  9
$LIMMAX
 10
35.2341858299
 20
49.8312056738
  9
$VIEWCTR
 10
17.617092915
 20
24.9156028369
  9
$VIEWSIZE
 40
49.8312056738
  9
$CLAYER
  8
0
  9
$LTSCALE
 40
3.2482563698
  9
$CELTYPE
  6
BYLAYER
  9
$DIMSCALE
 40
1.0
  9
$DIMASZ
 40
0.4194545932
  9
$DIMEXO
 40
1.0
  9
$DIMDLI
 40
2.2442498555
  9
$DIMEXE
 40
1.0
  9
$DIMCEN
 40
0.5315328605
  9
$DIMLFAC
 40
1.0
  9
$DIMBLK
  1
_FILLED
  9
$DIMALT
 70
0
  9
$DIMALTF
 40
0.0393700787
  9
$DIMTXT
 40
0.5872364305
  9
$DIMTOL
 70
1
  9
$DIMLIM
 70
0
  9
$DIMTFAC
 40
1.0
  9
$DIMTP
 40
0.01
  9
$DIMTM
 40
0.01
  9
$DIMGAP
 40
0.625
  9
$DIMDSEP
 70
46
  9
$AUNITS
 70
0
  9
$PDMODE
 70
3
  9
$PDSIZE
 40
0.3125
  9
$HANDSEED
  5
243
  9
$TILEMODE
 70
1
  9
$MEASUREMENT
 70
1
  9
$INSUNITS
 70
4
  0
ENDSEC
  0
SECTION
  2
CLASSES
  0
CLASS
  1
ACDBDICTIONARYWDFLT
  2
AcDbDictionaryWithDefault
  3
AutoCAD 2000
 90
0
 91
1
280
0
281
0
  0
CLASS
  1
ACDBPLACEHOLDER
  2
AcDbPlaceHolder
  3
AutoCAD 2000
 90
0
 91
1
280
0
281
0
  0
CLASS
  1
LAYOUT
  2
AcDbLayout
  3
AutoCAD 2000
 90
0
 91
0
280
0
281
0
  0
ENDSEC
  0
SECTION
  2
TABLES
  0
TABLE
  2
VPORT
  5
8
100
AcDbSymbolTable
 70
2
  0
VPORT
  5
1F4
100
AcDbSymbolTableRecord
100
AcDbViewportTableRecord
  2
*ACTIVE
 70
0
 10
0.0
 20
0.0
 11
1.0
 21
1.0
 12
17.617092915
 22
24.9156028369
 13
0.0
 23
0.0
 14
1.0
 24
1.0
 15
0.0
 25
0.0
 16
0.0
 26
0.0
 36
1.0
 17
0.0
 27
0.0
 37
0.0
 40
49.8312056738
 41
0.7070707071
 42
50.0
 43
0.0
 44
0.0
 50
0.0
 51
0.0
 71
0
 72
100
 73
1
 74
1
 75
0
 76
0
 77
0
 78
0
  0
ENDTAB
  0
TABLE
  2
LTYPE
  5
5
100
AcDbSymbolTable
 70
6
  0
LTYPE
  5
14
100
AcDbSymbolTableRecord
100
AcDbLinetypeTableRecord
  2
BYBLOCK
 70
0
  3

 72
65
 73
0
 40
0.0
  0
LTYPE
  5
15
100
AcDbSymbolTableRecord
100
AcDbLinetypeTableRecord
  2
BYLAYER
 70
0
  3

 72
65
 73
0
 40
0.0
  0
LTYPE
  5
16
100
AcDbSymbolTableRecord
100
AcDbLinetypeTableRecord
  2
CONTINUOUS
 70
64
  3
Solid line
 72
65
 73
0
 40
0.0
  0
LTYPE
  5
1F5
100
AcDbSymbolTableRecord
100
AcDbLinetypeTableRecord
  2
CENTER
 70
64
  3
____ _ ____ _ ____ _ ____ _ ____ _ ____ _ ____
 72
65
 73
4
 40
0.6
 49
0.375
 74
0
 49
-0.075
 74
0
 49
0.075
 74
0
 49
-0.075
 74
0
  0
LTYPE
  5
1F6
100
AcDbSymbolTableRecord
100
AcDbLinetypeTableRecord
  2
HIDDEN
 70
64
  3
- - - - - - - - - - - - - - - - - - - -
 72
65
 73
2
 40
0.2
 49
0.1
 74
0
 49
-0.1
 74
0
  0
LTYPE
  5
1F7
100
AcDbSymbolTableRecord
100
AcDbLinetypeTableRecord
  2
PHANTOM
 70
64
  3
_____ _ _ _____ _ _ _____ _ _ _____
 72
65
 73
6
 40
0.8
 49
0.45
 74
0
 49
-0.05
 74
0
 49
0.1
 74
0
 49
-0.05
 74
0
 49
0.1
 74
0
 49
-0.05
 74
0
  0
LTYPE
  5
1F8
100
AcDbSymbolTableRecord
100
AcDbLinetypeTableRecord
  2
DOT
 70
64
  3
. . . . . . . . . . . . . . . . . . . .
 72
65
 73
2
 40
0.2
 49
0.1
 74
0
 49
-0.1
 74
0
  0
LTYPE
  5
1F9
100
AcDbSymbolTableRecord
100
AcDbLinetypeTableRecord
  2
DASHED
 70
64
  3
- - - - - - - - - - - - - - - - - - - -
 72
65
 73
2
 40
0.2
 49
0.1
 74
0
 49
-0.1
 74
0
  0
ENDTAB
  0
TABLE
  2
LAYER
  5
2
100
AcDbSymbolTable
 70
36
  0
LAYER
  5
10
100
AcDbSymbolTableRecord
100
AcDbLayerTableRecord
  2
0
 70
0
 62
7
  6
CONTINUOUS
370
-3
390
F
  0
LAYER
  5
1FA
100
AcDbSymbolTableRecord
100
AcDbLayerTableRecord
  2
DEFAULT_1
 70
0
 62
7
  6
CENTER
370
-3
390
F
  0
LAYER
  5
1FB
100
AcDbSymbolTableRecord
100
AcDbLayerTableRecord
  2
DEFAULT_2
 70
0
 62
7
  6
HIDDEN
370
-3
390
F
  0
LAYER
  5
1FC
100
AcDbSymbolTableRecord
100
AcDbLayerTableRecord
  2
DEFAULT_3
 70
0
 62
7
  6
PHANTOM
370
-3
390
F
  0
LAYER
  5
1FD
100
AcDbSymbolTableRecord
100
AcDbLayerTableRecord
  2
00_COMPONENTS
 70
0
 62
7
  6
CONTINUOUS
370
-3
390
F
  0
LAYER
  5
1FE
100
AcDbSymbolTableRecord
100
AcDbLayerTableRecord
  2
01_1_DEFAULT_DATUMS
 70
0
 62
7
  6
CONTINUOUS
370
-3
390
F
  0
LAYER
  5
1FF
100
AcDbSymbolTableRecord
100
AcDbLayerTableRecord
  2
01_PLANES
 70
0
 62
7
  6
CONTINUOUS
370
-3
390
F
  0
LAYER
  5
200
100
AcDbSymbolTableRecord
100
AcDbLayerTableRecord
  2
02_COORD_SYS
 70
0
 62
7
  6
CONTINUOUS
370
-3
390
F
  0
LAYER
  5
201
100
AcDbSymbolTableRecord
100
AcDbLayerTableRecord
  2
03_AXES
 70
0
 62
7
  6
CONTINUOUS
370
-3
390
F
  0
LAYER
  5
202
100
AcDbSymbolTableRecord
100
AcDbLayerTableRecord
  2
04_POINTS
 70
0
 62
7
  6
CONTINUOUS
370
-3
390
F
  0
LAYER
  5
203
100
AcDbSymbolTableRecord
100
AcDbLayerTableRecord
  2
05_CURVES
 70
0
 62
7
  6
CONTINUOUS
370
-3
390
F
  0
LAYER
  5
204
100
AcDbSymbolTableRecord
100
AcDbLayerTableRecord
  2
06_SURFS
 70
0
 62
7
  6
CONTINUOUS
370
-3
390
F
  0
LAYER
  5
205
100
AcDbSymbolTableRecord
100
AcDbLayerTableRecord
  2
07_COSMETICS
 70
0
 62
7
  6
CONTINUOUS
370
-3
390
F
  0
LAYER
  5
206
100
AcDbSymbolTableRecord
100
AcDbLayerTableRecord
  2
10_NOTES
 70
0
 62
7
  6
CONTINUOUS
370
-3
390
F
  0
LAYER
  5
207
100
AcDbSymbolTableRecord
100
AcDbLayerTableRecord
  2
11_NOTES_PUB
 70
0
 62
7
  6
CONTINUOUS
370
-3
390
F
  0
LAYER
  5
208
100
AcDbSymbolTableRecord
100
AcDbLayerTableRecord
  2
13_REF_GTOL
 70
0
 62
7
  6
CONTINUOUS
370
-3
390
F
  0
LAYER
  5
209
100
AcDbSymbolTableRecord
100
AcDbLayerTableRecord
  2
16_MISC
 70
0
 62
7
  6
CONTINUOUS
370
-3
390
F
  0
LAYER
  5
20A
100
AcDbSymbolTableRecord
100
AcDbLayerTableRecord
  2
17_NO_PRINT
 70
0
 62
7
  6
CONTINUOUS
370
-3
390
F
  0
LAYER
  5
20B
100
AcDbSymbolTableRecord
100
AcDbLayerTableRecord
  2
18_DATUM_CAMS_JOINTS
 70
0
 62
7
  6
CONTINUOUS
370
-3
390
F
  0
LAYER
  5
20C
100
AcDbSymbolTableRecord
100
AcDbLayerTableRecord
  2
19_DATUM_FUNCTIONAL
 70
0
 62
7
  6
CONTINUOUS
370
-3
390
F
  0
LAYER
  5
20D
100
AcDbSymbolTableRecord
100
AcDbLayerTableRecord
  2
20_DATUM_KINEMATIC_SCHEME
 70
0
 62
7
  6
CONTINUOUS
370
-3
390
F
  0
ENDTAB
  0
TABLE
  2
STYLE
  5
3
100
AcDbSymbolTable
 70
1
  0
STYLE
  5
11
100
AcDbSymbolTableRecord
100
AcDbTextStyleTableRecord
  2
STANDARD
 70
0
 40
0.0
 41
1.0
 50
0.0
 71
0
 42
0.2
  3
ARIAL.TTF
  4

  0
STYLE
  5
20E
100
AcDbSymbolTableRecord
100
AcDbTextStyleTableRecord
  2
TEXTSTYLE_1
 70
0
 40
0.0
 41
0.8
 50
0.0
 71
0
 42
0.2
  3
gdt
  4

  0
ENDTAB
  0
TABLE
  2
VIEW
  5
6
100
AcDbSymbolTable
 70
0
  0
ENDTAB
  0
TABLE
  2
UCS
  5
7
100
AcDbSymbolTable
 70
0
  0
ENDTAB
  0
TABLE
  2
APPID
  5
9
100
AcDbSymbolTable
 70
1
  0
APPID
  5
20F
100
AcDbSymbolTableRecord
100
AcDbRegAppTableRecord
  2
ACAD
 70
0
  0
ENDTAB
  0
TABLE
  2
BLOCK_RECORD
  5
1
100
AcDbSymbolTable
 70
0
  0
BLOCK_RECORD
  5
210
100
AcDbSymbolTableRecord
100
AcDbBlockTableRecord
  2
*Model_Space
  0
BLOCK_RECORD
  5
211
100
AcDbSymbolTableRecord
100
AcDbBlockTableRecord
  2
*Paper_Space
  0
BLOCK_RECORD
  5
212
100
AcDbSymbolTableRecord
100
AcDbBlockTableRecord
  2
_FILLED
  0
ENDTAB
  0
TABLE
  2
DIMSTYLE
  5
A
100
AcDbSymbolTable
 70
1
100
AcDbDimStyleTable
 71
0
  0
DIMSTYLE
105
213
100
AcDbSymbolTableRecord
100
AcDbDimStyleTableRecord
  2
STANDARD
 70
0
  3

  4

 40
1.0
 41
0.4194545932
 42
1.0
 43
0.38
 44
1.0
 45
0.0
 46
0.0
 47
0.01
 48
0.01
140
0.5872364305
141
0.09
142
0.0
143
25.4
144
1.0
145
0.0
146
1.0
147
0.625
 71
1
 72
0
 73
0
 74
0
 75
0
 76
0
 77
1
 78
8
 79
2
170
0
171
1
172
0
173
0
174
0
175
0
176
0
177
0
178
0
270
2
179
2
271
2
272
2
273
2
274
2
275
0
280
0
281
0
282
0
283
1
284
8
285
0
286
0
287
3
288
0
340
11
278
46
341
212
342
212
343
212
344
212
  0
ENDTAB
  0
ENDSEC
  0
SECTION
  2
BLOCKS
  0
BLOCK
  5
20
100
AcDbEntity
  8
0
100
AcDbBlockBegin
  2
*Model_Space
 70
0
 10
0.0
 20
0.0
 30
0.0
  3
*Model_Space
  1

  0
ENDBLK
  5
21
100
AcDbEntity
  8
0
100
AcDbBlockEnd
  0
BLOCK
  5
1C
100
AcDbEntity
  8
0
100
AcDbBlockBegin
  2
*Paper_Space
 70
0
 10
0.0
 20
0.0
 30
0.0
  3
*Paper_Space
  1

  0
ENDBLK
  5
1D
100
AcDbEntity
  8
0
100
AcDbBlockEnd
  0
BLOCK
  5
214
100
AcDbEntity
  8
0
100
AcDbBlockBegin
  2
_FILLED
 70
64
 10
0.0
 20
0.0
  3
_FILLED
  1

  0
SOLID
  5
215
100
AcDbEntity
  8
0
  6
BYBLOCK
 62
0
100
AcDbTrace
 10
0.0
 20
0.0
 11
-1.0
 21
0.25
 12
-1.0
 22
-0.25
 13
-1.0
 23
-0.25
  0
ENDBLK
  5
216
100
AcDbEntity
  8
0
  6
BYBLOCK
 62
0
100
AcDbBlockEnd
  0
ENDSEC
  0
SECTION
  2
ENTITIES
  0
LINE
  5
217
100
AcDbEntity
  8
0
100
AcDbLine
 62
7
  6
BYLAYER
 10
19.1516587455
 20
3.3241134752
 11
18.8516634694
 21
3.3241134752
  0
LINE
  5
218
100
AcDbEntity
  8
0
100
AcDbLine
 62
7
  6
BYLAYER
 10
21.0516634684
 20
16.3241134752
 11
15.0516634704
 21
16.3241134752
  0
LINE
  5
219
100
AcDbEntity
  8
0
100
AcDbLine
 62
7
  6
BYLAYER
 10
22.0516634797
 20
17.3241134752
 11
14.0516634591
 21
17.3241134752
  0
LINE
  5
21A
100
AcDbEntity
  8
0
100
AcDbLine
 62
7
  6
BYLAYER
 10
15.0516634704
 20
16.3241134752
 11
14.0516634665
 21
17.3241134752
  0
LINE
  5
21B
100
AcDbEntity
  8
0
100
AcDbLine
 62
7
  6
BYLAYER
 10
13.4328613159
 20
27.9668478853
 11
13.4328613159
 21
26.6813790651
  0
LINE
  5
21C
100
AcDbEntity
  8
0
100
AcDbLine
 62
7
  6
BYLAYER
 10
14.0516634694
 20
28.3241134752
 11
13.4328613159
 21
27.9668478853
  0
LINE
  5
21D
100
AcDbEntity
  8
0
100
AcDbLine
 62
7
  6
BYLAYER
 10
14.0516634591
 20
17.3241134752
 11
14.0516634591
 21
22.0741135031
  0
LINE
  5
21E
100
AcDbEntity
  8
0
100
AcDbLine
 62
7
  6
BYLAYER
 10
14.0516634694
 20
38.3241134752
 11
14.0516634694
 21
46.3241134752
  0
LINE
  5
21F
100
AcDbEntity
  8
0
100
AcDbLine
 62
7
  6
BYLAYER
 10
15.0516634694
 20
22.0741135031
 11
15.0516634694
 21
26.3241134752
  0
LINE
  5
220
100
AcDbEntity
  8
0
100
AcDbLine
 62
7
  6
BYLAYER
 10
15.0516634694
 20
28.3241134752
 11
15.0516634694
 21
38.3241134752
  0
LINE
  5
221
100
AcDbEntity
  8
0
100
AcDbLine
 62
7
  6
BYLAYER
 10
14.0516634517
 20
22.0741135031
 11
22.0516634871
 21
22.0741135031
  0
LINE
  5
222
100
AcDbEntity
  8
0
100
AcDbLine
 62
7
  6
BYLAYER
 10
15.7422623927
 20
27.9668478853
 11
15.7422623927
 21
26.6813790651
  0
LINE
  5
223
100
AcDbEntity
  8
0
100
AcDbLine
 62
7
  6
BYLAYER
 10
16.9516634694
 20
16.3241134752
 11
16.9516634694
 21
4.0790969218
  0
LINE
  5
224
100
AcDbEntity
  8
0
100
AcDbLine
 62
7
  6
BYLAYER
 10
13.4328613159
 20
26.6813790651
 11
14.0516634694
 21
26.3241134752
  0
LINE
  5
225
100
AcDbEntity
  8
0
100
AcDbLine
 62
7
  6
BYLAYER
 10
19.1516634694
 20
16.3241134752
 11
19.1516634694
 21
3.3241134752
  0
LINE
  5
226
100
AcDbEntity
  8
0
100
AcDbLine
 62
7
  6
BYLAYER
 10
22.0516634694
 20
26.3241134752
 11
22.6704656229
 21
26.6813790651
  0
LINE
  5
227
100
AcDbEntity
  8
0
100
AcDbLine
 62
7
  6
BYLAYER
 10
22.0516634694
 20
26.3241134752
 11
14.0516634694
 21
26.3241134752
  0
LINE
  5
228
100
AcDbEntity
  8
0
100
AcDbLine
 62
7
  6
BYLAYER
 10
20.3610645462
 20
27.9668478853
 11
20.3610645462
 21
26.6813790651
  0
LINE
  5
229
100
AcDbEntity
  8
0
100
AcDbLine
 62
7
  6
BYLAYER
 10
21.0516634694
 20
38.3241134752
 11
21.0516634694
 21
28.3241134752
  0
LINE
  5
22A
100
AcDbEntity
  8
0
100
AcDbLine
 62
7
  6
BYLAYER
 10
21.0516634694
 20
26.3241134752
 11
21.0516634694
 21
22.0741135031
  0
LINE
  5
22B
100
AcDbEntity
  8
0
100
AcDbLine
 62
7
  6
BYLAYER
 10
22.0516634694
 20
46.3241134752
 11
22.0516634694
 21
38.3241134752
  0
LINE
  5
22C
100
AcDbEntity
  8
0
100
AcDbLine
 62
7
  6
BYLAYER
 10
22.0516634797
 20
22.0741135031
 11
22.0516634797
 21
17.3241134752
  0
LINE
  5
22D
100
AcDbEntity
  8
0
100
AcDbLine
 62
7
  6
BYLAYER
 10
14.0516634694
 20
28.3241134752
 11
22.0516634694
 21
28.3241134752
  0
LINE
  5
22E
100
AcDbEntity
  8
0
100
AcDbLine
 62
7
  6
BYLAYER
 10
22.6704656229
 20
27.9668478853
 11
22.6704656229
 21
26.6813790651
  0
LINE
  5
22F
100
AcDbEntity
  8
0
100
AcDbLine
 62
7
  6
BYLAYER
 10
22.6704656229
 20
27.9668478853
 11
22.0516634694
 21
28.3241134752
  0
LINE
  5
230
100
AcDbEntity
  8
0
100
AcDbLine
 62
7
  6
BYLAYER
 10
22.0516634724
 20
17.3241134752
 11
21.0516634684
 21
16.3241134752
  0
LINE
  5
231
100
AcDbEntity
  8
0
100
AcDbLine
 62
7
  6
BYLAYER
 10
22.0516634694
 20
38.3241134752
 11
14.0516634694
 21
38.3241134752
  0
LINE
  5
232
100
AcDbEntity
  8
0
100
AcDbLine
 62
7
  6
BYLAYER
 10
14.0516634694
 20
46.3241134752
 11
22.0516634694
 21
46.3241134752
  0
ARC
  5
233
100
AcDbEntity
  8
0
100
AcDbCircle
 62
7
  6
BYLAYER
 10
17.0516634694
 20
42.3241134752
 40
4.0
100
AcDbArc
 50
138.5903778907
 51
221.4096216096
  0
ARC
  5
234
100
AcDbEntity
  8
0
100
AcDbCircle
 62
7
  6
BYLAYER
 10
17.7516634694
 20
3.3241134752
 40
1.1
100
AcDbArc
 50
0.0
 51
136.6582414387
  0
SPLINE
  5
235
100
AcDbEntity
  8
0
100
AcDbSpline
 62
7
  6
BYLAYER
 70
0
 71
3
 72
14
 73
10
 74
0
 42
0.0000001
 43
0.0000001
 44
0.0000000001
 40
0.0
 40
0.0
 40
0.0
 40
0.0
 40
0.1199286093
 40
0.2404930608
 40
0.3622461737
 40
0.485641672
 40
0.610991295
 40
0.7384771918
 40
1.0
 40
1.0
 40
1.0
 40
1.0
 10
14.5875618543
 20
26.3241134752
 30
0.0
 10
14.5386828284
 20
26.3241134752
 30
0.0
 10
14.4406160102
 20
26.3282676389
 30
0.0
 10
14.2939890432
 20
26.346831592
 30
0.0
 10
14.147935939
 20
26.377329273
 30
0.0
 10
14.00268592
 20
26.4190611724
 30
0.0
 10
13.8583601937
 20
26.4711690645
 30
0.0
 10
13.6656755594
 20
26.5539859494
 30
0.0
 10
13.5251694445
 20
26.6280849422
 30
0.0
 10
13.4328613159
 20
26.6813790651
 30
0.0
  0
SPLINE
  5
236
100
AcDbEntity
  8
0
100
AcDbSpline
 62
7
  6
BYLAYER
 70
0
 71
3
 72
14
 73
10
 74
0
 42
0.0000001
 43
0.0000001
 44
0.0000000001
 40
0.0
 40
0.0
 40
0.0
 40
0.0
 40
0.2615228632
 40
0.3890087986
 40
0.5143584456
 40
0.6377539801
 40
0.7595070544
 40
0.8800714271
 40
1.0
 40
1.0
 40
1.0
 40
1.0
 10
20.3610645462
 20
27.9668478853
 30
0.0
 10
20.4533726938
 20
28.0201420191
 30
0.0
 10
20.5938788975
 20
28.0942409231
 30
0.0
 10
20.7865635771
 20
28.1770578209
 30
0.0
 10
20.930889327
 20
28.2291657457
 30
0.0
 10
21.0761392852
 20
28.2708979111
 30
0.0
 10
21.2221924132
 20
28.301395319
 30
0.0
 10
21.3688192959
 20
28.3199593985
 30
0.0
 10
21.4668860738
 20
28.3241134752
 30
0.0
 10
21.5157650846
 20
28.3241134752
 30
0.0
  0
SPLINE
  5
237
100
AcDbEntity
  8
0
100
AcDbSpline
 62
7
  6
BYLAYER
 70
0
 71
3
 72
13
 73
9
 74
0
 42
0.0000001
 43
0.0000001
 44
0.0000000001
 40
0.0
 40
0.0
 40
0.0
 40
0.0
 40
0.1250057515
 40
0.2500202242
 40
0.3750288535
 40
0.5000355765
 40
0.7500130495
 40
1.0
 40
1.0
 40
1.0
 40
1.0
 10
18.0516634694
 20
26.3241134752
 30
0.0
 10
17.9539704474
 20
26.3241134752
 30
0.0
 10
17.7585525177
 20
26.3282420028
 30
0.0
 10
17.4659675833
 20
26.3467151399
 30
0.0
 10
17.1743760801
 20
26.3770889214
 30
0.0
 10
16.7875021497
 20
26.4325552059
 30
0.0
 10
16.3080718262
 20
26.5278683569
 30
0.0
 10
15.9299647965
 20
26.6271940484
 30
0.0
 10
15.7422623927
 20
26.6813790651
 30
0.0
  0
SPLINE
  5
238
100
AcDbEntity
  8
0
100
AcDbSpline
 62
7
  6
BYLAYER
 70
0
 71
3
 72
14
 73
10
 74
0
 42
0.0000001
 43
0.0000001
 44
0.0000000001
 40
0.0
 40
0.0
 40
0.0
 40
0.0
 40
0.2615228632
 40
0.3890087986
 40
0.5143584456
 40
0.6377539801
 40
0.7595070544
 40
0.8800714271
 40
1.0
 40
1.0
 40
1.0
 40
1.0
 10
15.7422623927
 20
26.6813790651
 30
0.0
 10
15.649954245
 20
26.6280849312
 30
0.0
 10
15.5094480414
 20
26.5539860273
 30
0.0
 10
15.3167633617
 20
26.4711691294
 30
0.0
 10
15.1724376119
 20
26.4190612046
 30
0.0
 10
15.0271876537
 20
26.3773290393
 30
0.0
 10
14.8811345256
 20
26.3468316313
 30
0.0
 10
14.7345076429
 20
26.3282675519
 30
0.0
 10
14.636440865
 20
26.3241134752
 30
0.0
 10
14.5875618543
 20
26.3241134752
 30
0.0
  0
SPLINE
  5
239
100
AcDbEntity
  8
0
100
AcDbSpline
 62
7
  6
BYLAYER
 70
0
 71
3
 72
14
 73
10
 74
0
 42
0.0000001
 43
0.0000001
 44
0.0000000001
 40
0.0
 40
0.0
 40
0.0
 40
0.0
 40
0.1199286093
 40
0.2404930608
 40
0.3622461737
 40
0.485641672
 40
0.610991295
 40
0.7384771918
 40
1.0
 40
1.0
 40
1.0
 40
1.0
 10
21.5157650846
 20
26.3241134752
 30
0.0
 10
21.4668860587
 20
26.3241134752
 30
0.0
 10
21.3688192405
 20
26.3282676389
 30
0.0
 10
21.2221922735
 20
26.346831592
 30
0.0
 10
21.0761391692
 20
26.377329273
 30
0.0
 10
20.9308891503
 20
26.4190611724
 30
0.0
 10
20.786563424
 20
26.4711690645
 30
0.0
 10
20.5938787896
 20
26.5539859494
 30
0.0
 10
20.4533726748
 20
26.6280849422
 30
0.0
 10
20.3610645462
 20
26.6813790651
 30
0.0
  0
SPLINE
  5
23A
100
AcDbEntity
  8
0
100
AcDbSpline
 62
7
  6
BYLAYER
 70
0
 71
3
 72
13
 73
9
 74
0
 42
0.0000001
 43
0.0000001
 44
0.0000000001
 40
0.0
 40
0.0
 40
0.0
 40
0.0
 40
0.2499870333
 40
0.499964558
 40
0.6249712931
 40
0.7499798971
 40
0.8749942858
 40
1.0
 40
1.0
 40
1.0
 40
1.0
 10
20.3610645462
 20
26.6813790651
 30
0.0
 10
20.1733620804
 20
26.6271940305
 30
0.0
 10
19.7952549077
 20
26.5278684545
 30
0.0
 10
19.3158244797
 20
26.432555322
 30
0.0
 10
18.9289505655
 20
26.3770886829
 30
0.0
 10
18.637359109
 20
26.3467151824
 30
0.0
 10
18.3447743004
 20
26.3282419148
 30
0.0
 10
18.1493564622
 20
26.3241134752
 30
0.0
 10
18.0516634694
 20
26.3241134752
 30
0.0
  0
SPLINE
  5
23B
100
AcDbEntity
  8
0
100
AcDbSpline
 62
7
  6
BYLAYER
 70
0
 71
3
 72
14
 73
10
 74
0
 42
0.0000001
 43
0.0000001
 44
0.0000000001
 40
0.0
 40
0.0
 40
0.0
 40
0.0
 40
0.2615228632
 40
0.3890087986
 40
0.5143584456
 40
0.6377539801
 40
0.7595070544
 40
0.8800714271
 40
1.0
 40
1.0
 40
1.0
 40
1.0
 10
13.4328613159
 20
27.9668478853
 30
0.0
 10
13.5251694635
 20
28.0201420191
 30
0.0
 10
13.6656756672
 20
28.0942409231
 30
0.0
 10
13.8583603468
 20
28.1770578209
 30
0.0
 10
14.0026860967
 20
28.2291657457
 30
0.0
 10
14.1479360549
 20
28.2708979111
 30
0.0
 10
14.293989183
 20
28.301395319
 30
0.0
 10
14.4406160656
 20
28.3199593985
 30
0.0
 10
14.5386828435
 20
28.3241134752
 30
0.0
 10
14.5875618543
 20
28.3241134752
 30
0.0
  0
SPLINE
  5
23C
100
AcDbEntity
  8
0
100
AcDbSpline
 62
7
  6
BYLAYER
 70
0
 71
3
 72
14
 73
10
 74
0
 42
0.0000001
 43
0.0000001
 44
0.0000000001
 40
0.0
 40
0.0
 40
0.0
 40
0.0
 40
0.2615228632
 40
0.3890087986
 40
0.5143584456
 40
0.6377539801
 40
0.7595070544
 40
0.8800714271
 40
1.0
 40
1.0
 40
1.0
 40
1.0
 10
22.6704656229
 20
26.6813790651
 30
0.0
 10
22.5781574753
 20
26.6280849312
 30
0.0
 10
22.4376512716
 20
26.5539860273
 30
0.0
 10
22.244966592
 20
26.4711691294
 30
0.0
 10
22.1006408421
 20
26.4190612046
 30
0.0
 10
21.9553908839
 20
26.3773290393
 30
0.0
 10
21.8093377559
 20
26.3468316313
 30
0.0
 10
21.6627108732
 20
26.3282675519
 30
0.0
 10
21.5646440953
 20
26.3241134752
 30
0.0
 10
21.5157650846
 20
26.3241134752
 30
0.0
  0
SPLINE
  5
23D
100
AcDbEntity
  8
0
100
AcDbSpline
 62
7
  6
BYLAYER
 70
0
 71
3
 72
13
 73
9
 74
0
 42
0.0000001
 43
0.0000001
 44
0.0000000001
 40
0.0
 40
0.0
 40
0.0
 40
0.0
 40
0.1250057515
 40
0.2500202242
 40
0.3750288535
 40
0.5000355765
 40
0.7500130495
 40
1.0
 40
1.0
 40
1.0
 40
1.0
 10
18.0516634694
 20
28.3241134752
 30
0.0
 10
18.1493564914
 20
28.3241134752
 30
0.0
 10
18.3447744211
 20
28.3199849476
 30
0.0
 10
18.6373593555
 20
28.3015118105
 30
0.0
 10
18.9289508587
 20
28.2711380289
 30
0.0
 10
19.3158247891
 20
28.2156717445
 30
0.0
 10
19.7952551127
 20
28.1203585935
 30
0.0
 10
20.1733621424
 20
28.0210329019
 30
0.0
 10
20.3610645462
 20
27.9668478853
 30
0.0
  0
SPLINE
  5
23E
100
AcDbEntity
  8
0
100
AcDbSpline
 62
7
  6
BYLAYER
 70
0
 71
3
 72
13
 73
9
 74
0
 42
0.0000001
 43
0.0000001
 44
0.0000000001
 40
0.0
 40
0.0
 40
0.0
 40
0.0
 40
0.2499870333
 40
0.499964558
 40
0.6249712931
 40
0.7499798971
 40
0.8749942858
 40
1.0
 40
1.0
 40
1.0
 40
1.0
 10
15.7422623927
 20
27.9668478853
 30
0.0
 10
15.9299648584
 20
28.0210329198
 30
0.0
 10
16.3080720312
 20
28.1203584958
 30
0.0
 10
16.7875024591
 20
28.2156716283
 30
0.0
 10
17.1743763733
 20
28.2711382674
 30
0.0
 10
17.4659678298
 20
28.301511768
 30
0.0
 10
17.7585526384
 20
28.3199850356
 30
0.0
 10
17.9539704767
 20
28.3241134752
 30
0.0
 10
18.0516634694
 20
28.3241134752
 30
0.0
  0
SPLINE
  5
23F
100
AcDbEntity
  8
0
100
AcDbSpline
 62
7
  6
BYLAYER
 70
0
 71
3
 72
14
 73
10
 74
0
 42
0.0000001
 43
0.0000001
 44
0.0000000001
 40
0.0
 40
0.0
 40
0.0
 40
0.0
 40
0.1199286093
 40
0.2404930608
 40
0.3622461737
 40
0.485641672
 40
0.610991295
 40
0.7384771918
 40
1.0
 40
1.0
 40
1.0
 40
1.0
 10
21.5157650846
 20
28.3241134752
 30
0.0
 10
21.5646441104
 20
28.3241134752
 30
0.0
 10
21.6627109286
 20
28.3199593115
 30
0.0
 10
21.8093378956
 20
28.3013953583
 30
0.0
 10
21.9553909999
 20
28.2708976773
 30
0.0
 10
22.1006410188
 20
28.229165778
 30
0.0
 10
22.2449667451
 20
28.1770578859
 30
0.0
 10
22.4376513795
 20
28.0942410009
 30
0.0
 10
22.5781574943
 20
28.0201420082
 30
0.0
 10
22.6704656229
 20
27.9668478853
 30
0.0
  0
SPLINE
  5
240
100
AcDbEntity
  8
0
100
AcDbSpline
 62
7
  6
BYLAYER
 70
0
 71
3
 72
14
 73
10
 74
0
 42
0.0000001
 43
0.0000001
 44
0.0000000001
 40
0.0
 40
0.0
 40
0.0
 40
0.0
 40
0.1199286093
 40
0.2404930608
 40
0.3622461737
 40
0.485641672
 40
0.610991295
 40
0.7384771918
 40
1.0
 40
1.0
 40
1.0
 40
1.0
 10
14.5875618543
 20
28.3241134752
 30
0.0
 10
14.6364408801
 20
28.3241134752
 30
0.0
 10
14.7345076984
 20
28.3199593115
 30
0.0
 10
14.8811346653
 20
28.3013953583
 30
0.0
 10
15.0271877696
 20
28.2708976773
 30
0.0
 10
15.1724377885
 20
28.229165778
 30
0.0
 10
15.3167635148
 20
28.1770578859
 30
0.0
 10
15.5094481492
 20
28.0942410009
 30
0.0
 10
15.649954264
 20
28.0201420082
 30
0.0
 10
15.7422623927
 20
27.9668478853
 30
0.0
  0
ENDSEC
  0
SECTION
  2
OBJECTS
  0
DICTIONARY
  5
C
100
AcDbDictionary
280
0
281
1
  3
ACAD_GROUP
350
D
  3
ACAD_MLINESTYLE
350
17
  3
ACAD_LAYOUT
350
1A
  3
ACAD_PLOTSETTINGS
350
19
  3
ACAD_PLOTSTYLENAME
350
E
  0
DICTIONARY
  5
D
102
{ACAD_REACTORS
330
C
102
}
100
AcDbDictionary
280
0
281
1
  0
ACDBDICTIONARYWDFLT
  5
E
102
{ACAD_REACTORS
330
C
102
}
100
AcDbDictionary
281
1
  3
Normal
350
F
100
AcDbDictionaryWithDefault
340
F
  0
DICTIONARY
  5
17
102
{ACAD_REACTORS
330
C
102
}
100
AcDbDictionary
280
0
281
1
  3
Standard
350
18
  0
DICTIONARY
  5
19
102
{ACAD_REACTORS
330
C
102
}
100
AcDbDictionary
281
1
  0
DICTIONARY
  5
1A
102
{ACAD_REACTORS
330
C
102
}
100
AcDbDictionary
281
1
  3
Model
350
241
  3
Layout1
350
242
  0
ACDBPLACEHOLDER
  5
F
102
{ACAD_REACTORS
330
E
102
}
  0
MLINESTYLE
  5
18
102
{ACAD_REACTORS
330
17
102
}
100
AcDbMlineStyle
  2
STANDARD
 70
0
  3

 62
256
 51
90.0
 52
90.0
 71
2
 49
0.5
 62
256
  6
BYLAYER
 49
-0.5
 62
256
  6
BYLAYER
  0
LAYOUT
  5
241
102
{ACAD_REACTORS
330
1A
102
}
100
AcDbPlotSettings
  1

  2
none_device
  4

  6

 40
0.0
 41
0.0
 42
0.0
 43
0.0
 44
210.0
 45
297.0
 46
0.0
 47
0.0
 48
0.0
 49
0.0
140
0.0
141
0.0
142
1.0
143
1.0
 70
1024
 72
1
 73
0
 74
0
  7

 75
0
147
1.0
148
0.0
149
0.0
100
AcDbLayout
  1
Model
 70
0
 71
0
 10
0.0
 20
0.0
 11
210.0
 21
297.0
 12
0.0
 22
0.0
 32
0.0
 14
0.0
 24
0.0
 34
0.0
 15
0.0
 25
0.0
 35
0.0
146
0.0
 13
0.0
 23
0.0
 33
0.0
 16
1.0
 26
0.0
 36
0.0
 17
0.0
 27
1.0
 37
0.0
 76
0
330
210
345
0
346
0
  0
LAYOUT
  5
242
102
{ACAD_REACTORS
330
1A
102
}
100
AcDbPlotSettings
  1

  2
none_device
  4

  6

 40
0.0
 41
0.0
 42
0.0
 43
0.0
 44
210.0
 45
297.0
 46
0.0
 47
0.0
 48
0.0
 49
0.0
140
0.0
141
0.0
142
1.0
143
1.0
 70
0
 72
1
 73
0
 74
0
  7

 75
0
147
1.0
148
0.0
149
0.0
100
AcDbLayout
  1
Layout1
 70
0
 71
1
 10
0.0
 20
0.0
 11
210.0
 21
297.0
 12
0.0
 22
0.0
 32
0.0
 14
0.0
 24
0.0
 34
0.0
 15
0.0
 25
0.0
 35
0.0
146
0.0
 13
0.0
 23
0.0
 33
0.0
 16
1.0
 26
0.0
 36
0.0
 17
0.0
 27
1.0
 37
0.0
 76
0
330
211
345
0
346
0
  0
ENDSEC
  0
EOF
