999
DXF file: C:\Users\sesa63760\OneDrive - Schneider Electric\Documents\7-Dev\_Creo\CAD\MCADPP0000166_3D-CAD\drw0001_1.dxf
999
Pro/ENGINEER 2019471 by Parametric Technology Corporation
  0
SECTION
  2
HEADER
  9
$ACADVER
  1
AC1024
  9
$DWGCODEPAGE
  3
ANSI_1252
  9
$EXTMAX
 10
163.0277563371
 20
230.5678268196
 30
0.0
  9
$EXTMIN
 10
0.0
 20
0.0
 30
0.0
  9
$LIMMIN
 10
0.0
 20
0.0
  9
$LIMMAX
 10
163.0277563371
 20
230.5678268196
  9
$VIEWCTR
 10
81.5138781686
 20
115.2839134098
  9
$VIEWSIZE
 40
230.5678268196
  9
$CLAYER
  8
0
  9
$LTSCALE
 40
15.029606489
  9
$CELTYPE
  6
BYLAYER
  9
$DIMSCALE
 40
1.0
  9
$DIMASZ
 40
1.9408066231
  9
$DIMEXO
 40
1.0
  9
$DIMDLI
 40
10.384091756
  9
$DIMEXE
 40
1.0
  9
$DIMCEN
 40
2.4593901527
  9
$DIMLFAC
 40
1.0
  9
$DIMBLK
  1
_FILLED
  9
$DIMALT
 70
0
  9
$DIMALTF
 40
0.0393700787
  9
$DIMTXT
 40
2.7171292723
  9
$DIMTOL
 70
1
  9
$DIMLIM
 70
0
  9
$DIMTFAC
 40
1.0
  9
$DIMTP
 40
0.01
  9
$DIMTM
 40
0.01
  9
$DIMGAP
 40
0.625
  9
$DIMDSEP
 70
46
  9
$AUNITS
 70
0
  9
$PDMODE
 70
3
  9
$PDSIZE
 40
0.3125
  9
$HANDSEED
  5
424
  9
$TILEMODE
 70
1
  9
$MEASUREMENT
 70
1
  9
$INSUNITS
 70
4
  0
ENDSEC
  0
SECTION
  2
CLASSES
  0
CLASS
  1
ACDBDICTIONARYWDFLT
  2
AcDbDictionaryWithDefault
  3
AutoCAD 2000
 90
0
 91
1
280
0
281
0
  0
CLASS
  1
ACDBPLACEHOLDER
  2
AcDbPlaceHolder
  3
AutoCAD 2000
 90
0
 91
1
280
0
281
0
  0
CLASS
  1
LAYOUT
  2
AcDbLayout
  3
AutoCAD 2000
 90
0
 91
0
280
0
281
0
  0
ENDSEC
  0
SECTION
  2
TABLES
  0
TABLE
  2
VPORT
  5
8
100
AcDbSymbolTable
 70
2
  0
VPORT
  5
1F4
100
AcDbSymbolTableRecord
100
AcDbViewportTableRecord
  2
*ACTIVE
 70
0
 10
0.0
 20
0.0
 11
1.0
 21
1.0
 12
81.5138781686
 22
115.2839134098
 13
0.0
 23
0.0
 14
1.0
 24
1.0
 15
0.0
 25
0.0
 16
0.0
 26
0.0
 36
1.0
 17
0.0
 27
0.0
 37
0.0
 40
230.5678268196
 41
0.7070707071
 42
50.0
 43
0.0
 44
0.0
 50
0.0
 51
0.0
 71
0
 72
100
 73
1
 74
1
 75
0
 76
0
 77
0
 78
0
  0
ENDTAB
  0
TABLE
  2
LTYPE
  5
5
100
AcDbSymbolTable
 70
6
  0
LTYPE
  5
14
100
AcDbSymbolTableRecord
100
AcDbLinetypeTableRecord
  2
BYBLOCK
 70
0
  3

 72
65
 73
0
 40
0.0
  0
LTYPE
  5
15
100
AcDbSymbolTableRecord
100
AcDbLinetypeTableRecord
  2
BYLAYER
 70
0
  3

 72
65
 73
0
 40
0.0
  0
LTYPE
  5
16
100
AcDbSymbolTableRecord
100
AcDbLinetypeTableRecord
  2
CONTINUOUS
 70
64
  3
Solid line
 72
65
 73
0
 40
0.0
  0
LTYPE
  5
1F5
100
AcDbSymbolTableRecord
100
AcDbLinetypeTableRecord
  2
CENTER
 70
64
  3
____ _ ____ _ ____ _ ____ _ ____ _ ____ _ ____
 72
65
 73
4
 40
0.6
 49
0.375
 74
0
 49
-0.075
 74
0
 49
0.075
 74
0
 49
-0.075
 74
0
  0
LTYPE
  5
1F6
100
AcDbSymbolTableRecord
100
AcDbLinetypeTableRecord
  2
HIDDEN
 70
64
  3
- - - - - - - - - - - - - - - - - - - -
 72
65
 73
2
 40
0.2
 49
0.1
 74
0
 49
-0.1
 74
0
  0
LTYPE
  5
1F7
100
AcDbSymbolTableRecord
100
AcDbLinetypeTableRecord
  2
PHANTOM
 70
64
  3
_____ _ _ _____ _ _ _____ _ _ _____
 72
65
 73
6
 40
0.8
 49
0.45
 74
0
 49
-0.05
 74
0
 49
0.1
 74
0
 49
-0.05
 74
0
 49
0.1
 74
0
 49
-0.05
 74
0
  0
LTYPE
  5
1F8
100
AcDbSymbolTableRecord
100
AcDbLinetypeTableRecord
  2
DOT
 70
64
  3
. . . . . . . . . . . . . . . . . . . .
 72
65
 73
2
 40
0.2
 49
0.1
 74
0
 49
-0.1
 74
0
  0
LTYPE
  5
1F9
100
AcDbSymbolTableRecord
100
AcDbLinetypeTableRecord
  2
DASHED
 70
64
  3
- - - - - - - - - - - - - - - - - - - -
 72
65
 73
2
 40
0.2
 49
0.1
 74
0
 49
-0.1
 74
0
  0
ENDTAB
  0
TABLE
  2
LAYER
  5
2
100
AcDbSymbolTable
 70
36
  0
LAYER
  5
10
100
AcDbSymbolTableRecord
100
AcDbLayerTableRecord
  2
0
 70
0
 62
7
  6
CONTINUOUS
370
-3
390
F
  0
LAYER
  5
1FA
100
AcDbSymbolTableRecord
100
AcDbLayerTableRecord
  2
DEFAULT_1
 70
0
 62
7
  6
CENTER
370
-3
390
F
  0
LAYER
  5
1FB
100
AcDbSymbolTableRecord
100
AcDbLayerTableRecord
  2
DEFAULT_2
 70
0
 62
8
  6
HIDDEN
370
-3
390
F
  0
LAYER
  5
1FC
100
AcDbSymbolTableRecord
100
AcDbLayerTableRecord
  2
DEFAULT_3
 70
0
 62
7
  6
PHANTOM
370
-3
390
F
  0
LAYER
  5
1FD
100
AcDbSymbolTableRecord
100
AcDbLayerTableRecord
  2
00_COMPONENTS
 70
0
 62
7
  6
CONTINUOUS
370
-3
390
F
  0
LAYER
  5
1FE
100
AcDbSymbolTableRecord
100
AcDbLayerTableRecord
  2
01_1_DEFAULT_DATUMS
 70
0
 62
7
  6
CONTINUOUS
370
-3
390
F
  0
LAYER
  5
1FF
100
AcDbSymbolTableRecord
100
AcDbLayerTableRecord
  2
01_PLANES
 70
0
 62
7
  6
CONTINUOUS
370
-3
390
F
  0
LAYER
  5
200
100
AcDbSymbolTableRecord
100
AcDbLayerTableRecord
  2
02_COORD_SYS
 70
0
 62
7
  6
CONTINUOUS
370
-3
390
F
  0
LAYER
  5
201
100
AcDbSymbolTableRecord
100
AcDbLayerTableRecord
  2
03_AXES
 70
0
 62
7
  6
CONTINUOUS
370
-3
390
F
  0
LAYER
  5
202
100
AcDbSymbolTableRecord
100
AcDbLayerTableRecord
  2
04_POINTS
 70
0
 62
7
  6
CONTINUOUS
370
-3
390
F
  0
LAYER
  5
203
100
AcDbSymbolTableRecord
100
AcDbLayerTableRecord
  2
05_CURVES
 70
0
 62
7
  6
CONTINUOUS
370
-3
390
F
  0
LAYER
  5
204
100
AcDbSymbolTableRecord
100
AcDbLayerTableRecord
  2
06_SURFS
 70
0
 62
7
  6
CONTINUOUS
370
-3
390
F
  0
LAYER
  5
205
100
AcDbSymbolTableRecord
100
AcDbLayerTableRecord
  2
07_COSMETICS
 70
0
 62
7
  6
CONTINUOUS
370
-3
390
F
  0
LAYER
  5
206
100
AcDbSymbolTableRecord
100
AcDbLayerTableRecord
  2
10_NOTES
 70
0
 62
7
  6
CONTINUOUS
370
-3
390
F
  0
LAYER
  5
207
100
AcDbSymbolTableRecord
100
AcDbLayerTableRecord
  2
11_NOTES_PUB
 70
0
 62
7
  6
CONTINUOUS
370
-3
390
F
  0
LAYER
  5
208
100
AcDbSymbolTableRecord
100
AcDbLayerTableRecord
  2
13_REF_GTOL
 70
0
 62
7
  6
CONTINUOUS
370
-3
390
F
  0
LAYER
  5
209
100
AcDbSymbolTableRecord
100
AcDbLayerTableRecord
  2
16_MISC
 70
0
 62
7
  6
CONTINUOUS
370
-3
390
F
  0
LAYER
  5
20A
100
AcDbSymbolTableRecord
100
AcDbLayerTableRecord
  2
17_NO_PRINT
 70
0
 62
7
  6
CONTINUOUS
370
-3
390
F
  0
LAYER
  5
20B
100
AcDbSymbolTableRecord
100
AcDbLayerTableRecord
  2
18_DATUM_CAMS_JOINTS
 70
0
 62
7
  6
CONTINUOUS
370
-3
390
F
  0
LAYER
  5
20C
100
AcDbSymbolTableRecord
100
AcDbLayerTableRecord
  2
19_DATUM_FUNCTIONAL
 70
0
 62
7
  6
CONTINUOUS
370
-3
390
F
  0
LAYER
  5
20D
100
AcDbSymbolTableRecord
100
AcDbLayerTableRecord
  2
20_DATUM_KINEMATIC_SCHEME
 70
0
 62
7
  6
CONTINUOUS
370
-3
390
F
  0
ENDTAB
  0
TABLE
  2
STYLE
  5
3
100
AcDbSymbolTable
 70
1
  0
STYLE
  5
11
100
AcDbSymbolTableRecord
100
AcDbTextStyleTableRecord
  2
STANDARD
 70
0
 40
0.0
 41
0.8
 50
0.0
 71
0
 42
0.2
  3
txt
  4

  0
STYLE
  5
20E
100
AcDbSymbolTableRecord
100
AcDbTextStyleTableRecord
  2
TEXTSTYLE_1
 70
0
 40
0.0
 41
0.8
 50
0.0
 71
0
 42
0.2
  3
gdt
  4

  0
ENDTAB
  0
TABLE
  2
VIEW
  5
6
100
AcDbSymbolTable
 70
0
  0
ENDTAB
  0
TABLE
  2
UCS
  5
7
100
AcDbSymbolTable
 70
0
  0
ENDTAB
  0
TABLE
  2
APPID
  5
9
100
AcDbSymbolTable
 70
1
  0
APPID
  5
20F
100
AcDbSymbolTableRecord
100
AcDbRegAppTableRecord
  2
ACAD
 70
0
  0
ENDTAB
  0
TABLE
  2
BLOCK_RECORD
  5
1
100
AcDbSymbolTable
 70
0
  0
BLOCK_RECORD
  5
210
100
AcDbSymbolTableRecord
100
AcDbBlockTableRecord
  2
*Model_Space
  0
BLOCK_RECORD
  5
211
100
AcDbSymbolTableRecord
100
AcDbBlockTableRecord
  2
*Paper_Space
  0
BLOCK_RECORD
  5
212
100
AcDbSymbolTableRecord
100
AcDbBlockTableRecord
  2
_FILLED
  0
ENDTAB
  0
TABLE
  2
DIMSTYLE
  5
A
100
AcDbSymbolTable
 70
1
100
AcDbDimStyleTable
 71
0
  0
DIMSTYLE
105
213
100
AcDbSymbolTableRecord
100
AcDbDimStyleTableRecord
  2
STANDARD
 70
0
  3

  4

 40
1.0
 41
1.9408066231
 42
1.0
 43
0.38
 44
1.0
 45
0.0
 46
0.0
 47
0.01
 48
0.01
140
2.7171292723
141
0.09
142
0.0
143
25.4
144
1.0
145
0.0
146
1.0
147
0.625
 71
1
 72
0
 73
0
 74
0
 75
0
 76
0
 77
1
 78
8
 79
2
170
0
171
1
172
0
173
0
174
0
175
0
176
0
177
0
178
0
270
2
179
2
271
2
272
2
273
2
274
2
275
0
280
0
281
0
282
0
283
1
284
8
285
0
286
0
287
3
288
0
340
11
278
46
341
212
342
212
343
212
344
212
  0
ENDTAB
  0
ENDSEC
  0
SECTION
  2
BLOCKS
  0
BLOCK
  5
20
100
AcDbEntity
  8
0
100
AcDbBlockBegin
  2
*Model_Space
 70
0
 10
0.0
 20
0.0
 30
0.0
  3
*Model_Space
  1

  0
ENDBLK
  5
21
100
AcDbEntity
  8
0
100
AcDbBlockEnd
  0
BLOCK
  5
1C
100
AcDbEntity
  8
0
100
AcDbBlockBegin
  2
*Paper_Space
 70
0
 10
0.0
 20
0.0
 30
0.0
  3
*Paper_Space
  1

  0
ENDBLK
  5
1D
100
AcDbEntity
  8
0
100
AcDbBlockEnd
  0
BLOCK
  5
214
100
AcDbEntity
  8
0
100
AcDbBlockBegin
  2
_FILLED
 70
64
 10
0.0
 20
0.0
  3
_FILLED
  1

  0
SOLID
  5
215
100
AcDbEntity
  8
0
  6
BYBLOCK
 62
0
100
AcDbTrace
 10
0.0
 20
0.0
 11
-1.0
 21
0.25
 12
-1.0
 22
-0.25
 13
-1.0
 23
-0.25
  0
ENDBLK
  5
216
100
AcDbEntity
  8
0
  6
BYBLOCK
 62
0
100
AcDbBlockEnd
  0
ENDSEC
  0
SECTION
  2
ENTITIES
  0
LINE
  5
217
100
AcDbEntity
  8
0
100
AcDbLine
 62
7
  6
CONTINUOUS
 10
18.913095414
 20
122.2231008867
 11
19.0005112322
 21
127.9554464692
  0
LINE
  5
218
100
AcDbEntity
  8
0
100
AcDbLine
 62
7
  6
CONTINUOUS
 10
19.0712165255
 20
127.9547372515
 11
19.2608509112
 21
140.3901277215
  0
LINE
  5
219
100
AcDbEntity
  8
0
100
AcDbLine
 62
7
  6
CONTINUOUS
 10
20.9060938007
 20
126.8168749075
 11
20.8248668768
 21
121.490369843
  0
LINE
  5
21A
100
AcDbEntity
  8
0
100
AcDbLine
 62
7
  6
CONTINUOUS
 10
20.8602220687
 20
121.5107820507
 11
20.9414489926
 21
126.8372871152
  0
LINE
  5
21B
100
AcDbEntity
  8
0
100
AcDbLine
 62
7
  6
CONTINUOUS
 10
21.2900049351
 20
142.5068547309
 11
21.3014005086
 21
143.2541264096
  0
LINE
  5
21C
100
AcDbEntity
  8
0
100
AcDbLine
 62
7
  6
CONTINUOUS
 10
22.0112825249
 20
139.3431382658
 11
22.0297936744
 21
140.5570181802
  0
LINE
  5
21D
100
AcDbEntity
  8
0
100
AcDbLine
 62
7
  6
CONTINUOUS
 10
22.0095188553
 20
126.1575865574
 11
21.9282919314
 21
120.8310814929
  0
LINE
  5
21E
100
AcDbEntity
  8
0
100
AcDbLine
 62
7
  6
CONTINUOUS
 10
22.3648344435
 20
139.5472603427
 11
22.3770686204
 21
140.3495239555
  0
LINE
  5
21F
100
AcDbEntity
  8
0
100
AcDbLine
 62
7
  6
CONTINUOUS
 10
23.1337976991
 20
120.1108006679
 11
23.215024623
 21
125.4373057324
  0
LINE
  5
220
100
AcDbEntity
  8
0
100
AcDbLine
 62
7
  6
CONTINUOUS
 10
23.169152891
 20
120.1312128756
 11
23.2503798149
 21
125.4577179401
  0
LINE
  5
221
100
AcDbEntity
  8
0
100
AcDbLine
 62
7
  6
CONTINUOUS
 10
23.5742703657
 20
136.5718542477
 11
23.6020370899
 21
138.3926741194
  0
LINE
  5
222
100
AcDbEntity
  8
0
100
AcDbLine
 62
7
  6
CONTINUOUS
 10
23.6205482394
 20
139.6065540338
 11
23.6483149636
 21
141.4273739054
  0
LINE
  5
223
100
AcDbEntity
  8
0
100
AcDbLine
 62
7
  6
CONTINUOUS
 10
20.0615042668
 20
135.8429704842
 11
20.082153714
 21
137.0555716302
  0
LINE
  5
224
100
AcDbEntity
  8
0
100
AcDbLine
 62
7
  6
CONTINUOUS
 10
23.9278222843
 20
136.7759763247
 11
23.9555890085
 21
138.5967961963
  0
LINE
  5
225
100
AcDbEntity
  8
0
100
AcDbLine
 62
7
  6
CONTINUOUS
 10
23.974100158
 20
139.8106761107
 11
23.9955899097
 21
141.2198796807
  0
LINE
  5
226
100
AcDbEntity
  8
0
100
AcDbLine
 62
7
  6
CONTINUOUS
 10
24.708818007
 20
140.7937311412
 11
24.6810512828
 21
138.9729112695
  0
LINE
  5
227
100
AcDbEntity
  8
0
100
AcDbLine
 62
7
  6
CONTINUOUS
 10
24.6625401333
 20
137.7590313551
 11
24.6347734091
 21
135.9382114834
  0
LINE
  5
228
100
AcDbEntity
  8
0
100
AcDbLine
 62
7
  6
CONTINUOUS
 10
26.2718058478
 20
138.0224471231
 11
26.2532946983
 21
136.8085672087
  0
LINE
  5
229
100
AcDbEntity
  8
0
100
AcDbLine
 62
7
  6
CONTINUOUS
 10
26.6829920801
 20
117.5806448066
 11
26.6380465736
 21
114.6333158144
  0
LINE
  5
22A
100
AcDbEntity
  8
0
100
AcDbLine
 62
7
  6
CONTINUOUS
 10
25.1236320271
 20
144.8789547134
 11
25.1584988235
 21
146.7789096813
  0
LINE
  5
22B
100
AcDbEntity
  8
0
100
AcDbLine
 62
7
  6
CONTINUOUS
 10
27.302084383
 20
144.8874627462
 11
27.3130026719
 21
145.4829119611
  0
LINE
  5
22C
100
AcDbEntity
  8
0
100
AcDbLine
 62
7
  6
CONTINUOUS
 10
28.0201065091
 20
145.891156115
 11
28.0127007654
 21
145.4872700891
  0
LINE
  5
22D
100
AcDbEntity
  8
0
100
AcDbLine
 62
7
  6
CONTINUOUS
 10
28.9516057782
 20
138.662127755
 11
28.8257081341
 21
131.7960653157
  0
LINE
  5
22E
100
AcDbEntity
  8
0
100
AcDbLine
 62
7
  6
CONTINUOUS
 10
25.8656026608
 20
147.1871538352
 11
25.1584988235
 21
146.7789096813
  0
LINE
  5
22F
100
AcDbEntity
  8
0
100
AcDbLine
 62
7
  6
CONTINUOUS
 10
51.7911945135
 20
161.8952162755
 11
53.2054021879
 21
162.7117045833
  0
LINE
  5
230
100
AcDbEntity
  8
0
100
AcDbLine
 62
7
  6
CONTINUOUS
 10
46.4742971134
 20
157.7876182874
 11
26.9665661282
 21
146.5248917812
  0
LINE
  5
231
100
AcDbEntity
  8
0
100
AcDbLine
 62
7
  6
CONTINUOUS
 10
25.1344255109
 20
145.4671112167
 11
21.3014005086
 21
143.2541264096
  0
LINE
  5
232
100
AcDbEntity
  8
0
100
AcDbLine
 62
7
  6
CONTINUOUS
 10
21.7040550987
 20
142.9046728381
 11
25.2395742848
 21
144.9458936075
  0
LINE
  5
233
100
AcDbEntity
  8
0
100
AcDbLine
 62
7
  6
CONTINUOUS
 10
49.0607629354
 20
158.5546438406
 11
52.6669925052
 21
160.6366890253
  0
LINE
  5
234
100
AcDbEntity
  8
0
100
AcDbLine
 62
7
  6
CONTINUOUS
 10
27.6521329826
 20
146.1125030631
 11
33.6696861576
 21
149.5867182703
  0
LINE
  5
235
100
AcDbEntity
  8
0
100
AcDbLine
 62
7
  6
CONTINUOUS
 10
30.8603241721
 20
106.9364755115
 11
30.8603241721
 21
109.9748361749
  0
LINE
  5
236
100
AcDbEntity
  8
0
100
AcDbLine
 62
7
  6
CONTINUOUS
 10
31.361874461
 20
140.2108271757
 11
31.4133049925
 21
143.0164589707
  0
LINE
  5
237
100
AcDbEntity
  8
0
100
AcDbLine
 62
7
  6
CONTINUOUS
 10
34.3766353003
 20
149.161467474
 11
34.3486601493
 21
147.6357905269
  0
LINE
  5
238
100
AcDbEntity
  8
0
100
AcDbLine
 62
7
  6
CONTINUOUS
 10
28.9516057782
 20
138.662127755
 11
33.6419428859
 21
141.6758674321
  0
LINE
  5
239
100
AcDbEntity
  8
0
100
AcDbLine
 62
7
  6
CONTINUOUS
 10
31.4133049925
 20
143.0164589707
 11
32.1202031945
 21
143.4248268203
  0
LINE
  5
23A
100
AcDbEntity
  8
0
100
AcDbLine
 62
7
  6
CONTINUOUS
 10
27.3130026719
 20
145.4829119611
 11
28.0201065091
 21
145.891156115
  0
LINE
  5
23B
100
AcDbEntity
  8
0
100
AcDbLine
 62
7
  6
CONTINUOUS
 10
40.3198713588
 20
152.6288155708
 11
49.4415108588
 21
157.8951651558
  0
LINE
  5
23C
100
AcDbEntity
  8
0
100
AcDbLine
 62
7
  6
CONTINUOUS
 10
28.0127007654
 20
145.4872700891
 11
34.3766353003
 21
149.161467474
  0
LINE
  5
23D
100
AcDbEntity
  8
0
100
AcDbLine
 62
7
  6
CONTINUOUS
 10
19.2608509112
 20
140.3901277215
 11
20.8442659247
 21
141.3043073489
  0
LINE
  5
23E
100
AcDbEntity
  8
0
100
AcDbLine
 62
7
  6
CONTINUOUS
 10
28.3605622316
 20
144.1785812189
 11
40.9891187346
 21
151.4696381937
  0
LINE
  5
23F
100
AcDbEntity
  8
0
100
AcDbLine
 62
7
  6
CONTINUOUS
 10
56.9184531248
 20
160.4931839724
 11
62.6307854339
 21
163.7911808824
  0
LINE
  5
240
100
AcDbEntity
  8
0
100
AcDbLine
 62
7
  6
CONTINUOUS
 10
22.3648344435
 20
139.5472603427
 11
22.0112825249
 21
139.3431382658
  0
LINE
  5
241
100
AcDbEntity
  8
0
100
AcDbLine
 62
7
  6
CONTINUOUS
 10
23.974100158
 20
139.8106761107
 11
23.6205482394
 21
139.6065540338
  0
LINE
  5
242
100
AcDbEntity
  8
0
100
AcDbLine
 62
7
  6
CONTINUOUS
 10
23.9555890085
 20
138.5967961963
 11
23.6020370899
 21
138.3926741194
  0
LINE
  5
243
100
AcDbEntity
  8
0
100
AcDbLine
 62
7
  6
CONTINUOUS
 10
32.459650134
 20
143.2206394571
 11
38.4770076984
 21
146.6949723298
  0
LINE
  5
244
100
AcDbEntity
  8
0
100
AcDbLine
 62
7
  6
CONTINUOUS
 10
20.082153714
 20
137.0555716302
 11
21.4813884112
 21
137.8632095236
  0
LINE
  5
245
100
AcDbEntity
  8
0
100
AcDbLine
 62
7
  6
CONTINUOUS
 10
76.9152173048
 20
167.0705486893
 11
65.1815991594
 21
162.1714571015
  0
LINE
  5
246
100
AcDbEntity
  8
0
100
AcDbLine
 62
7
  6
CONTINUOUS
 10
103.1393493476
 20
69.9783714839
 11
102.6451571325
 21
69.8700568133
  0
LINE
  5
247
100
AcDbEntity
  8
0
100
AcDbLine
 62
7
  6
CONTINUOUS
 10
38.5387857657
 20
107.5227117234
 11
38.4605959829
 21
102.3953690342
  0
LINE
  5
248
100
AcDbEntity
  8
0
100
AcDbLine
 62
7
  6
CONTINUOUS
 10
39.1839333474
 20
146.2698149471
 11
39.1469031907
 21
144.2503064014
  0
LINE
  5
249
100
AcDbEntity
  8
0
100
AcDbLine
 62
7
  6
CONTINUOUS
 10
58.8055737429
 20
157.704176304
 11
60.2197814173
 21
158.5206646118
  0
LINE
  5
24A
100
AcDbEntity
  8
0
100
AcDbLine
 62
7
  6
CONTINUOUS
 10
25.0160920519
 20
137.963153432
 11
24.6625401333
 21
137.7590313551
  0
LINE
  5
24B
100
AcDbEntity
  8
0
100
AcDbLine
 62
7
  6
CONTINUOUS
 10
23.9278222843
 20
136.7759763247
 11
23.5742703657
 21
136.5718542477
  0
LINE
  5
24C
100
AcDbEntity
  8
0
100
AcDbLine
 62
7
  6
CONTINUOUS
 10
60.1906273565
 20
156.6088692929
 11
65.1307742417
 21
159.4610474016
  0
LINE
  5
24D
100
AcDbEntity
  8
0
100
AcDbLine
 62
7
  6
CONTINUOUS
 10
39.1475672215
 20
144.2865205577
 11
43.6391068709
 21
146.8796967041
  0
LINE
  5
24E
100
AcDbEntity
  8
0
100
AcDbLine
 62
7
  6
CONTINUOUS
 10
34.8612568149
 20
141.7760020824
 11
39.1469031907
 21
144.2503064014
  0
LINE
  5
24F
100
AcDbEntity
  8
0
100
AcDbLine
 62
7
  6
CONTINUOUS
 10
38.3397715848
 20
142.5312931563
 11
35.9241489134
 21
141.1366410817
  0
LINE
  5
250
100
AcDbEntity
  8
0
100
AcDbLine
 62
7
  6
CONTINUOUS
 10
44.3083542467
 20
145.720519327
 11
53.4299937468
 21
150.986868912
  0
LINE
  5
251
100
AcDbEntity
  8
0
100
AcDbLine
 62
7
  6
CONTINUOUS
 10
40.4187126876
 20
142.813499789
 11
36.702910311
 21
140.6681930923
  0
LINE
  5
252
100
AcDbEntity
  8
0
100
AcDbLine
 62
7
  6
CONTINUOUS
 10
53.8107416702
 20
150.3273902272
 11
57.41697124
 21
152.4094354119
  0
LINE
  5
253
100
AcDbEntity
  8
0
100
AcDbLine
 62
7
  6
CONTINUOUS
 10
26.579033274
 20
134.4609125507
 11
28.8991327714
 21
135.8004146244
  0
LINE
  5
254
100
AcDbEntity
  8
0
100
AcDbLine
 62
7
  6
CONTINUOUS
 10
33.1659395026
 20
142.7957855343
 11
39.1839333474
 21
146.2698149471
  0
LINE
  5
255
100
AcDbEntity
  8
0
100
AcDbLine
 62
7
  6
CONTINUOUS
 10
42.5348404604
 20
141.5491290172
 11
42.5175633875
 21
140.4161744304
  0
LINE
  5
256
100
AcDbEntity
  8
0
100
AcDbLine
 62
7
  6
CONTINUOUS
 10
44.4928354661
 20
122.3718253359
 11
44.6187331101
 21
129.2378877752
  0
LINE
  5
257
100
AcDbEntity
  8
0
100
AcDbLine
 62
7
  6
CONTINUOUS
 10
42.5348404604
 20
141.5491290172
 11
38.8117916876
 21
139.3996386368
  0
LINE
  5
258
100
AcDbEntity
  8
0
100
AcDbLine
 62
7
  6
CONTINUOUS
 10
19.0358664241
 20
127.9758586769
 11
19.0005112322
 21
127.9554464692
  0
LINE
  5
259
100
AcDbEntity
  8
0
100
AcDbLine
 62
7
  6
CONTINUOUS
 10
19.0355295211
 20
127.9537660625
 11
19.0627153902
 21
127.9694617376
  0
LINE
  5
25A
100
AcDbEntity
  8
0
100
AcDbLine
 62
7
  6
CONTINUOUS
 10
58.6933961771
 20
150.3480640226
 11
58.8114825179
 21
150.4162407963
  0
LINE
  5
25B
100
AcDbEntity
  8
0
100
AcDbLine
 62
7
  6
CONTINUOUS
 10
42.5175633875
 20
140.4161744304
 11
39.7643764998
 21
138.8266307279
  0
LINE
  5
25C
100
AcDbEntity
  8
0
100
AcDbLine
 62
7
  6
CONTINUOUS
 10
20.9414489926
 20
126.8372871152
 11
20.9060938007
 21
126.8168749075
  0
LINE
  5
25D
100
AcDbEntity
  8
0
100
AcDbLine
 62
7
  6
CONTINUOUS
 10
22.0448740471
 20
126.1779987651
 11
22.0095188553
 21
126.1575865574
  0
LINE
  5
25E
100
AcDbEntity
  8
0
100
AcDbLine
 62
7
  6
CONTINUOUS
 10
23.2503798149
 20
125.4577179401
 11
23.215024623
 21
125.4373057324
  0
LINE
  5
25F
100
AcDbEntity
  8
0
100
AcDbLine
 62
7
  6
CONTINUOUS
 10
45.6322259082
 20
104.8341977894
 11
45.530616272
 21
98.171083939
  0
LINE
  5
260
100
AcDbEntity
  8
0
100
AcDbLine
 62
7
  6
CONTINUOUS
 10
46.8624038411
 20
124.4947761562
 11
46.8809149906
 21
125.7086560707
  0
LINE
  5
261
100
AcDbEntity
  8
0
100
AcDbLine
 62
7
  6
CONTINUOUS
 10
47.2159557597
 20
124.6988982332
 11
47.2281899366
 21
125.501161846
  0
LINE
  5
262
100
AcDbEntity
  8
0
100
AcDbLine
 62
7
  6
CONTINUOUS
 10
48.4253916819
 20
121.7234921382
 11
48.4531584061
 21
123.5443120098
  0
LINE
  5
263
100
AcDbEntity
  8
0
100
AcDbLine
 62
7
  6
CONTINUOUS
 10
48.4716695556
 20
124.7581919243
 11
48.4994362798
 21
126.5790117959
  0
LINE
  5
264
100
AcDbEntity
  8
0
100
AcDbLine
 62
7
  6
CONTINUOUS
 10
48.7789436005
 20
121.9276142151
 11
48.8067103248
 21
123.7484340868
  0
LINE
  5
265
100
AcDbEntity
  8
0
100
AcDbLine
 62
7
  6
CONTINUOUS
 10
48.8252214742
 20
124.9623140012
 11
48.8467112259
 21
126.3715175712
  0
LINE
  5
266
100
AcDbEntity
  8
0
100
AcDbLine
 62
7
  6
CONTINUOUS
 10
49.1789711457
 20
104.5490011974
 11
49.3871843265
 21
118.2027074929
  0
LINE
  5
267
100
AcDbEntity
  8
0
100
AcDbLine
 62
7
  6
CONTINUOUS
 10
49.5599393232
 20
125.9453690316
 11
49.532172599
 21
124.12454916
  0
LINE
  5
268
100
AcDbEntity
  8
0
100
AcDbLine
 62
7
  6
CONTINUOUS
 10
49.5136614495
 20
122.9106692456
 11
49.4858947253
 21
121.0898493739
  0
LINE
  5
269
100
AcDbEntity
  8
0
100
AcDbLine
 62
7
  6
CONTINUOUS
 10
49.5258432712
 20
129.7714158
 11
49.5684599706
 21
132.0955968523
  0
LINE
  5
26A
100
AcDbEntity
  8
0
100
AcDbLine
 62
7
  6
CONTINUOUS
 10
20.8602220687
 20
121.5107820507
 11
20.8248668768
 21
121.490369843
  0
LINE
  5
26B
100
AcDbEntity
  8
0
100
AcDbLine
 62
7
  6
CONTINUOUS
 10
23.169152891
 20
120.1312128756
 11
23.1337976991
 21
120.1108006679
  0
LINE
  5
26C
100
AcDbEntity
  8
0
100
AcDbLine
 62
7
  6
CONTINUOUS
 10
91.004765519
 20
158.8989614935
 11
90.794682196
 21
158.7776705544
  0
LINE
  5
26D
100
AcDbEntity
  8
0
100
AcDbLine
 62
7
  6
CONTINUOUS
 10
102.6210301066
 20
64.0599817955
 11
95.0207582957
 21
68.6010882729
  0
LINE
  5
26E
100
AcDbEntity
  8
0
100
AcDbLine
 62
7
  6
CONTINUOUS
 10
87.9507380066
 20
72.825373368
 11
79.9969651814
 21
77.5776941001
  0
LINE
  5
26F
100
AcDbEntity
  8
0
100
AcDbLine
 62
7
  6
CONTINUOUS
 10
78.2294601091
 20
78.6337653739
 11
70.2756872839
 21
83.386086106
  0
LINE
  5
270
100
AcDbEntity
  8
0
100
AcDbLine
 62
7
  6
CONTINUOUS
 10
63.2056669947
 20
87.6103712011
 11
55.2518941695
 21
92.3626919332
  0
LINE
  5
271
100
AcDbEntity
  8
0
100
AcDbLine
 62
7
  6
CONTINUOUS
 10
53.4843890972
 20
93.418763207
 11
45.530616272
 21
98.171083939
  0
LINE
  5
272
100
AcDbEntity
  8
0
100
AcDbLine
 62
7
  6
CONTINUOUS
 10
38.4605959829
 20
102.3953690342
 11
30.8603241721
 21
106.9364755115
  0
LINE
  5
273
100
AcDbEntity
  8
0
100
AcDbLine
 62
7
  6
CONTINUOUS
 10
51.122927164
 20
123.1740850136
 11
51.1044160146
 21
121.9602050992
  0
LINE
  5
274
100
AcDbEntity
  8
0
100
AcDbLine
 62
7
  6
CONTINUOUS
 10
52.9353081167
 20
123.2891342993
 11
52.8686679786
 21
118.9191666074
  0
LINE
  5
275
100
AcDbEntity
  8
0
100
AcDbLine
 62
7
  6
CONTINUOUS
 10
53.5273954338
 20
96.2389299495
 11
53.4843890972
 21
93.418763207
  0
LINE
  5
276
100
AcDbEntity
  8
0
100
AcDbLine
 62
7
  6
CONTINUOUS
 10
55.294900506
 20
95.1828586757
 11
55.2518941695
 21
92.3626919332
  0
LINE
  5
277
100
AcDbEntity
  8
0
100
AcDbLine
 62
7
  6
CONTINUOUS
 10
52.3745426596
 20
130.4076552084
 11
52.3657109738
 21
129.9260027801
  0
LINE
  5
278
100
AcDbEntity
  8
0
100
AcDbLine
 62
7
  6
CONTINUOUS
 10
53.0816464968
 20
130.8158993622
 11
53.0573524705
 21
129.4909794023
  0
LINE
  5
279
100
AcDbEntity
  8
0
100
AcDbLine
 62
7
  6
CONTINUOUS
 10
55.8105223464
 20
126.7915459193
 11
55.8386201191
 21
128.3239102693
  0
LINE
  5
27A
100
AcDbEntity
  8
0
100
AcDbLine
 62
7
  6
CONTINUOUS
 10
51.7911945135
 20
161.8952162755
 11
51.7535273327
 21
160.1093028101
  0
LINE
  5
27B
100
AcDbEntity
  8
0
100
AcDbLine
 62
7
  6
CONTINUOUS
 10
49.5684599706
 20
132.0955968523
 11
44.6187331101
 21
129.2378877752
  0
LINE
  5
27C
100
AcDbEntity
  8
0
100
AcDbLine
 62
7
  6
CONTINUOUS
 10
76.58667477
 20
147.0800992897
 11
78.0008824445
 21
147.8965875974
  0
LINE
  5
27D
100
AcDbEntity
  8
0
100
AcDbLine
 62
7
  6
CONTINUOUS
 10
81.39080766
 20
148.2883658336
 11
95.0732669101
 21
156.187890211
  0
LINE
  5
27E
100
AcDbEntity
  8
0
100
AcDbLine
 62
7
  6
CONTINUOUS
 10
46.555176415
 20
128.0563107286
 11
50.090695601
 21
130.097531498
  0
LINE
  5
27F
100
AcDbEntity
  8
0
100
AcDbLine
 62
7
  6
CONTINUOUS
 10
73.9118842516
 20
143.706281731
 11
77.5181138214
 21
145.7883269158
  0
LINE
  5
280
100
AcDbEntity
  8
0
100
AcDbLine
 62
7
  6
CONTINUOUS
 10
52.3955434076
 20
131.2286106415
 11
58.4130965827
 21
134.7028258487
  0
LINE
  5
281
100
AcDbEntity
  8
0
100
AcDbLine
 62
7
  6
CONTINUOUS
 10
52.3745426596
 20
130.4076552084
 11
53.0816464968
 21
130.8158993622
  0
LINE
  5
282
100
AcDbEntity
  8
0
100
AcDbLine
 62
7
  6
CONTINUOUS
 10
65.170992675
 20
137.7804534613
 11
74.292632175
 21
143.0468030463
  0
LINE
  5
283
100
AcDbEntity
  8
0
100
AcDbLine
 62
7
  6
CONTINUOUS
 10
87.2746096613
 20
150.4892249895
 11
95.1941726381
 21
155.0615595129
  0
LINE
  5
284
100
AcDbEntity
  8
0
100
AcDbLine
 62
7
  6
CONTINUOUS
 10
53.2116835478
 20
129.3302191094
 11
65.8402400508
 21
136.6212760842
  0
LINE
  5
285
100
AcDbEntity
  8
0
100
AcDbLine
 62
7
  6
CONTINUOUS
 10
53.0920649761
 20
130.7978516324
 11
59.1200526041
 21
134.2776501956
  0
LINE
  5
286
100
AcDbEntity
  8
0
100
AcDbLine
 62
7
  6
CONTINUOUS
 10
93.8032393201
 20
74.5026074103
 11
51.3831175855
 21
99.8483179813
  0
LINE
  5
287
100
AcDbEntity
  8
0
100
AcDbLine
 62
7
  6
CONTINUOUS
 10
44.3130972964
 20
104.0726030764
 11
26.6380465736
 21
114.6333158144
  0
LINE
  5
288
100
AcDbEntity
  8
0
100
AcDbLine
 62
7
  6
CONTINUOUS
 10
101.5363639374
 20
72.4660163864
 11
100.4405107926
 21
73.1207805762
  0
LINE
  5
289
100
AcDbEntity
  8
0
100
AcDbLine
 62
7
  6
CONTINUOUS
 10
92.9362078409
 20
77.9948359403
 11
18.913095414
 21
122.2231008867
  0
LINE
  5
28A
100
AcDbEntity
  8
0
100
AcDbLine
 62
7
  6
CONTINUOUS
 10
49.1789711457
 20
104.5490011974
 11
23.1337976991
 21
120.1108006679
  0
LINE
  5
28B
100
AcDbEntity
  8
0
100
AcDbLine
 62
7
  6
CONTINUOUS
 10
21.9282919314
 20
120.8310814929
 11
20.8248668768
 21
121.490369843
  0
LINE
  5
28C
100
AcDbEntity
  8
0
100
AcDbLine
 62
7
  6
CONTINUOUS
 10
49.1795988429
 20
104.5901628276
 11
23.169152891
 21
120.1312128756
  0
LINE
  5
28D
100
AcDbEntity
  8
0
100
AcDbLine
 62
7
  6
CONTINUOUS
 10
21.9289196286
 20
120.8722431231
 11
20.8602220687
 21
121.5107820507
  0
LINE
  5
28E
100
AcDbEntity
  8
0
100
AcDbLine
 62
7
  6
CONTINUOUS
 10
58.6933961771
 20
150.3480640226
 11
58.8055737429
 21
157.704176304
  0
LINE
  5
28F
100
AcDbEntity
  8
0
100
AcDbLine
 62
7
  6
CONTINUOUS
 10
60.0845924702
 20
149.6555669685
 11
60.2197814173
 21
158.5206646118
  0
LINE
  5
290
100
AcDbEntity
  8
0
100
AcDbLine
 62
7
  6
CONTINUOUS
 10
61.2914478556
 20
118.2964023432
 11
61.224848201
 21
113.9264104168
  0
LINE
  5
291
100
AcDbEntity
  8
0
100
AcDbLine
 62
7
  6
CONTINUOUS
 10
58.4853718378
 20
126.4934459556
 11
58.4896948708
 21
126.7292157866
  0
LINE
  5
292
100
AcDbEntity
  8
0
100
AcDbLine
 62
7
  6
CONTINUOUS
 10
58.6035980536
 20
127.4942823532
 11
58.5863151172
 21
126.5517252372
  0
LINE
  5
293
100
AcDbEntity
  8
0
100
AcDbLine
 62
7
  6
CONTINUOUS
 10
59.1200526041
 20
134.2776501956
 11
59.0915821299
 21
132.7249598748
  0
LINE
  5
294
100
AcDbEntity
  8
0
100
AcDbLine
 62
7
  6
CONTINUOUS
 10
58.6035980536
 20
127.4942823532
 11
58.489693954
 21
126.7292158449
  0
LINE
  5
295
100
AcDbEntity
  8
0
100
AcDbLine
 62
7
  6
CONTINUOUS
 10
47.2159557597
 20
124.6988982332
 11
46.8624038411
 21
124.4947761562
  0
LINE
  5
296
100
AcDbEntity
  8
0
100
AcDbLine
 62
7
  6
CONTINUOUS
 10
97.925195552
 20
153.4297934192
 11
100.9077058462
 21
155.1517362618
  0
LINE
  5
297
100
AcDbEntity
  8
0
100
AcDbLine
 62
7
  6
CONTINUOUS
 10
48.8252214742
 20
124.9623140012
 11
48.4716695556
 21
124.7581919243
  0
LINE
  5
298
100
AcDbEntity
  8
0
100
AcDbLine
 62
7
  6
CONTINUOUS
 10
46.1641997914
 20
123.3367822191
 11
44.4928354661
 21
122.3718253359
  0
LINE
  5
299
100
AcDbEntity
  8
0
100
AcDbLine
 62
7
  6
CONTINUOUS
 10
55.8386206253
 20
128.3239105616
 11
56.5457239563
 21
128.7321544232
  0
LINE
  5
29A
100
AcDbEntity
  8
0
100
AcDbLine
 62
7
  6
CONTINUOUS
 10
48.8067103248
 20
123.7484340868
 11
48.4531584061
 21
123.5443120098
  0
LINE
  5
29B
100
AcDbEntity
  8
0
100
AcDbLine
 62
7
  6
CONTINUOUS
 10
57.2028345759
 20
128.336882971
 11
63.220387751
 21
131.8110981782
  0
LINE
  5
29C
100
AcDbEntity
  8
0
100
AcDbLine
 62
7
  6
CONTINUOUS
 10
57.9097891595
 20
127.9116289018
 11
63.9273423346
 21
131.385844109
  0
LINE
  5
29D
100
AcDbEntity
  8
0
100
AcDbLine
 62
7
  6
CONTINUOUS
 10
49.8672133681
 20
123.1147913225
 11
49.5136614495
 21
122.9106692456
  0
LINE
  5
29E
100
AcDbEntity
  8
0
100
AcDbLine
 62
7
  6
CONTINUOUS
 10
48.7789436005
 20
121.9276142151
 11
48.4253916819
 21
121.7234921382
  0
LINE
  5
29F
100
AcDbEntity
  8
0
100
AcDbLine
 62
7
  6
CONTINUOUS
 10
65.9092248983
 20
130.7795839337
 11
52.9353081167
 21
123.2891342993
  0
LINE
  5
2A0
100
AcDbEntity
  8
0
100
AcDbLine
 62
7
  6
CONTINUOUS
 10
66.4485697938
 20
130.8525896078
 11
68.4902281871
 21
132.0313345946
  0
LINE
  5
2A1
100
AcDbEntity
  8
0
100
AcDbLine
 62
7
  6
CONTINUOUS
 10
93.8587727686
 20
78.1442471535
 11
97.2877326088
 21
76.0954688824
  0
LINE
  5
2A2
100
AcDbEntity
  8
0
100
AcDbLine
 62
7
  6
CONTINUOUS
 10
101.56104547
 20
74.084522939
 11
103.1871501365
 21
73.1129373671
  0
LINE
  5
2A3
100
AcDbEntity
  8
0
100
AcDbLine
 62
7
  6
CONTINUOUS
 10
23.215024623
 20
125.4373057324
 11
22.0095188553
 21
126.1575865574
  0
LINE
  5
2A4
100
AcDbEntity
  8
0
100
AcDbLine
 62
7
  6
CONTINUOUS
 10
20.9060938007
 20
126.8168749075
 11
19.0005112322
 21
127.9554464692
  0
LINE
  5
2A5
100
AcDbEntity
  8
0
100
AcDbLine
 62
7
  6
CONTINUOUS
 10
23.2503798149
 20
125.4577179401
 11
22.0448740471
 21
126.1779987651
  0
LINE
  5
2A6
100
AcDbEntity
  8
0
100
AcDbLine
 62
7
  6
CONTINUOUS
 10
20.9414489926
 20
126.8372871152
 11
19.0358664241
 21
127.9758586769
  0
LINE
  5
2A7
100
AcDbEntity
  8
0
100
AcDbLine
 62
7
  6
CONTINUOUS
 10
63.2838567776
 20
92.7377138903
 11
63.2056669947
 21
87.6103712011
  0
LINE
  5
2A8
100
AcDbEntity
  8
0
100
AcDbLine
 62
7
  6
CONTINUOUS
 10
61.8259046203
 20
114.2734070985
 11
61.8956015294
 21
118.8453409711
  0
LINE
  5
2A9
100
AcDbEntity
  8
0
100
AcDbLine
 62
7
  6
CONTINUOUS
 10
61.8078054333
 20
114.0462753068
 11
61.8118412358
 21
114.2818113477
  0
LINE
  5
2AA
100
AcDbEntity
  8
0
100
AcDbLine
 62
7
  6
CONTINUOUS
 10
63.9273423346
 20
131.385844109
 11
63.8949014616
 21
129.6166206972
  0
LINE
  5
2AB
100
AcDbEntity
  8
0
100
AcDbLine
 62
7
  6
CONTINUOUS
 10
69.9454271963
 20
131.325923896
 11
78.281115063
 21
136.1385068025
  0
LINE
  5
2AC
100
AcDbEntity
  8
0
100
AcDbLine
 62
7
  6
CONTINUOUS
 10
78.6618629864
 20
135.4790281177
 11
81.2179755001
 21
136.9547915564
  0
LINE
  5
2AD
100
AcDbEntity
  8
0
100
AcDbLine
 62
7
  6
CONTINUOUS
 10
52.8921132969
 20
120.4566076558
 11
50.2327851171
 21
118.9190760324
  0
LINE
  5
2AE
100
AcDbEntity
  8
0
100
AcDbLine
 62
7
  6
CONTINUOUS
 10
96.3478494992
 20
145.0680309555
 11
104.267412476
 21
149.6403654788
  0
LINE
  5
2AF
100
AcDbEntity
  8
0
100
AcDbLine
 62
7
  6
CONTINUOUS
 10
30.8603241721
 20
109.9748361749
 11
30.9717489728
 21
110.0284902965
  0
LINE
  5
2B0
100
AcDbEntity
  8
0
100
AcDbLine
 62
7
  6
CONTINUOUS
 10
111.6016857994
 20
77.9710427982
 11
109.9755811329
 21
78.9426283701
  0
LINE
  5
2B1
100
AcDbEntity
  8
0
100
AcDbLine
 62
7
  6
CONTINUOUS
 10
70.3538770667
 20
88.5134287952
 11
70.2756872839
 21
83.386086106
  0
LINE
  5
2B2
100
AcDbEntity
  8
0
100
AcDbLine
 62
7
  6
CONTINUOUS
 10
71.7135251573
 20
109.6464140467
 11
71.7320363068
 21
110.8602939612
  0
LINE
  5
2B3
100
AcDbEntity
  8
0
100
AcDbLine
 62
7
  6
CONTINUOUS
 10
72.0670770759
 20
109.8505361237
 11
72.0793112529
 21
110.6527997364
  0
LINE
  5
2B4
100
AcDbEntity
  8
0
100
AcDbLine
 62
7
  6
CONTINUOUS
 10
69.7155805713
 20
114.1413925339
 11
69.5896829272
 21
107.2753300947
  0
LINE
  5
2B5
100
AcDbEntity
  8
0
100
AcDbLine
 62
7
  6
CONTINUOUS
 10
104.5460929669
 20
146.2073487629
 11
110.3089892402
 21
149.534538617
  0
LINE
  5
2B6
100
AcDbEntity
  8
0
100
AcDbLine
 62
7
  6
CONTINUOUS
 10
66.8453894198
 20
121.7030163554
 11
61.8956599989
 21
118.8453058
  0
LINE
  5
2B7
100
AcDbEntity
  8
0
100
AcDbLine
 62
7
  6
CONTINUOUS
 10
61.2915064975
 20
118.296367305
 11
61.8925447659
 21
118.643375283
  0
LINE
  5
2B8
100
AcDbEntity
  8
0
100
AcDbLine
 62
7
  6
CONTINUOUS
 10
67.0151542163
 20
121.6008976484
 11
74.2654231494
 21
125.7868168765
  0
LINE
  5
2B9
100
AcDbEntity
  8
0
100
AcDbLine
 62
7
  6
CONTINUOUS
 10
87.2336738155
 20
131.7720989489
 11
85.5654422281
 21
130.808950742
  0
LINE
  5
2BA
100
AcDbEntity
  8
0
100
AcDbLine
 62
7
  6
CONTINUOUS
 10
42.8646534457
 20
104.9380376182
 11
38.4605959829
 21
102.3953690342
  0
LINE
  5
2BB
100
AcDbEntity
  8
0
100
AcDbLine
 62
7
  6
CONTINUOUS
 10
85.5379660911
 20
129.0071863039
 11
83.5405736896
 21
127.8539981469
  0
LINE
  5
2BC
100
AcDbEntity
  8
0
100
AcDbLine
 62
7
  6
CONTINUOUS
 10
61.224848201
 20
113.9264104168
 11
52.8686679786
 21
118.9191666074
  0
LINE
  5
2BD
100
AcDbEntity
  8
0
100
AcDbLine
 62
7
  6
CONTINUOUS
 10
74.3370160415
 20
106.2414872644
 11
73.2765129981
 21
106.8751300287
  0
LINE
  5
2BE
100
AcDbEntity
  8
0
100
AcDbLine
 62
7
  6
CONTINUOUS
 10
49.4858947253
 20
121.0898493739
 11
48.4253916819
 21
121.7234921382
  0
LINE
  5
2BF
100
AcDbEntity
  8
0
100
AcDbLine
 62
7
  6
CONTINUOUS
 10
24.6347734091
 20
135.9382114834
 11
23.5742703657
 21
136.5718542477
  0
LINE
  5
2C0
100
AcDbEntity
  8
0
100
AcDbLine
 62
7
  6
CONTINUOUS
 10
74.3432930141
 20
106.6531035661
 11
73.6300649168
 21
107.0792521056
  0
LINE
  5
2C1
100
AcDbEntity
  8
0
100
AcDbLine
 62
7
  6
CONTINUOUS
 10
49.4921716978
 20
121.5014656756
 11
48.7789436005
 21
121.9276142151
  0
LINE
  5
2C2
100
AcDbEntity
  8
0
100
AcDbLine
 62
7
  6
CONTINUOUS
 10
24.6410503816
 20
136.3498277851
 11
23.9278222843
 21
136.7759763247
  0
LINE
  5
2C3
100
AcDbEntity
  8
0
100
AcDbLine
 62
7
  6
CONTINUOUS
 10
93.2138750831
 20
96.2030346567
 11
80.8225732252
 21
103.6067463304
  0
LINE
  5
2C4
100
AcDbEntity
  8
0
100
AcDbLine
 62
7
  6
CONTINUOUS
 10
20.9372319772
 20
139.3885023709
 11
19.2608509112
 21
140.3901277215
  0
LINE
  5
2C5
100
AcDbEntity
  8
0
100
AcDbLine
 62
7
  6
CONTINUOUS
 10
75.9555373308
 20
107.1118429896
 11
74.3647827657
 21
108.062307136
  0
LINE
  5
2C6
100
AcDbEntity
  8
0
100
AcDbLine
 62
7
  6
CONTINUOUS
 10
73.3042797224
 20
108.6959499003
 11
71.7135251573
 21
109.6464140467
  0
LINE
  5
2C7
100
AcDbEntity
  8
0
100
AcDbLine
 62
7
  6
CONTINUOUS
 10
51.1044160146
 20
121.9602050991
 11
49.5136614495
 21
122.9106692456
  0
LINE
  5
2C8
100
AcDbEntity
  8
0
100
AcDbLine
 62
7
  6
CONTINUOUS
 10
48.4531584061
 20
123.5443120098
 11
46.8624038411
 21
124.4947761563
  0
LINE
  5
2C9
100
AcDbEntity
  8
0
100
AcDbLine
 62
7
  6
CONTINUOUS
 10
26.2532946983
 20
136.8085672087
 11
24.6625401333
 21
137.7590313551
  0
LINE
  5
2CA
100
AcDbEntity
  8
0
100
AcDbLine
 62
7
  6
CONTINUOUS
 10
23.6020370899
 20
138.3926741194
 11
22.0112825249
 21
139.3431382658
  0
LINE
  5
2CB
100
AcDbEntity
  8
0
100
AcDbLine
 62
7
  6
CONTINUOUS
 10
75.9618143033
 20
107.5234592913
 11
74.7183346843
 21
108.266429213
  0
LINE
  5
2CC
100
AcDbEntity
  8
0
100
AcDbLine
 62
7
  6
CONTINUOUS
 10
73.657831641
 20
108.9000719773
 11
72.0670770759
 21
109.8505361237
  0
LINE
  5
2CD
100
AcDbEntity
  8
0
100
AcDbLine
 62
7
  6
CONTINUOUS
 10
51.1106929871
 20
122.3718214008
 11
49.8672133681
 21
123.1147913225
  0
LINE
  5
2CE
100
AcDbEntity
  8
0
100
AcDbLine
 62
7
  6
CONTINUOUS
 10
48.8067103248
 20
123.7484340868
 11
47.2159557597
 21
124.6988982332
  0
LINE
  5
2CF
100
AcDbEntity
  8
0
100
AcDbLine
 62
7
  6
CONTINUOUS
 10
26.2595716709
 20
137.2201835103
 11
25.0160920519
 21
137.963153432
  0
LINE
  5
2D0
100
AcDbEntity
  8
0
100
AcDbLine
 62
7
  6
CONTINUOUS
 10
23.9555890085
 20
138.5967961963
 11
22.3648344435
 21
139.5472603427
  0
LINE
  5
2D1
100
AcDbEntity
  8
0
100
AcDbLine
 62
7
  6
CONTINUOUS
 10
61.8078054326
 20
114.0462752699
 11
61.6237102848
 21
114.1566708413
  0
LINE
  5
2D2
100
AcDbEntity
  8
0
100
AcDbLine
 62
7
  6
CONTINUOUS
 10
77.2506078398
 20
101.4420350171
 11
20.0615042668
 21
135.8429704842
  0
LINE
  5
2D3
100
AcDbEntity
  8
0
100
AcDbLine
 62
7
  6
CONTINUOUS
 10
50.2327851171
 20
118.9190760324
 11
44.4928354661
 21
122.3718253359
  0
LINE
  5
2D4
100
AcDbEntity
  8
0
100
AcDbLine
 62
7
  6
CONTINUOUS
 10
20.082153714
 20
137.0555716302
 11
28.8257081341
 21
131.7960653157
  0
LINE
  5
2D5
100
AcDbEntity
  8
0
100
AcDbLine
 62
7
  6
CONTINUOUS
 10
69.5896829272
 20
107.2753300947
 11
77.2713751438
 21
102.6545652687
  0
LINE
  5
2D6
100
AcDbEntity
  8
0
100
AcDbLine
 62
7
  6
CONTINUOUS
 10
73.2765129981
 20
106.8751300287
 11
73.3042797224
 21
108.6959499003
  0
LINE
  5
2D7
100
AcDbEntity
  8
0
100
AcDbLine
 62
7
  6
CONTINUOUS
 10
73.3227908718
 20
109.9098298147
 11
73.3505575961
 21
111.7306496864
  0
LINE
  5
2D8
100
AcDbEntity
  8
0
100
AcDbLine
 62
7
  6
CONTINUOUS
 10
73.6300649168
 20
107.0792521056
 11
73.657831641
 21
108.9000719773
  0
LINE
  5
2D9
100
AcDbEntity
  8
0
100
AcDbLine
 62
7
  6
CONTINUOUS
 10
73.6763427904
 20
110.1139518917
 11
73.6978325421
 21
111.5231554617
  0
LINE
  5
2DA
100
AcDbEntity
  8
0
100
AcDbLine
 62
7
  6
CONTINUOUS
 10
74.4110606394
 20
111.0970069221
 11
74.3832939152
 21
109.2761870505
  0
LINE
  5
2DB
100
AcDbEntity
  8
0
100
AcDbLine
 62
7
  6
CONTINUOUS
 10
74.3647827657
 20
108.062307136
 11
74.3370160415
 21
106.2414872644
  0
LINE
  5
2DC
100
AcDbEntity
  8
0
100
AcDbLine
 62
7
  6
CONTINUOUS
 10
75.9740484803
 20
108.3257229041
 11
75.9555373308
 21
107.1118429896
  0
LINE
  5
2DD
100
AcDbEntity
  8
0
100
AcDbLine
 62
7
  6
CONTINUOUS
 10
76.58667477
 20
147.0800992897
 11
76.558527314
 21
145.2343126944
  0
LINE
  5
2DE
100
AcDbEntity
  8
0
100
AcDbLine
 62
7
  6
CONTINUOUS
 10
77.2713751438
 20
102.6545652687
 11
77.2506078398
 21
101.4420350171
  0
LINE
  5
2DF
100
AcDbEntity
  8
0
100
AcDbLine
 62
7
  6
CONTINUOUS
 10
74.8949029272
 20
115.2220837454
 11
74.9246264891
 21
116.8431135364
  0
LINE
  5
2E0
100
AcDbEntity
  8
0
100
AcDbLine
 62
7
  6
CONTINUOUS
 10
77.1720927749
 20
115.1045723109
 11
77.1791046561
 21
115.4869783098
  0
LINE
  5
2E1
100
AcDbEntity
  8
0
100
AcDbLine
 62
7
  6
CONTINUOUS
 10
77.8862084933
 20
115.8952224636
 11
77.8640730369
 21
114.6880241326
  0
LINE
  5
2E2
100
AcDbEntity
  8
0
100
AcDbLine
 62
7
  6
CONTINUOUS
 10
87.6876823212
 20
142.4847500493
 11
84.0209092234
 21
134.5716564562
  0
LINE
  5
2E3
100
AcDbEntity
  8
0
100
AcDbLine
 62
7
  6
CONTINUOUS
 10
85.9832039832
 20
137.8321517461
 11
87.5983270418
 21
141.3176184696
  0
LINE
  5
2E4
100
AcDbEntity
  8
0
100
AcDbLine
 62
7
  6
CONTINUOUS
 10
86.5553511642
 20
137.702397169
 11
88.0935015374
 21
141.0217553524
  0
LINE
  5
2E5
100
AcDbEntity
  8
0
100
AcDbLine
 62
7
  6
CONTINUOUS
 10
81.6725180307
 20
124.6420256515
 11
78.0284671769
 21
121.7830098529
  0
LINE
  5
2E6
100
AcDbEntity
  8
0
100
AcDbLine
 62
7
  6
CONTINUOUS
 10
61.8259046203
 20
114.2734070985
 11
61.2248663587
 21
113.9263995677
  0
LINE
  5
2E7
100
AcDbEntity
  8
0
100
AcDbLine
 62
7
  6
CONTINUOUS
 10
46.8446632615
 20
105.5341946434
 11
44.3130972964
 21
104.0726030764
  0
LINE
  5
2E8
100
AcDbEntity
  8
0
100
AcDbLine
 62
7
  6
CONTINUOUS
 10
114.6133526814
 20
143.9490162101
 11
100.9308934313
 21
136.0494918326
  0
LINE
  5
2E9
100
AcDbEntity
  8
0
100
AcDbLine
 62
7
  6
CONTINUOUS
 10
90.4151829456
 20
129.8711706561
 11
88.7469513582
 21
128.9080224492
  0
LINE
  5
2EA
100
AcDbEntity
  8
0
100
AcDbLine
 62
7
  6
CONTINUOUS
 10
115.7498365309
 20
144.1139636604
 11
115.5397532079
 21
143.9926727213
  0
LINE
  5
2EB
100
AcDbEntity
  8
0
100
AcDbLine
 62
7
  6
CONTINUOUS
 10
72.9614725778
 20
118.8575966195
 11
78.0284671769
 21
121.7830098529
  0
LINE
  5
2EC
100
AcDbEntity
  8
0
100
AcDbLine
 62
7
  6
CONTINUOUS
 10
90.5335465824
 20
127.9341865906
 11
88.7160994424
 21
126.8848892585
  0
LINE
  5
2ED
100
AcDbEntity
  8
0
100
AcDbLine
 62
7
  6
CONTINUOUS
 10
74.9246264891
 20
116.8431135364
 11
69.7155805713
 21
114.1413925339
  0
LINE
  5
2EE
100
AcDbEntity
  8
0
100
AcDbLine
 62
7
  6
CONTINUOUS
 10
22.0297936744
 20
140.5570181802
 11
23.6205482394
 21
139.6065540338
  0
LINE
  5
2EF
100
AcDbEntity
  8
0
100
AcDbLine
 62
7
  6
CONTINUOUS
 10
24.6810512828
 20
138.9729112695
 11
26.2718058478
 21
138.0224471231
  0
LINE
  5
2F0
100
AcDbEntity
  8
0
100
AcDbLine
 62
7
  6
CONTINUOUS
 10
46.8809149906
 20
125.7086560707
 11
48.4716695556
 21
124.7581919243
  0
LINE
  5
2F1
100
AcDbEntity
  8
0
100
AcDbLine
 62
7
  6
CONTINUOUS
 10
49.532172599
 20
124.12454916
 11
51.122927164
 21
123.1740850136
  0
LINE
  5
2F2
100
AcDbEntity
  8
0
100
AcDbLine
 62
7
  6
CONTINUOUS
 10
71.7320363068
 20
110.8602939612
 11
73.3227908718
 21
109.9098298148
  0
LINE
  5
2F3
100
AcDbEntity
  8
0
100
AcDbLine
 62
7
  6
CONTINUOUS
 10
74.3832939152
 20
109.2761870505
 11
75.9740484803
 21
108.3257229041
  0
LINE
  5
2F4
100
AcDbEntity
  8
0
100
AcDbLine
 62
7
  6
CONTINUOUS
 10
95.2998314029
 20
97.4073549106
 11
82.9085818512
 21
104.8110352966
  0
LINE
  5
2F5
100
AcDbEntity
  8
0
100
AcDbLine
 62
7
  6
CONTINUOUS
 10
61.2914478549
 20
118.2964022978
 11
52.9353081167
 21
123.2891342993
  0
LINE
  5
2F6
100
AcDbEntity
  8
0
100
AcDbLine
 62
7
  6
CONTINUOUS
 10
23.6483149636
 20
141.4273739054
 11
24.708818007
 21
140.7937311411
  0
LINE
  5
2F7
100
AcDbEntity
  8
0
100
AcDbLine
 62
7
  6
CONTINUOUS
 10
48.4994362798
 20
126.5790117959
 11
49.5599393232
 21
125.9453690316
  0
LINE
  5
2F8
100
AcDbEntity
  8
0
100
AcDbLine
 62
7
  6
CONTINUOUS
 10
73.3505575961
 20
111.7306496864
 11
74.4110606394
 21
111.0970069221
  0
LINE
  5
2F9
100
AcDbEntity
  8
0
100
AcDbLine
 62
7
  6
CONTINUOUS
 10
95.3245129355
 20
99.0258614632
 11
82.9382137256
 21
106.4265840915
  0
LINE
  5
2FA
100
AcDbEntity
  8
0
100
AcDbLine
 62
7
  6
CONTINUOUS
 10
21.7967234336
 20
142.9581746069
 11
21.3014005086
 21
143.2541264096
  0
LINE
  5
2FB
100
AcDbEntity
  8
0
100
AcDbLine
 62
7
  6
CONTINUOUS
 10
80.4561329001
 20
106.5739554085
 11
82.2217196658
 21
105.5119028042
  0
LINE
  5
2FC
100
AcDbEntity
  8
0
100
AcDbLine
 62
7
  6
CONTINUOUS
 10
80.4150503256
 20
107.4322557944
 11
80.4712494825
 21
107.3984503411
  0
LINE
  5
2FD
100
AcDbEntity
  8
0
100
AcDbLine
 62
7
  6
CONTINUOUS
 10
28.9516057782
 20
138.662127755
 11
44.6187331101
 21
129.2378877752
  0
LINE
  5
2FE
100
AcDbEntity
  8
0
100
AcDbLine
 62
7
  6
CONTINUOUS
 10
61.8956015294
 20
118.8453409711
 11
69.7155805713
 21
114.1413925339
  0
LINE
  5
2FF
100
AcDbEntity
  8
0
100
AcDbLine
 62
7
  6
CONTINUOUS
 10
78.2724664456
 20
81.4539321164
 11
78.2294601091
 21
78.6337653739
  0
LINE
  5
300
100
AcDbEntity
  8
0
100
AcDbLine
 62
7
  6
CONTINUOUS
 10
80.0399715179
 20
80.3978608426
 11
79.9969651814
 21
77.5776941001
  0
LINE
  5
301
100
AcDbEntity
  8
0
100
AcDbLine
 62
7
  6
CONTINUOUS
 10
81.39080766
 20
148.2883658336
 11
81.0360106284
 21
125.0223341404
  0
LINE
  5
302
100
AcDbEntity
  8
0
100
AcDbLine
 62
7
  6
CONTINUOUS
 10
83.5405736896
 20
127.8539981469
 11
83.633129437
 21
133.923397719
  0
LINE
  5
303
100
AcDbEntity
  8
0
100
AcDbLine
 62
7
  6
CONTINUOUS
 10
80.8209168599
 20
103.5040080736
 11
80.8225732247
 21
103.6067462955
  0
LINE
  5
304
100
AcDbEntity
  8
0
100
AcDbLine
 62
7
  6
CONTINUOUS
 10
80.4561329001
 20
106.5739554085
 11
80.4760491845
 21
107.6602376874
  0
LINE
  5
305
100
AcDbEntity
  8
0
100
AcDbLine
 62
7
  6
CONTINUOUS
 10
80.5594872216
 20
112.2105757764
 11
80.5820305441
 21
113.4400178477
  0
LINE
  5
306
100
AcDbEntity
  8
0
100
AcDbLine
 62
7
  6
CONTINUOUS
 10
82.2218226093
 20
105.5118408806
 11
82.3477202534
 21
112.3779033198
  0
LINE
  5
307
100
AcDbEntity
  8
0
100
AcDbLine
 62
7
  6
CONTINUOUS
 10
82.9085818512
 20
104.8110352966
 11
83.0548240906
 21
112.7861474737
  0
LINE
  5
308
100
AcDbEntity
  8
0
100
AcDbLine
 62
7
  6
CONTINUOUS
 10
71.4062977312
 20
113.2079486191
 11
74.9418169172
 21
115.2491693885
  0
LINE
  5
309
100
AcDbEntity
  8
0
100
AcDbLine
 62
7
  6
CONTINUOUS
 10
77.1389538327
 20
116.3447182199
 11
83.1565070077
 21
119.8189334271
  0
LINE
  5
30A
100
AcDbEntity
  8
0
100
AcDbLine
 62
7
  6
CONTINUOUS
 10
77.8459084162
 20
115.9194641507
 11
83.8634615913
 21
119.3936793579
  0
LINE
  5
30B
100
AcDbEntity
  8
0
100
AcDbLine
 62
7
  6
CONTINUOUS
 10
77.1791046561
 20
115.4869783098
 11
77.8862084933
 21
115.8952224636
  0
LINE
  5
30C
100
AcDbEntity
  8
0
100
AcDbLine
 62
7
  6
CONTINUOUS
 10
78.062804864
 20
114.4818569999
 11
88.5467442299
 21
120.5347260842
  0
LINE
  5
30D
100
AcDbEntity
  8
0
100
AcDbLine
 62
7
  6
CONTINUOUS
 10
72.0670770759
 20
109.8505361237
 11
71.7135251573
 21
109.6464140467
  0
LINE
  5
30E
100
AcDbEntity
  8
0
100
AcDbLine
 62
7
  6
CONTINUOUS
 10
73.6763427905
 20
110.1139518917
 11
73.3227908718
 21
109.9098298147
  0
LINE
  5
30F
100
AcDbEntity
  8
0
100
AcDbLine
 62
7
  6
CONTINUOUS
 10
94.116139117
 20
104.6408762018
 11
87.7884709583
 21
108.421611362
  0
LINE
  5
310
100
AcDbEntity
  8
0
100
AcDbLine
 62
7
  6
CONTINUOUS
 10
95.3133795695
 20
108.1395484825
 11
98.5132628746
 21
106.2276417553
  0
LINE
  5
311
100
AcDbEntity
  8
0
100
AcDbLine
 62
7
  6
CONTINUOUS
 10
67.5547282937
 20
121.2763250466
 11
66.8454441518
 21
121.7029841636
  0
LINE
  5
312
100
AcDbEntity
  8
0
100
AcDbLine
 62
7
  6
CONTINUOUS
 10
52.3745426596
 20
130.4076552084
 11
49.5684599706
 21
132.0955968523
  0
LINE
  5
313
100
AcDbEntity
  8
0
100
AcDbLine
 62
7
  6
CONTINUOUS
 10
31.4133049925
 20
143.0164589707
 11
33.6419428859
 21
141.6758674321
  0
LINE
  5
314
100
AcDbEntity
  8
0
100
AcDbLine
 62
7
  6
CONTINUOUS
 10
27.3129684078
 20
145.482932572
 11
25.1584988235
 21
146.7789096813
  0
LINE
  5
315
100
AcDbEntity
  8
0
100
AcDbLine
 62
7
  6
CONTINUOUS
 10
74.9246264891
 20
116.8431135364
 11
77.1791046561
 21
115.4869783098
  0
LINE
  5
316
100
AcDbEntity
  8
0
100
AcDbLine
 62
7
  6
CONTINUOUS
 10
80.5820305441
 20
113.4400178477
 11
82.3477202534
 21
112.3779033198
  0
LINE
  5
317
100
AcDbEntity
  8
0
100
AcDbLine
 62
7
  6
CONTINUOUS
 10
58.489693954
 20
126.7292158449
 11
55.8386206253
 21
128.3239105616
  0
LINE
  5
318
100
AcDbEntity
  8
0
100
AcDbLine
 62
7
  6
CONTINUOUS
 10
77.8862084933
 20
115.8952224636
 11
68.6699950646
 21
121.4390471366
  0
LINE
  5
319
100
AcDbEntity
  8
0
100
AcDbLine
 62
7
  6
CONTINUOUS
 10
25.8656026608
 20
147.1871538352
 11
28.0198666097
 21
145.8913004216
  0
LINE
  5
31A
100
AcDbEntity
  8
0
100
AcDbLine
 62
7
  6
CONTINUOUS
 10
53.0816464968
 20
130.8158993622
 11
32.1202031945
 21
143.4248268203
  0
LINE
  5
31B
100
AcDbEntity
  8
0
100
AcDbLine
 62
7
  6
CONTINUOUS
 10
56.5457239563
 20
128.7321544232
 11
58.6035980536
 21
127.4942823532
  0
LINE
  5
31C
100
AcDbEntity
  8
0
100
AcDbLine
 62
7
  6
CONTINUOUS
 10
81.2891343813
 20
113.8482620016
 11
83.0548240906
 21
112.7861474737
  0
LINE
  5
31D
100
AcDbEntity
  8
0
100
AcDbLine
 62
7
  6
CONTINUOUS
 10
85.5345903123
 20
128.7858175513
 11
85.5654422281
 21
130.808950742
  0
LINE
  5
31E
100
AcDbEntity
  8
0
100
AcDbLine
 62
7
  6
CONTINUOUS
 10
86.0429132569
 20
131.0846171235
 11
86.0640540595
 21
132.470938146
  0
LINE
  5
31F
100
AcDbEntity
  8
0
100
AcDbLine
 62
7
  6
CONTINUOUS
 10
87.1882242971
 20
144.8244520555
 11
87.2746096613
 21
150.4892249895
  0
LINE
  5
320
100
AcDbEntity
  8
0
100
AcDbLine
 62
7
  6
CONTINUOUS
 10
88.7469513582
 20
128.9080224492
 11
88.7160994424
 21
126.8848892585
  0
LINE
  5
321
100
AcDbEntity
  8
0
100
AcDbLine
 62
7
  6
CONTINUOUS
 10
88.0289277895
 20
77.9527160572
 11
87.9507380066
 21
72.825373368
  0
LINE
  5
322
100
AcDbEntity
  8
0
100
AcDbLine
 62
7
  6
CONTINUOUS
 10
83.8634615913
 20
119.3936793579
 11
83.8344985508
 21
117.8141260127
  0
LINE
  5
323
100
AcDbEntity
  8
0
100
AcDbLine
 62
7
  6
CONTINUOUS
 10
88.6707527596
 20
116.5019516874
 11
88.6337240408
 21
114.4825215582
  0
LINE
  5
324
100
AcDbEntity
  8
0
100
AcDbLine
 62
7
  6
CONTINUOUS
 10
97.1427830123
 20
135.6148762639
 11
95.5276599538
 21
132.1294095404
  0
LINE
  5
325
100
AcDbEntity
  8
0
100
AcDbLine
 62
7
  6
CONTINUOUS
 10
94.2724386426
 20
128.4464430682
 11
97.9392215465
 21
136.3595998515
  0
LINE
  5
326
100
AcDbEntity
  8
0
100
AcDbLine
 62
7
  6
CONTINUOUS
 10
80.5820305441
 20
113.4400178477
 11
81.2891343813
 21
113.8482620016
  0
LINE
  5
327
100
AcDbEntity
  8
0
100
AcDbLine
 62
7
  6
CONTINUOUS
 10
73.657831641
 20
108.9000719773
 11
73.3042797224
 21
108.6959499003
  0
LINE
  5
328
100
AcDbEntity
  8
0
100
AcDbLine
 62
7
  6
CONTINUOUS
 10
81.946245001
 20
113.4529905494
 11
87.963798176
 21
116.9272057566
  0
LINE
  5
329
100
AcDbEntity
  8
0
100
AcDbLine
 62
7
  6
CONTINUOUS
 10
55.509111122
 20
97.383067206
 11
53.5273954338
 21
96.2389299495
  0
LINE
  5
32A
100
AcDbEntity
  8
0
100
AcDbLine
 62
7
  6
CONTINUOUS
 10
82.6531995845
 20
113.0277364802
 11
88.6707527596
 21
116.5019516874
  0
LINE
  5
32B
100
AcDbEntity
  8
0
100
AcDbLine
 62
7
  6
CONTINUOUS
 10
74.7183346843
 20
108.266429213
 11
74.3647827657
 21
108.062307136
  0
LINE
  5
32C
100
AcDbEntity
  8
0
100
AcDbLine
 62
7
  6
CONTINUOUS
 10
83.0548240906
 20
112.7861474737
 11
82.3477202534
 21
112.3779033198
  0
LINE
  5
32D
100
AcDbEntity
  8
0
100
AcDbLine
 62
7
  6
CONTINUOUS
 10
73.6300649168
 20
107.0792521056
 11
73.2765129981
 21
106.8751300287
  0
LINE
  5
32E
100
AcDbEntity
  8
0
100
AcDbLine
 62
7
  6
CONTINUOUS
 10
113.0772095344
 20
128.7506133934
 11
114.8330168741
 21
129.7643231826
  0
LINE
  5
32F
100
AcDbEntity
  8
0
100
AcDbLine
 62
7
  6
CONTINUOUS
 10
83.0265698323
 20
111.2452488905
 11
88.6337240408
 21
114.4825215582
  0
LINE
  5
330
100
AcDbEntity
  8
0
100
AcDbLine
 62
7
  6
CONTINUOUS
 10
88.6412938065
 20
114.4694102611
 11
90.1575889779
 21
115.3448384609
  0
LINE
  5
331
100
AcDbEntity
  8
0
100
AcDbLine
 62
7
  6
CONTINUOUS
 10
55.294900506
 20
95.1828586757
 11
55.962209688
 21
95.5681275118
  0
LINE
  5
332
100
AcDbEntity
  8
0
100
AcDbLine
 62
7
  6
CONTINUOUS
 10
55.2838417111
 20
94.4576714566
 11
53.4843890972
 21
93.418763207
  0
LINE
  5
333
100
AcDbEntity
  8
0
100
AcDbLine
 62
7
  6
CONTINUOUS
 10
87.8265924349
 20
112.7635083131
 11
83.0033483788
 21
109.9788236812
  0
LINE
  5
334
100
AcDbEntity
  8
0
100
AcDbLine
 62
7
  6
CONTINUOUS
 10
76.2812759064
 20
104.7641883317
 11
79.8167950925
 21
106.8054091011
  0
LINE
  5
335
100
AcDbEntity
  8
0
100
AcDbLine
 62
7
  6
CONTINUOUS
 10
69.5896829272
 20
107.2753300947
 11
71.2101337479
 21
108.1157922609
  0
LINE
  5
336
100
AcDbEntity
  8
0
100
AcDbLine
 62
7
  6
CONTINUOUS
 10
50.2327851171
 20
118.9190760324
 11
52.8598528161
 21
119.0712989486
  0
LINE
  5
337
100
AcDbEntity
  8
0
100
AcDbLine
 62
7
  6
CONTINUOUS
 10
38.7048266076
 20
142.8575819575
 11
39.5845968939
 21
142.3319256856
  0
LINE
  5
338
100
AcDbEntity
  8
0
100
AcDbLine
 62
7
  6
CONTINUOUS
 10
40.4187126876
 20
142.813499789
 11
42.5348404604
 21
141.5491290172
  0
LINE
  5
339
100
AcDbEntity
  8
0
100
AcDbLine
 62
7
  6
CONTINUOUS
 10
124.8611537873
 20
93.8079925732
 11
134.109634371
 21
88.2820934831
  0
LINE
  5
33A
100
AcDbEntity
  8
0
100
AcDbLine
 62
7
  6
CONTINUOUS
 10
65.9092248983
 20
130.7795839337
 11
74.2653582098
 21
125.7868556194
  0
LINE
  5
33B
100
AcDbEntity
  8
0
100
AcDbLine
 62
7
  6
CONTINUOUS
 10
33.6696861576
 20
149.5867182703
 11
34.3766708743
 21
149.1614460752
  0
LINE
  5
33C
100
AcDbEntity
  8
0
100
AcDbLine
 62
7
  6
CONTINUOUS
 10
38.4770076984
 20
146.6949723298
 11
39.1839319095
 21
146.2697365306
  0
LINE
  5
33D
100
AcDbEntity
  8
0
100
AcDbLine
 62
7
  6
CONTINUOUS
 10
58.4130965827
 20
134.7028258487
 11
59.1200511663
 21
134.2775717795
  0
LINE
  5
33E
100
AcDbEntity
  8
0
100
AcDbLine
 62
7
  6
CONTINUOUS
 10
63.220387751
 20
131.8110981782
 11
63.9273423346
 21
131.385844109
  0
LINE
  5
33F
100
AcDbEntity
  8
0
100
AcDbLine
 62
7
  6
CONTINUOUS
 10
83.1565070077
 20
119.8189334271
 11
83.8634615913
 21
119.3936793579
  0
LINE
  5
340
100
AcDbEntity
  8
0
100
AcDbLine
 62
7
  6
CONTINUOUS
 10
87.963798176
 20
116.9272057566
 11
88.6707527596
 21
116.5019516874
  0
LINE
  5
341
100
AcDbEntity
  8
0
100
AcDbLine
 62
7
  6
CONTINUOUS
 10
90.5617493203
 20
129.7835983258
 11
90.4691935729
 21
123.7141987536
  0
LINE
  5
342
100
AcDbEntity
  8
0
100
AcDbLine
 62
7
  6
CONTINUOUS
 10
91.1107895404
 20
119.0027278798
 11
91.0968657772
 21
118.0896686199
  0
LINE
  5
343
100
AcDbEntity
  8
0
100
AcDbLine
 62
7
  6
CONTINUOUS
 10
92.936207841
 20
77.9948359403
 11
93.2138750831
 21
96.2030346567
  0
LINE
  5
344
100
AcDbEntity
  8
0
100
AcDbLine
 62
7
  6
CONTINUOUS
 10
93.8587727686
 20
78.1442471535
 11
93.8032393201
 21
74.5026074103
  0
LINE
  5
345
100
AcDbEntity
  8
0
100
AcDbLine
 62
7
  6
CONTINUOUS
 10
91.0968657772
 20
118.0896686199
 11
87.7884709583
 21
108.421611362
  0
LINE
  5
346
100
AcDbEntity
  8
0
100
AcDbLine
 62
7
  6
CONTINUOUS
 10
77.2720957488
 20
102.6541318035
 11
82.2218226093
 21
105.5118408806
  0
LINE
  5
347
100
AcDbEntity
  8
0
100
AcDbLine
 62
7
  6
CONTINUOUS
 10
82.9085905684
 20
104.8110300529
 11
80.8226342448
 21
103.6067095901
  0
LINE
  5
348
100
AcDbEntity
  8
0
100
AcDbLine
 62
7
  6
CONTINUOUS
 10
80.8207528955
 20
103.504106703
 11
77.2498785175
 21
101.442473726
  0
LINE
  5
349
100
AcDbEntity
  8
0
100
AcDbLine
 62
7
  6
CONTINUOUS
 10
67.5547300414
 20
121.2763260556
 11
68.6699950646
 21
121.4390471366
  0
LINE
  5
34A
100
AcDbEntity
  8
0
100
AcDbLine
 62
7
  6
CONTINUOUS
 10
74.2654231494
 20
125.7868168765
 11
81.061697401
 21
126.7067599182
  0
LINE
  5
34B
100
AcDbEntity
  8
0
100
AcDbLine
 62
7
  6
CONTINUOUS
 10
100.6150401065
 20
112.4026295014
 11
91.0968657772
 21
118.0896686199
  0
LINE
  5
34C
100
AcDbEntity
  8
0
100
AcDbLine
 62
7
  6
CONTINUOUS
 10
81.0360106284
 20
125.0223341404
 11
91.1107895403
 21
119.0027278798
  0
LINE
  5
34D
100
AcDbEntity
  8
0
100
AcDbLine
 62
7
  6
CONTINUOUS
 10
90.4691935729
 20
123.7141987536
 11
83.5405736896
 21
127.8539981469
  0
LINE
  5
34E
100
AcDbEntity
  8
0
100
AcDbLine
 62
7
  6
CONTINUOUS
 10
76.624050612
 20
132.2299417316
 11
81.1050944975
 21
129.5525509855
  0
LINE
  5
34F
100
AcDbEntity
  8
0
100
AcDbLine
 62
7
  6
CONTINUOUS
 10
95.2998314029
 20
97.4073549106
 11
95.3245129356
 21
99.0258614631
  0
LINE
  5
350
100
AcDbEntity
  8
0
100
AcDbLine
 62
7
  6
CONTINUOUS
 10
95.1223679319
 20
75.2642021233
 11
95.0207582957
 21
68.6010882729
  0
LINE
  5
351
100
AcDbEntity
  8
0
100
AcDbLine
 62
7
  6
CONTINUOUS
 10
97.8062642447
 20
127.6450018046
 11
97.9391575741
 21
136.3595629172
  0
LINE
  5
352
100
AcDbEntity
  8
0
100
AcDbLine
 62
7
  6
CONTINUOUS
 10
97.2877326088
 20
76.0954688824
 11
97.3556068235
 21
80.546361902
  0
LINE
  5
353
100
AcDbEntity
  8
0
100
AcDbLine
 62
7
  6
CONTINUOUS
 10
94.116139117
 20
104.6408762018
 11
95.3133795695
 21
108.1395484825
  0
LINE
  5
354
100
AcDbEntity
  8
0
100
AcDbLine
 62
7
  6
CONTINUOUS
 10
114.5191028506
 20
136.8928524886
 11
113.1550449593
 21
134.5778864774
  0
LINE
  5
355
100
AcDbEntity
  8
0
100
AcDbLine
 62
7
  6
CONTINUOUS
 10
67.6097244576
 20
90.1530397852
 11
63.2056669947
 21
87.6103712011
  0
LINE
  5
356
100
AcDbEntity
  8
0
100
AcDbLine
 62
7
  6
CONTINUOUS
 10
94.116139117
 20
104.6408762018
 11
97.7030246191
 21
106.7117531505
  0
LINE
  5
357
100
AcDbEntity
  8
0
100
AcDbLine
 62
7
  6
CONTINUOUS
 10
98.5132628746
 20
106.2276417553
 11
113.8771607415
 21
115.0979393761
  0
LINE
  5
358
100
AcDbEntity
  8
0
100
AcDbLine
 62
7
  6
CONTINUOUS
 10
140.4949075428
 20
129.3289658273
 11
140.2848242198
 21
129.2076748882
  0
LINE
  5
359
100
AcDbEntity
  8
0
100
AcDbLine
 62
7
  6
CONTINUOUS
 10
122.1737064262
 20
114.9272650853
 11
146.6468274163
 21
125.4064247956
  0
LINE
  5
35A
100
AcDbEntity
  8
0
100
AcDbLine
 62
7
  6
CONTINUOUS
 10
145.2256959456
 20
123.6200232245
 11
142.9423753311
 21
122.8319550224
  0
LINE
  5
35B
100
AcDbEntity
  8
0
100
AcDbLine
 62
7
  6
CONTINUOUS
 10
55.294900506
 20
95.1828586757
 11
55.6878486083
 21
95.2979336079
  0
LINE
  5
35C
100
AcDbEntity
  8
0
100
AcDbLine
 62
7
  6
CONTINUOUS
 10
97.8062865472
 20
127.6450146809
 11
94.2724386426
 21
128.4464430682
  0
LINE
  5
35D
100
AcDbEntity
  8
0
100
AcDbLine
 62
7
  6
CONTINUOUS
 10
130.0769977224
 20
103.1389827249
 11
130.041282789
 21
103.1598912814
  0
LINE
  5
35E
100
AcDbEntity
  8
0
100
AcDbLine
 62
7
  6
CONTINUOUS
 10
88.7160994424
 20
126.8848892585
 11
85.5345903123
 21
128.7858175513
  0
LINE
  5
35F
100
AcDbEntity
  8
0
100
AcDbLine
 62
7
  6
CONTINUOUS
 10
90.5131323807
 20
126.5955128652
 11
89.3837119862
 21
127.2703332396
  0
LINE
  5
360
100
AcDbEntity
  8
0
100
AcDbLine
 62
7
  6
CONTINUOUS
 10
85.5654422281
 20
130.808950742
 11
88.7469513582
 21
128.9080224492
  0
LINE
  5
361
100
AcDbEntity
  8
0
100
AcDbLine
 62
7
  6
CONTINUOUS
 10
83.633129437
 20
133.923397719
 11
90.5617493203
 21
129.7835983258
  0
LINE
  5
362
100
AcDbEntity
  8
0
100
AcDbLine
 62
7
  6
CONTINUOUS
 10
94.2724386426
 20
128.4464430682
 11
84.0209092234
 21
134.5716564562
  0
LINE
  5
363
100
AcDbEntity
  8
0
100
AcDbLine
 62
7
  6
CONTINUOUS
 10
100.9308934313
 20
136.0494918326
 11
100.6150401065
 21
112.4026295014
  0
LINE
  5
364
100
AcDbEntity
  8
0
100
AcDbLine
 62
7
  6
CONTINUOUS
 10
100.4405107926
 20
73.1207805762
 11
100.5142809913
 21
77.95830634
  0
LINE
  5
365
100
AcDbEntity
  8
0
100
AcDbLine
 62
7
  6
CONTINUOUS
 10
101.56104547
 20
74.084522939
 11
101.5363639374
 21
72.4660163864
  0
LINE
  5
366
100
AcDbEntity
  8
0
100
AcDbLine
 62
7
  6
CONTINUOUS
 10
103.1393493476
 20
69.9783714839
 11
103.1871501366
 21
73.1129373671
  0
LINE
  5
367
100
AcDbEntity
  8
0
100
AcDbLine
 62
7
  6
CONTINUOUS
 10
102.7128607916
 20
67.0434743003
 11
102.6210301066
 21
64.0599817955
  0
LINE
  5
368
100
AcDbEntity
  8
0
100
AcDbLine
 62
7
  6
CONTINUOUS
 10
98.5132628746
 20
106.2276417554
 11
100.6150401065
 21
112.4026295014
  0
LINE
  5
369
100
AcDbEntity
  8
0
100
AcDbLine
 62
7
  6
CONTINUOUS
 10
122.1737064263
 20
114.9272650853
 11
120.1777651336
 21
113.7503385218
  0
LINE
  5
36A
100
AcDbEntity
  8
0
100
AcDbLine
 62
7
  6
CONTINUOUS
 10
95.3245129356
 20
99.0258614631
 11
120.4974095404
 21
113.559353341
  0
LINE
  5
36B
100
AcDbEntity
  8
0
100
AcDbLine
 62
7
  6
CONTINUOUS
 10
93.2138750831
 20
96.2030346567
 11
95.2998314029
 21
97.4073549106
  0
LINE
  5
36C
100
AcDbEntity
  8
0
100
AcDbLine
 62
7
  6
CONTINUOUS
 10
76.624050612
 20
132.2299417316
 11
65.9092248983
 21
130.7795839337
  0
LINE
  5
36D
100
AcDbEntity
  8
0
100
AcDbLine
 62
7
  6
CONTINUOUS
 10
86.5553511642
 20
137.702397169
 11
85.9832039832
 21
137.8321517461
  0
LINE
  5
36E
100
AcDbEntity
  8
0
100
AcDbLine
 62
7
  6
CONTINUOUS
 10
141.5572061373
 20
103.7475158663
 11
141.6281861127
 21
103.7054355607
  0
LINE
  5
36F
100
AcDbEntity
  8
0
100
AcDbLine
 62
7
  6
CONTINUOUS
 10
81.2169932592
 20
136.8903805149
 11
81.1626505599
 21
136.9228498779
  0
LINE
  5
370
100
AcDbEntity
  8
0
100
AcDbLine
 62
7
  6
CONTINUOUS
 10
58.6933961771
 20
150.3480640226
 11
56.3115285361
 21
151.7712115789
  0
LINE
  5
371
100
AcDbEntity
  8
0
100
AcDbLine
 62
7
  6
CONTINUOUS
 10
47.8409212113
 20
156.971069808
 11
46.4742971134
 21
157.7876182874
  0
LINE
  5
372
100
AcDbEntity
  8
0
100
AcDbLine
 62
7
  6
CONTINUOUS
 10
120.4974095404
 20
113.559353341
 11
113.9091119726
 21
117.4958126551
  0
LINE
  5
373
100
AcDbEntity
  8
0
100
AcDbLine
 62
7
  6
CONTINUOUS
 10
72.6920430703
 20
142.1227080119
 11
58.8114825179
 21
150.4162407963
  0
LINE
  5
374
100
AcDbEntity
  8
0
100
AcDbLine
 62
7
  6
CONTINUOUS
 10
122.1737064262
 20
114.9272650854
 11
113.9404355767
 21
119.8465838301
  0
LINE
  5
375
100
AcDbEntity
  8
0
100
AcDbLine
 62
7
  6
CONTINUOUS
 10
73.9370111097
 20
143.748335568
 11
60.120399871
 21
152.0036591081
  0
LINE
  5
376
100
AcDbEntity
  8
0
100
AcDbLine
 62
7
  6
CONTINUOUS
 10
95.5276599538
 20
132.1294095404
 11
85.9832039832
 21
137.8321517461
  0
LINE
  5
377
100
AcDbEntity
  8
0
100
AcDbLine
 62
7
  6
CONTINUOUS
 10
95.6046326391
 20
132.2955180805
 11
86.5553511642
 21
137.702397169
  0
LINE
  5
378
100
AcDbEntity
  8
0
100
AcDbLine
 62
7
  6
CONTINUOUS
 10
108.8599205123
 20
78.2985052553
 11
108.9288166542
 21
82.816411771
  0
LINE
  5
379
100
AcDbEntity
  8
0
100
AcDbLine
 62
7
  6
CONTINUOUS
 10
134.161736586
 20
117.9782010805
 11
120.4414216345
 21
109.8879122757
  0
LINE
  5
37A
100
AcDbEntity
  8
0
100
AcDbLine
 62
7
  6
CONTINUOUS
 10
145.19484403
 20
121.5968900336
 11
146.6013888721
 21
122.426273138
  0
LINE
  5
37B
100
AcDbEntity
  8
0
100
AcDbLine
 62
7
  6
CONTINUOUS
 10
142.3177578497
 20
119.1021500337
 11
140.4241262152
 21
117.9855513739
  0
LINE
  5
37C
100
AcDbEntity
  8
0
100
AcDbLine
 62
7
  6
CONTINUOUS
 10
142.3891877197
 20
119.0603329224
 11
142.0481364606
 21
118.8592286675
  0
LINE
  5
37D
100
AcDbEntity
  8
0
100
AcDbLine
 62
7
  6
CONTINUOUS
 10
140.4235190075
 20
117.9457333615
 11
142.0124305616
 21
118.8807297657
  0
LINE
  5
37E
100
AcDbEntity
  8
0
100
AcDbLine
 62
7
  6
CONTINUOUS
 10
134.1067978449
 20
114.2037737709
 11
140.4229217668
 21
117.9064495592
  0
LINE
  5
37F
100
AcDbEntity
  8
0
100
AcDbLine
 62
7
  6
CONTINUOUS
 10
80.2541821339
 20
82.5980693729
 11
78.2724664456
 21
81.4539321164
  0
LINE
  5
380
100
AcDbEntity
  8
0
100
AcDbLine
 62
7
  6
CONTINUOUS
 10
113.069231242
 20
128.1533058231
 11
114.0461909716
 21
127.7526568267
  0
LINE
  5
381
100
AcDbEntity
  8
0
100
AcDbLine
 62
7
  6
CONTINUOUS
 10
134.071082909
 20
114.224682326
 11
134.1067978449
 21
114.2037737709
  0
LINE
  5
382
100
AcDbEntity
  8
0
100
AcDbLine
 62
7
  6
CONTINUOUS
 10
141.8794455113
 20
110.1601540001
 11
141.9151604462
 21
110.1392454444
  0
LINE
  5
383
100
AcDbEntity
  8
0
100
AcDbLine
 62
7
  6
CONTINUOUS
 10
146.3792475186
 20
107.859709706
 11
146.3078198006
 21
107.9015255574
  0
LINE
  5
384
100
AcDbEntity
  8
0
100
AcDbLine
 62
7
  6
CONTINUOUS
 10
78.3763296692
 20
146.0107936573
 11
76.58667477
 21
147.0800992897
  0
LINE
  5
385
100
AcDbEntity
  8
0
100
AcDbLine
 62
7
  6
CONTINUOUS
 10
58.8055737429
 20
157.704176304
 11
56.6624178293
 21
158.9846961912
  0
LINE
  5
386
100
AcDbEntity
  8
0
100
AcDbLine
 62
7
  6
CONTINUOUS
 10
53.525208353
 20
160.8591557669
 11
51.7911945135
 21
161.8952162755
  0
LINE
  5
387
100
AcDbEntity
  8
0
100
AcDbLine
 62
7
  6
CONTINUOUS
 10
87.5983270418
 20
141.3176184696
 11
97.1427830123
 21
135.6148762639
  0
LINE
  5
388
100
AcDbEntity
  8
0
100
AcDbLine
 62
7
  6
CONTINUOUS
 10
81.3542787152
 20
145.892958003
 11
78.0008824445
 21
147.8965875974
  0
LINE
  5
389
100
AcDbEntity
  8
0
100
AcDbLine
 62
7
  6
CONTINUOUS
 10
60.2197814173
 20
158.5206646118
 11
53.2054021879
 21
162.7117045833
  0
LINE
  5
38A
100
AcDbEntity
  8
0
100
AcDbLine
 62
7
  6
CONTINUOUS
 10
97.9391575741
 20
136.3595629172
 11
87.6876272698
 21
142.4847182656
  0
LINE
  5
38B
100
AcDbEntity
  8
0
100
AcDbLine
 62
7
  6
CONTINUOUS
 10
114.045785793
 20
127.7528979122
 11
113.0716572468
 21
128.3349325375
  0
LINE
  5
38C
100
AcDbEntity
  8
0
100
AcDbLine
 62
7
  6
CONTINUOUS
 10
87.1882242971
 20
144.8244520555
 11
81.39080766
 21
148.2883658336
  0
LINE
  5
38D
100
AcDbEntity
  8
0
100
AcDbLine
 62
7
  6
CONTINUOUS
 10
91.1646657516
 20
158.5566081026
 11
91.004765519
 21
158.8989614935
  0
LINE
  5
38E
100
AcDbEntity
  8
0
100
AcDbLine
 62
7
  6
CONTINUOUS
 10
113.1550449593
 20
134.5778864774
 11
113.069231242
 21
128.1533058231
  0
LINE
  5
38F
100
AcDbEntity
  8
0
100
AcDbLine
 62
7
  6
CONTINUOUS
 10
113.8771607415
 20
115.0979393761
 11
114.045785793
 21
127.7528979122
  0
LINE
  5
390
100
AcDbEntity
  8
0
100
AcDbLine
 62
7
  6
CONTINUOUS
 10
114.6133526814
 20
143.9490162101
 11
114.5191028506
 21
136.8928524886
  0
LINE
  5
391
100
AcDbEntity
  8
0
100
AcDbLine
 62
7
  6
CONTINUOUS
 10
111.6016857994
 20
77.9710427982
 11
111.6263977403
 21
79.5915433909
  0
LINE
  5
392
100
AcDbEntity
  8
0
100
AcDbLine
 62
7
  6
CONTINUOUS
 10
112.4197547252
 20
84.8318937752
 11
112.398107787
 21
83.4123826033
  0
LINE
  5
393
100
AcDbEntity
  8
0
100
AcDbLine
 62
7
  6
CONTINUOUS
 10
80.0399715179
 20
80.3978608426
 11
80.7072806998
 21
80.7831296787
  0
LINE
  5
394
100
AcDbEntity
  8
0
100
AcDbLine
 62
7
  6
CONTINUOUS
 10
80.028912723
 20
79.6726736235
 11
78.2294601091
 21
78.6337653739
  0
LINE
  5
395
100
AcDbEntity
  8
0
100
AcDbLine
 62
7
  6
CONTINUOUS
 10
80.0399715179
 20
80.3978608426
 11
80.4329196202
 21
80.5129357748
  0
LINE
  5
396
100
AcDbEntity
  8
0
100
AcDbLine
 62
7
  6
CONTINUOUS
 10
78.3763296692
 20
146.0107936573
 11
77.5182199267
 21
145.788143191
  0
LINE
  5
397
100
AcDbEntity
  8
0
100
AcDbLine
 62
7
  6
CONTINUOUS
 10
142.0481364606
 20
118.8592286675
 11
142.0124215256
 21
118.8801372232
  0
LINE
  5
398
100
AcDbEntity
  8
0
100
AcDbLine
 62
7
  6
CONTINUOUS
 10
142.3177578497
 20
119.1021500337
 11
142.3891877197
 21
119.0603329224
  0
LINE
  5
399
100
AcDbEntity
  8
0
100
AcDbLine
 62
7
  6
CONTINUOUS
 10
96.3478494992
 20
145.0680309555
 11
87.2746096613
 21
150.4892249895
  0
LINE
  5
39A
100
AcDbEntity
  8
0
100
AcDbLine
 62
7
  6
CONTINUOUS
 10
119.2613168361
 20
79.2863381922
 11
119.3338237745
 21
84.0410248917
  0
LINE
  5
39B
100
AcDbEntity
  8
0
100
AcDbLine
 62
7
  6
CONTINUOUS
 10
120.4974095404
 20
113.559353341
 11
120.1055396126
 21
87.8622438805
  0
LINE
  5
39C
100
AcDbEntity
  8
0
100
AcDbLine
 62
7
  6
CONTINUOUS
 10
118.742997595
 20
73.3679485038
 11
118.8348282801
 21
76.3514410086
  0
LINE
  5
39D
100
AcDbEntity
  8
0
100
AcDbLine
 62
7
  6
CONTINUOUS
 10
141.8794455113
 20
110.160154
 11
130.0412827883
 21
103.159891281
  0
LINE
  5
39E
100
AcDbEntity
  8
0
100
AcDbLine
 62
7
  6
CONTINUOUS
 10
130.0769977212
 20
103.1389827242
 11
141.9151604462
 21
110.1392454444
  0
LINE
  5
39F
100
AcDbEntity
  8
0
100
AcDbLine
 62
7
  6
CONTINUOUS
 10
130.0412827883
 20
103.159891281
 11
120.2507854387
 21
97.386827492
  0
LINE
  5
3A0
100
AcDbEntity
  8
0
100
AcDbLine
 62
7
  6
CONTINUOUS
 10
142.2559074434
 20
110.3203975385
 11
130.0769977212
 21
103.1389827242
  0
LINE
  5
3A1
100
AcDbEntity
  8
0
100
AcDbLine
 62
7
  6
CONTINUOUS
 10
141.578085394
 20
105.1125931426
 11
146.3081827103
 21
107.9017395508
  0
LINE
  5
3A2
100
AcDbEntity
  8
0
100
AcDbLine
 62
7
  6
CONTINUOUS
 10
97.3556068235
 20
80.546361902
 11
92.936207841
 21
77.9948359403
  0
LINE
  5
3A3
100
AcDbEntity
  8
0
100
AcDbLine
 62
7
  6
CONTINUOUS
 10
145.1234141998
 20
121.6387071216
 11
145.19484403
 21
121.5968900336
  0
LINE
  5
3A4
100
AcDbEntity
  8
0
100
AcDbLine
 62
7
  6
CONTINUOUS
 10
142.9423753311
 20
122.8319550224
 11
140.4573889547
 21
120.166762713
  0
LINE
  5
3A5
100
AcDbEntity
  8
0
100
AcDbLine
 62
7
  6
CONTINUOUS
 10
120.1538816569
 20
91.032302911
 11
141.6280062147
 21
103.6947332716
  0
LINE
  5
3A6
100
AcDbEntity
  8
0
100
AcDbLine
 62
7
  6
CONTINUOUS
 10
141.557094224
 20
103.7413531617
 11
120.1565891899
 21
91.2098510415
  0
LINE
  5
3A7
100
AcDbEntity
  8
0
100
AcDbLine
 62
7
  6
CONTINUOUS
 10
120.1553028913
 20
91.1255012261
 11
141.5934285719
 21
103.6793050103
  0
LINE
  5
3A8
100
AcDbEntity
  8
0
100
AcDbLine
 62
7
  6
CONTINUOUS
 10
92.3547954695
 20
75.3680419521
 11
87.9507380066
 21
72.825373368
  0
LINE
  5
3A9
100
AcDbEntity
  8
0
100
AcDbLine
 62
7
  6
CONTINUOUS
 10
96.9311735466
 20
76.3085102982
 11
93.8032393201
 21
74.5026074103
  0
LINE
  5
3AA
100
AcDbEntity
  8
0
100
AcDbLine
 62
7
  6
CONTINUOUS
 10
112.4197547252
 20
84.8318937752
 11
97.2877326088
 21
76.0954688824
  0
LINE
  5
3AB
100
AcDbEntity
  8
0
100
AcDbLine
 62
7
  6
CONTINUOUS
 10
112.398107787
 20
83.4123826033
 11
120.1055396126
 21
87.8622438805
  0
LINE
  5
3AC
100
AcDbEntity
  8
0
100
AcDbLine
 62
7
  6
CONTINUOUS
 10
104.267412476
 20
149.6403654788
 11
95.1941726381
 21
155.0615595129
  0
LINE
  5
3AD
100
AcDbEntity
  8
0
100
AcDbLine
 62
7
  6
CONTINUOUS
 10
98.8224163618
 20
153.9478010032
 11
95.0732669101
 21
156.187890211
  0
LINE
  5
3AE
100
AcDbEntity
  8
0
100
AcDbLine
 62
7
  6
CONTINUOUS
 10
146.6468274166
 20
125.4064247955
 11
112.3107070302
 21
145.9220040502
  0
LINE
  5
3AF
100
AcDbEntity
  8
0
100
AcDbLine
 62
7
  6
CONTINUOUS
 10
98.8508095708
 20
153.9641937322
 11
76.9152173048
 21
167.0705486893
  0
LINE
  5
3B0
100
AcDbEntity
  8
0
100
AcDbLine
 62
7
  6
CONTINUOUS
 10
110.3089892402
 20
149.534538617
 11
100.9077058462
 21
155.1517362618
  0
LINE
  5
3B1
100
AcDbEntity
  8
0
100
AcDbLine
 62
7
  6
CONTINUOUS
 10
115.9097367635
 20
143.7716102695
 11
115.7498365309
 21
144.1139636604
  0
LINE
  5
3B2
100
AcDbEntity
  8
0
100
AcDbLine
 62
7
  6
CONTINUOUS
 10
109.9755811329
 20
78.9426283701
 11
101.56104547
 21
74.084522939
  0
LINE
  5
3B3
100
AcDbEntity
  8
0
100
AcDbLine
 62
7
  6
CONTINUOUS
 10
111.6263977403
 20
79.5915433909
 11
119.3338237745
 21
84.0410248917
  0
LINE
  5
3B4
100
AcDbEntity
  8
0
100
AcDbLine
 62
7
  6
CONTINUOUS
 10
101.5561714132
 20
73.7649036909
 11
100.4405107926
 21
73.1207805762
  0
LINE
  5
3B5
100
AcDbEntity
  8
0
100
AcDbLine
 62
7
  6
CONTINUOUS
 10
111.6016857994
 20
77.9710427982
 11
103.1871501365
 21
73.1129373671
  0
LINE
  5
3B6
100
AcDbEntity
  8
0
100
AcDbLine
 62
7
  6
CONTINUOUS
 10
135.5238420454
 20
89.0985817908
 11
134.109634371
 21
88.2820934831
  0
LINE
  5
3B7
100
AcDbEntity
  8
0
100
AcDbLine
 62
7
  6
CONTINUOUS
 10
103.1393493476
 20
69.9783714839
 11
119.2613168361
 21
79.2863381922
  0
LINE
  5
3B8
100
AcDbEntity
  8
0
100
AcDbLine
 62
7
  6
CONTINUOUS
 10
134.1606791748
 20
117.9775758013
 11
134.1078552638
 21
114.2044004617
  0
LINE
  5
3B9
100
AcDbEntity
  8
0
100
AcDbLine
 62
7
  6
CONTINUOUS
 10
134.1254054948
 20
117.9567781742
 11
134.0710829409
 21
114.2246841147
  0
LINE
  5
3BA
100
AcDbEntity
  8
0
100
AcDbLine
 62
7
  6
CONTINUOUS
 10
134.109634371
 20
88.2820934831
 11
134.2785840801
 21
99.3610736749
  0
LINE
  5
3BB
100
AcDbEntity
  8
0
100
AcDbLine
 62
7
  6
CONTINUOUS
 10
135.5238420454
 20
89.0985817908
 11
135.6930597088
 21
100.1951332472
  0
LINE
  5
3BC
100
AcDbEntity
  8
0
100
AcDbLine
 62
7
  6
CONTINUOUS
 10
118.8348282801
 20
76.3514410086
 11
102.7128607916
 21
67.0434743003
  0
LINE
  5
3BD
100
AcDbEntity
  8
0
100
AcDbLine
 62
7
  6
CONTINUOUS
 10
118.742997595
 20
73.3679485038
 11
102.6210301066
 21
64.0599817955
  0
LINE
  5
3BE
100
AcDbEntity
  8
0
100
AcDbLine
 62
7
  6
CONTINUOUS
 10
53.525208353
 20
160.8591557669
 11
52.6671381612
 21
160.6364369454
  0
LINE
  5
3BF
100
AcDbEntity
  8
0
100
AcDbLine
 62
7
  6
CONTINUOUS
 10
140.4229199298
 20
117.9064484746
 11
140.4573887533
 21
120.1667625943
  0
LINE
  5
3C0
100
AcDbEntity
  8
0
100
AcDbLine
 62
7
  6
CONTINUOUS
 10
141.5780852407
 20
105.1125932324
 11
141.557094224
 21
103.7413531617
  0
LINE
  5
3C1
100
AcDbEntity
  8
0
100
AcDbLine
 62
7
  6
CONTINUOUS
 10
142.0124305616
 20
118.8807297657
 11
141.8794455113
 21
110.160154
  0
LINE
  5
3C2
100
AcDbEntity
  8
0
100
AcDbLine
 62
7
  6
CONTINUOUS
 10
142.0481376456
 20
118.8593063781
 11
141.9151604462
 21
110.1392454444
  0
LINE
  5
3C3
100
AcDbEntity
  8
0
100
AcDbLine
 62
7
  6
CONTINUOUS
 10
142.2559074434
 20
110.3203975385
 11
142.3891877197
 21
119.0603329224
  0
LINE
  5
3C4
100
AcDbEntity
  8
0
100
AcDbLine
 62
7
  6
CONTINUOUS
 10
140.6451824778
 20
128.9923634809
 11
140.4949075428
 21
129.3289658273
  0
LINE
  5
3C5
100
AcDbEntity
  8
0
100
AcDbLine
 62
7
  6
CONTINUOUS
 10
146.5287421199
 20
122.3834362607
 11
146.3081805562
 21
107.9017408119
  0
LINE
  5
3C6
100
AcDbEntity
  8
0
100
AcDbLine
 62
7
  6
CONTINUOUS
 10
145.1532470655
 20
123.5950181252
 11
145.1234141598
 21
121.6387071451
  0
LINE
  5
3C7
100
AcDbEntity
  8
0
100
AcDbLine
 62
7
  6
CONTINUOUS
 10
145.2256959456
 20
123.6200232245
 11
145.19484403
 21
121.5968900336
  0
LINE
  5
3C8
100
AcDbEntity
  8
0
100
AcDbLine
 62
7
  6
CONTINUOUS
 10
146.6468274163
 20
125.4064247956
 11
146.3792475186
 21
107.859709706
  0
ARC
  5
3C9
100
AcDbEntity
  8
0
100
AcDbCircle
 62
7
  6
CONTINUOUS
 10
68.1996582274
 20
135.9551503258
 40
3.8547091895
100
AcDbArc
 50
179.167425662
 51
182.2256136991
  0
ARC
  5
3CA
100
AcDbEntity
  8
0
100
AcDbCircle
 62
7
  6
CONTINUOUS
 10
43.3485369112
 20
150.8035124353
 40
3.8547091896
100
AcDbArc
 50
179.167425662
 51
182.2256136991
  0
ARC
  5
3CB
100
AcDbEntity
  8
0
100
AcDbCircle
 62
7
  6
CONTINUOUS
 10
120.6872524596
 20
86.7011815208
 40
2.4540873217
100
AcDbArc
 50
177.7483706875
 51
179.1304507008
  0
ARC
  5
3CC
100
AcDbEntity
  8
0
100
AcDbCircle
 62
7
  6
CONTINUOUS
 10
46.1840251408
 20
104.8418916048
 40
1.672545247
100
AcDbArc
 50
114.8096231769
 51
119.9851008686
  0
ARC
  5
3CD
100
AcDbEntity
  8
0
100
AcDbCircle
 62
7
  6
CONTINUOUS
 10
30.576807771
 20
110.7113160612
 40
0.7892217694
100
AcDbArc
 50
300.0447440971
 51
304.0600802815
  0
SPLINE
  5
3CE
100
AcDbEntity
  8
0
100
AcDbSpline
 62
7
  6
CONTINUOUS
 70
0
 71
3
 72
17
 73
13
 74
0
 42
0.0000001
 43
0.0000001
 44
0.0000000001
 40
0.0
 40
0.0
 40
0.0
 40
0.0
 40
0.0428749345
 40
0.0875453584
 40
0.135461488
 40
0.187557863
 40
0.3051848154
 40
0.4392503862
 40
0.5838598925
 40
0.7309952383
 40
0.8721558162
 40
1.0
 40
1.0
 40
1.0
 40
1.0
 10
51.4301447796
 20
119.6125674527
 30
0.0
 10
51.3090539421
 20
119.542680942
 30
0.0
 10
51.0419287978
 20
119.4319244999
 30
0.0
 10
50.6008283957
 20
119.3685855344
 30
0.0
 10
50.1271247406
 20
119.4051549142
 30
0.0
 10
49.4389207364
 20
119.591685037
 30
0.0
 10
48.5601943986
 20
120.0778060756
 30
0.0
 10
47.5916277244
 20
120.9447883337
 30
0.0
 10
46.7387037739
 20
122.0495856929
 30
0.0
 10
46.0721582907
 20
123.301713289
 30
0.0
 10
45.6462189654
 20
124.5970313882
 30
0.0
 10
45.5396739951
 20
125.4769305638
 30
0.0
 10
45.5460306116
 20
125.8937695688
 30
0.0
  0
SPLINE
  5
3CF
100
AcDbEntity
  8
0
100
AcDbSpline
 62
7
  6
CONTINUOUS
 70
0
 71
3
 72
10
 73
6
 74
0
 42
0.0000001
 43
0.0000001
 44
0.0000000001
 40
0.0
 40
0.0
 40
0.0
 40
0.0
 40
0.2191737805
 40
0.5851897636
 40
1.0
 40
1.0
 40
1.0
 40
1.0
 10
130.8557807202
 20
95.444886912
 30
0.0
 10
130.6986570462
 20
95.4381037872
 30
0.0
 10
130.276303325
 20
95.469839847
 30
0.0
 10
129.5877718374
 20
95.6985455675
 30
0.0
 10
129.1038364721
 20
95.9885043917
 30
0.0
 10
128.8619503084
 20
96.1619603919
 30
0.0
  0
SPLINE
  5
3D0
100
AcDbEntity
  8
0
100
AcDbSpline
 62
7
  6
CONTINUOUS
 70
0
 71
3
 72
11
 73
7
 74
0
 42
0.0000001
 43
0.0000001
 44
0.0000000001
 40
0.0
 40
0.0
 40
0.0
 40
0.0
 40
0.2187490621
 40
0.4522998897
 40
0.7112779085
 40
1.0
 40
1.0
 40
1.0
 40
1.0
 10
130.2264920053
 20
94.8489934296
 30
0.0
 10
130.3796556504
 20
94.9373921679
 30
0.0
 10
130.6665071114
 20
95.1765926924
 30
0.0
 10
130.9757193084
 20
95.6704024841
 30
0.0
 10
131.1641961287
 20
96.2790065098
 30
0.0
 10
131.2062132551
 20
96.7226834613
 30
0.0
 10
131.2097722618
 20
96.9560674969
 30
0.0
  0
SPLINE
  5
3D1
100
AcDbEntity
  8
0
100
AcDbSpline
 62
7
  6
CONTINUOUS
 70
0
 71
3
 72
11
 73
7
 74
0
 42
0.0000001
 43
0.0000001
 44
0.0000000001
 40
0.0
 40
0.0
 40
0.0
 40
0.0
 40
0.2187287107
 40
0.4522745568
 40
0.711391832
 40
1.0
 40
1.0
 40
1.0
 40
1.0
 10
114.8329859239
 20
129.7643765148
 30
0.0
 10
114.9135680293
 20
129.8109360214
 30
0.0
 10
115.064641393
 20
129.9366722666
 30
0.0
 10
115.2273620064
 20
130.1966850499
 30
0.0
 10
115.3264684216
 20
130.5170193059
 30
0.0
 10
115.3486551339
 20
130.7505343161
 30
0.0
 10
115.3505275425
 20
130.8733186492
 30
0.0
  0
SPLINE
  5
3D2
100
AcDbEntity
  8
0
100
AcDbSpline
 62
7
  6
CONTINUOUS
 70
0
 71
3
 72
9
 73
5
 74
0
 42
0.0000001
 43
0.0000001
 44
0.0000000001
 40
0.0
 40
0.0
 40
0.0
 40
0.0
 40
0.2421234281
 40
1.0
 40
1.0
 40
1.0
 40
1.0
 10
67.4852678864
 20
130.9060100164
 30
0.0
 10
67.4464898039
 20
130.9232836113
 30
0.0
 10
67.2877793141
 20
130.9978574751
 30
0.0
 10
67.1349654982
 20
131.0847794792
 30
0.0
 10
67.0228359938
 20
131.1560784348
 30
0.0
  0
SPLINE
  5
3D3
100
AcDbEntity
  8
0
100
AcDbSpline
 62
7
  6
CONTINUOUS
 70
0
 71
3
 72
10
 73
6
 74
0
 42
0.0000001
 43
0.0000001
 44
0.0000000001
 40
0.0
 40
0.0
 40
0.0
 40
0.0
 40
0.232373921
 40
0.4727097722
 40
1.0
 40
1.0
 40
1.0
 40
1.0
 10
78.6618534646
 20
135.4790446359
 30
0.0
 10
78.5556829682
 20
135.4177690968
 30
0.0
 10
78.3241364434
 20
135.3181840723
 30
0.0
 10
77.8017447092
 20
135.2230838301
 30
0.0
 10
77.3887559641
 20
135.2789064588
 30
0.0
 10
77.1209923131
 20
135.3542475342
 30
0.0
  0
SPLINE
  5
3D4
100
AcDbEntity
  8
0
100
AcDbSpline
 62
7
  6
CONTINUOUS
 70
0
 71
3
 72
11
 73
7
 74
0
 42
0.0000001
 43
0.0000001
 44
0.0000000001
 40
0.0
 40
0.0
 40
0.0
 40
0.0
 40
0.2187287107
 40
0.4522745568
 40
0.711391832
 40
1.0
 40
1.0
 40
1.0
 40
1.0
 10
65.1307432914
 20
159.4611007339
 30
0.0
 10
65.2113253969
 20
159.5076602404
 30
0.0
 10
65.3623987605
 20
159.6333964856
 30
0.0
 10
65.5251193739
 20
159.8934092689
 30
0.0
 10
65.6242257892
 20
160.2137435249
 30
0.0
 10
65.6464125015
 20
160.4472585351
 30
0.0
 10
65.64828491
 20
160.5700428682
 30
0.0
  0
SPLINE
  5
3D5
100
AcDbEntity
  8
0
100
AcDbSpline
 62
7
  6
CONTINUOUS
 70
0
 71
3
 72
17
 73
13
 74
0
 42
0.0000001
 43
0.0000001
 44
0.0000000001
 40
0.0
 40
0.0
 40
0.0
 40
0.0
 40
0.0428749345
 40
0.0875453584
 40
0.135461488
 40
0.187557863
 40
0.3051848154
 40
0.4392503862
 40
0.5838598925
 40
0.7309952383
 40
0.8721558162
 40
1.0
 40
1.0
 40
1.0
 40
1.0
 10
26.5790234634
 20
134.4609295622
 30
0.0
 10
26.4579326259
 20
134.3910430516
 30
0.0
 10
26.1908074816
 20
134.2802866095
 30
0.0
 10
25.7497070795
 20
134.2169476439
 30
0.0
 10
25.2760034244
 20
134.2535170237
 30
0.0
 10
24.5877994202
 20
134.4400471466
 30
0.0
 10
23.7090730824
 20
134.9261681851
 30
0.0
 10
22.7405064082
 20
135.7931504433
 30
0.0
 10
21.8875824577
 20
136.8979478024
 30
0.0
 10
21.2210369745
 20
138.1500753985
 30
0.0
 10
20.7950976492
 20
139.4453934977
 30
0.0
 10
20.6885526789
 20
140.3252926733
 30
0.0
 10
20.6949092954
 20
140.7421316783
 30
0.0
  0
SPLINE
  5
3D6
100
AcDbEntity
  8
0
100
AcDbSpline
 62
7
  6
CONTINUOUS
 70
0
 71
3
 72
11
 73
7
 74
0
 42
0.0000001
 43
0.0000001
 44
0.0000000001
 40
0.0
 40
0.0
 40
0.0
 40
0.0
 40
0.2150121233
 40
0.4470685147
 40
0.7074062886
 40
1.0
 40
1.0
 40
1.0
 40
1.0
 10
44.3083442861
 20
145.7205364471
 30
0.0
 10
44.1681972482
 20
145.6395815346
 30
0.0
 10
43.8424632184
 20
145.5257702786
 30
0.0
 10
43.3020360457
 20
145.5285484626
 30
0.0
 10
42.7280829793
 20
145.6905099213
 30
0.0
 10
42.357570898
 20
145.8862615291
 30
0.0
 10
42.1717146776
 20
146.0044405443
 30
0.0
  0
SPLINE
  5
3D7
100
AcDbEntity
  8
0
100
AcDbSpline
 62
7
  6
CONTINUOUS
 70
0
 71
3
 72
10
 73
6
 74
0
 42
0.0000001
 43
0.0000001
 44
0.0000000001
 40
0.0
 40
0.0
 40
0.0
 40
0.0
 40
0.2324267082
 40
0.4727885733
 40
1.0
 40
1.0
 40
1.0
 40
1.0
 10
53.8107312837
 20
150.3274083089
 30
0.0
 10
53.7047311997
 20
150.2662332351
 30
0.0
 10
53.4735984652
 20
150.1667768822
 30
0.0
 10
52.9522328455
 20
150.0715586232
 30
0.0
 10
52.540002086
 20
150.1268869264
 30
0.0
 10
52.2726975301
 20
150.2018158489
 30
0.0
  0
SPLINE
  5
3D8
100
AcDbEntity
  8
0
100
AcDbSpline
 62
7
  6
CONTINUOUS
 70
0
 71
3
 72
11
 73
7
 74
0
 42
0.0000001
 43
0.0000001
 44
0.0000000001
 40
0.0
 40
0.0
 40
0.0
 40
0.0
 40
0.2187494371
 40
0.4523006974
 40
0.7112782129
 40
1.0
 40
1.0
 40
1.0
 40
1.0
 10
79.8167848161
 20
106.8054269159
 30
0.0
 10
79.9739794879
 20
106.8961518745
 30
0.0
 10
80.268380245
 20
107.1416477705
 30
0.0
 10
80.585728881
 20
107.6484532472
 30
0.0
 10
80.7791662841
 20
108.27307264
 30
0.0
 10
80.8222882347
 20
108.7284247819
 30
0.0
 10
80.8259408958
 20
108.9679502609
 30
0.0
  0
SPLINE
  5
3D9
100
AcDbEntity
  8
0
100
AcDbSpline
 62
7
  6
CONTINUOUS
 70
0
 71
3
 72
17
 73
13
 74
0
 42
0.0000001
 43
0.0000001
 44
0.0000000001
 40
0.0
 40
0.0
 40
0.0
 40
0.0
 40
0.0428749345
 40
0.0875453584
 40
0.135461488
 40
0.187557863
 40
0.3051848154
 40
0.4392503862
 40
0.5838598925
 40
0.7309952383
 40
0.8721558162
 40
1.0
 40
1.0
 40
1.0
 40
1.0
 10
76.2812660958
 20
104.7642053431
 30
0.0
 10
76.1601752583
 20
104.6943188325
 30
0.0
 10
75.893050114
 20
104.5835623904
 30
0.0
 10
75.4519497119
 20
104.5202234249
 30
0.0
 10
74.9782460568
 20
104.5567928047
 30
0.0
 10
74.2900420526
 20
104.7433229275
 30
0.0
 10
73.4113157148
 20
105.2294439661
 30
0.0
 10
72.4427490406
 20
106.0964262242
 30
0.0
 10
71.5898250902
 20
107.2012235834
 30
0.0
 10
70.9232796069
 20
108.4533511795
 30
0.0
 10
70.4973402816
 20
109.7486692787
 30
0.0
 10
70.3907953113
 20
110.6285684543
 30
0.0
 10
70.3971519278
 20
111.0454074593
 30
0.0
  0
SPLINE
  5
3DA
100
AcDbEntity
  8
0
100
AcDbSpline
 62
7
  6
CONTINUOUS
 70
0
 71
3
 72
11
 73
7
 74
0
 42
0.0000001
 43
0.0000001
 44
0.0000000001
 40
0.0
 40
0.0
 40
0.0
 40
0.0
 40
0.2187563835
 40
0.4522843459
 40
0.7113171471
 40
1.0
 40
1.0
 40
1.0
 40
1.0
 10
80.4329308644
 20
80.5129162981
 30
0.0
 10
80.5135422253
 20
80.5594499656
 30
0.0
 10
80.6645348448
 20
80.6853148915
 30
0.0
 10
80.8272357872
 20
80.9452665159
 30
0.0
 10
80.9264405078
 20
81.26557187
 30
0.0
 10
80.948569691
 20
81.4990929965
 30
0.0
 10
80.9504425969
 20
81.6219099441
 30
0.0
  0
SPLINE
  5
3DB
100
AcDbEntity
  8
0
100
AcDbSpline
 62
7
  6
CONTINUOUS
 70
0
 71
3
 72
11
 73
7
 74
0
 42
0.0000001
 43
0.0000001
 44
0.0000000001
 40
0.0
 40
0.0
 40
0.0
 40
0.0
 40
0.2187563835
 40
0.4522843459
 40
0.7113171471
 40
1.0
 40
1.0
 40
1.0
 40
1.0
 10
55.6878598526
 20
95.2979141311
 30
0.0
 10
55.7684712134
 20
95.3444477987
 30
0.0
 10
55.9194638329
 20
95.4703127245
 30
0.0
 10
56.0821647753
 20
95.7302643489
 30
0.0
 10
56.1813694959
 20
96.0505697031
 30
0.0
 10
56.2034986791
 20
96.2840908296
 30
0.0
 10
56.205371585
 20
96.4069077772
 30
0.0
  0
SPLINE
  5
3DC
100
AcDbEntity
  8
0
100
AcDbSpline
 62
7
  6
CONTINUOUS
 70
0
 71
3
 72
9
 73
5
 74
0
 42
0.0000001
 43
0.0000001
 44
0.0000000001
 40
0.0
 40
0.0
 40
0.0
 40
0.0
 40
0.2472970879
 40
1.0
 40
1.0
 40
1.0
 40
1.0
 10
31.0188208333
 20
110.0574846961
 30
0.0
 10
31.0333446949
 20
110.0673025141
 30
0.0
 10
31.0907523679
 20
110.1089361401
 30
0.0
 10
31.1425619601
 20
110.1582047631
 30
0.0
 10
31.1776543479
 20
110.1984007668
 30
0.0
  0
SPLINE
  5
3DD
100
AcDbEntity
  8
0
100
AcDbSpline
 62
7
  6
CONTINUOUS
 70
0
 71
3
 72
9
 73
5
 74
0
 42
0.0000001
 43
0.0000001
 44
0.0000000001
 40
0.0
 40
0.0
 40
0.0
 40
0.0
 40
0.4598292279
 40
1.0
 40
1.0
 40
1.0
 40
1.0
 10
31.1776543479
 20
110.1984007668
 30
0.0
 10
31.2714212308
 20
110.3058045146
 30
0.0
 10
31.4167180677
 20
110.5911189775
 30
0.0
 10
31.4558958341
 20
110.9030621633
 30
0.0
 10
31.4584496336
 20
111.0705291231
 30
0.0
  0
SPLINE
  5
3DE
100
AcDbEntity
  8
0
100
AcDbSpline
 62
7
  6
CONTINUOUS
 70
0
 71
3
 72
10
 73
6
 74
0
 42
0.0000001
 43
0.0000001
 44
0.0000000001
 40
0.0
 40
0.0
 40
0.0
 40
0.0
 40
0.5258267238
 40
0.7728089792
 40
1.0
 40
1.0
 40
1.0
 40
1.0
 10
118.8348282801
 20
76.3514410086
 30
0.0
 10
118.6600866785
 20
76.6326349821
 30
0.0
 10
118.4508065284
 20
77.0797479391
 30
0.0
 10
118.3033404433
 20
77.6932940712
 30
0.0
 10
118.2784389401
 20
77.9926196801
 30
0.0
 10
118.2806200132
 20
78.1356448796
 30
0.0
  0
SPLINE
  5
3DF
100
AcDbEntity
  8
0
100
AcDbSpline
 62
7
  6
CONTINUOUS
 70
0
 71
3
 72
9
 73
5
 74
0
 42
0.0000001
 43
0.0000001
 44
0.0000000001
 40
0.0
 40
0.0
 40
0.0
 40
0.0
 40
0.2762893218
 40
1.0
 40
1.0
 40
1.0
 40
1.0
 10
118.2806200132
 20
78.1356448796
 30
0.0
 10
118.2817214406
 20
78.2078716553
 30
0.0
 10
118.2986450279
 20
78.4681744566
 30
0.0
 10
118.374219215
 20
78.7301284831
 30
0.0
 10
118.474683701
 20
78.8904663146
 30
0.0
  0
SPLINE
  5
3E0
100
AcDbEntity
  8
0
100
AcDbSpline
 62
7
  6
CONTINUOUS
 70
0
 71
3
 72
11
 73
7
 74
0
 42
0.0000001
 43
0.0000001
 44
0.0000000001
 40
0.0
 40
0.0
 40
0.0
 40
0.0
 40
0.2595807094
 40
0.5217067369
 40
0.7724882566
 40
1.0
 40
1.0
 40
1.0
 40
1.0
 10
119.3338237745
 20
84.0410248917
 30
0.0
 10
119.1638234036
 20
84.2337377011
 30
0.0
 10
118.856333617
 20
84.6522645912
 30
0.0
 10
118.5068973842
 20
85.3361743181
 30
0.0
 10
118.2849058138
 20
86.0383058989
 30
0.0
 10
118.2300134648
 20
86.5132190245
 30
0.0
 10
118.2334477526
 20
86.7384245431
 30
0.0
  0
SPLINE
  5
3E1
100
AcDbEntity
  8
0
100
AcDbSpline
 62
7
  6
CONTINUOUS
 70
0
 71
3
 72
11
 73
7
 74
0
 42
0.0000001
 43
0.0000001
 44
0.0000000001
 40
0.0
 40
0.0
 40
0.0
 40
0.0
 40
0.2189433198
 40
0.4525655155
 40
0.7115245309
 40
1.0
 40
1.0
 40
1.0
 40
1.0
 10
87.826581782
 20
112.7635267027
 30
0.0
 10
87.9517285207
 20
112.8358191632
 30
0.0
 10
88.1862675492
 20
113.0309249689
 30
0.0
 10
88.439639303
 20
113.4337542761
 30
0.0
 10
88.5948036257
 20
113.9301418433
 30
0.0
 10
88.6302329471
 20
114.2921282652
 30
0.0
 10
88.6337240408
 20
114.4825215582
 30
0.0
  0
SPLINE
  5
3E2
100
AcDbEntity
  8
0
100
AcDbSpline
 62
7
  6
CONTINUOUS
 70
0
 71
3
 72
11
 73
7
 74
0
 42
0.0000001
 43
0.0000001
 44
0.0000000001
 40
0.0
 40
0.0
 40
0.0
 40
0.0
 40
0.2189433198
 40
0.4525655155
 40
0.7115245309
 40
1.0
 40
1.0
 40
1.0
 40
1.0
 10
38.3397609319
 20
142.531311546
 30
0.0
 10
38.4649076706
 20
142.6036040064
 30
0.0
 10
38.6994466991
 20
142.7987098121
 30
0.0
 10
38.9528184529
 20
143.2015391193
 30
0.0
 10
39.1079827756
 20
143.6979266865
 30
0.0
 10
39.143412097
 20
144.0599131084
 30
0.0
 10
39.1469031907
 20
144.2503064014
 30
0.0
  0
SPLINE
  5
3E3
100
AcDbEntity
  8
0
100
AcDbSpline
 62
7
  6
CONTINUOUS
 70
0
 71
3
 72
11
 73
7
 74
0
 42
0.0000001
 43
0.0000001
 44
0.0000000001
 40
0.0
 40
0.0
 40
0.0
 40
0.0
 40
0.2887296679
 40
0.5477047344
 40
0.7812536648
 40
1.0
 40
1.0
 40
1.0
 40
1.0
 10
45.5460306116
 20
125.8937695688
 30
0.0
 10
45.5496833749
 20
126.1333017451
 30
0.0
 10
45.5928057005
 20
126.588658904
 30
0.0
 10
45.7862470209
 20
127.2132803137
 30
0.0
 10
46.1035947106
 20
127.7200789212
 30
0.0
 10
46.3979930556
 20
127.9655710633
 30
0.0
 10
46.5551862255
 20
128.0562937172
 30
0.0
  0
SPLINE
  5
3E4
100
AcDbEntity
  8
0
100
AcDbSpline
 62
7
  6
CONTINUOUS
 70
0
 71
3
 72
17
 73
13
 74
0
 42
0.0000001
 43
0.0000001
 44
0.0000000001
 40
0.0
 40
0.0
 40
0.0
 40
0.0
 40
0.1395979557
 40
0.2862074509
 40
0.4331740258
 40
0.5738211645
 40
0.7023961168
 40
0.8152541328
 40
0.8657595029
 40
0.9127546191
 40
0.9570957479
 40
1.0
 40
1.0
 40
1.0
 40
1.0
 10
55.8741572761
 20
124.9012668701
 30
0.0
 10
55.7982834546
 20
125.298747241
 30
0.0
 10
55.5648458866
 20
126.0998706819
 30
0.0
 10
55.0272697928
 20
127.2395571957
 30
0.0
 10
54.3239826736
 20
128.28929687
 30
0.0
 10
53.5012514354
 20
129.1793217699
 30
0.0
 10
52.6130265563
 20
129.8513913214
 30
0.0
 10
51.8327075583
 20
130.2062476219
 30
0.0
 10
51.2319442198
 20
130.3248956353
 30
0.0
 10
50.8183447602
 20
130.3325355423
 30
0.0
 10
50.432984226
 20
130.2609789521
 30
0.0
 10
50.1984210343
 20
130.1596815228
 30
0.0
 10
50.0907058774
 20
130.0975136832
 30
0.0
  0
SPLINE
  5
3E5
100
AcDbEntity
  8
0
100
AcDbSpline
 62
7
  6
CONTINUOUS
 70
0
 71
3
 72
9
 73
5
 74
0
 42
0.0000001
 43
0.0000001
 44
0.0000000001
 40
0.0
 40
0.0
 40
0.0
 40
0.0
 40
0.2606835973
 40
1.0
 40
1.0
 40
1.0
 40
1.0
 10
104.1570398647
 20
148.6446974705
 30
0.0
 10
104.1583683801
 20
148.7318156827
 30
0.0
 10
104.1708910755
 20
149.0657962273
 30
0.0
 10
104.2142394644
 20
149.3990524475
 30
0.0
 10
104.267412476
 20
149.6403654788
 30
0.0
  0
SPLINE
  5
3E6
100
AcDbEntity
  8
0
100
AcDbSpline
 62
7
  6
CONTINUOUS
 70
0
 71
3
 72
9
 73
5
 74
0
 42
0.0000001
 43
0.0000001
 44
0.0000000001
 40
0.0
 40
0.0
 40
0.0
 40
0.0
 40
0.5209264239
 40
1.0
 40
1.0
 40
1.0
 40
1.0
 10
104.5460929669
 20
146.2073487629
 30
0.0
 10
104.4169952273
 20
146.6174378574
 30
0.0
 10
104.2206749748
 20
147.4221591882
 30
0.0
 10
104.1510110748
 20
148.2493558971
 30
0.0
 10
104.1570398647
 20
148.6446974705
 30
0.0
  0
SPLINE
  5
3E7
100
AcDbEntity
  8
0
100
AcDbSpline
 62
7
  6
CONTINUOUS
 70
0
 71
3
 72
11
 73
7
 74
0
 42
0.0000001
 43
0.0000001
 44
0.0000000001
 40
0.0
 40
0.0
 40
0.0
 40
0.0
 40
0.2266627868
 40
0.4779053337
 40
0.7407386632
 40
1.0
 40
1.0
 40
1.0
 40
1.0
 10
114.6133526814
 20
143.9490162101
 30
0.0
 10
114.1334272144
 20
144.2054342918
 30
0.0
 10
113.1962101413
 20
144.8884121394
 30
0.0
 10
111.9901403674
 20
146.2071706318
 30
0.0
 10
110.9865914081
 20
147.7792192669
 30
0.0
 10
110.4958777474
 20
148.9408726171
 30
0.0
 10
110.3089892402
 20
149.534538617
 30
0.0
  0
SPLINE
  5
3E8
100
AcDbEntity
  8
0
100
AcDbSpline
 62
7
  6
CONTINUOUS
 70
0
 71
3
 72
11
 73
7
 74
0
 42
0.0000001
 43
0.0000001
 44
0.0000000001
 40
0.0
 40
0.0
 40
0.0
 40
0.0
 40
0.2875310947
 40
0.5461348677
 40
0.7801512623
 40
1.0
 40
1.0
 40
1.0
 40
1.0
 10
112.398107787
 20
83.4123826033
 30
0.0
 10
112.2830838758
 20
83.4738577964
 30
0.0
 10
112.0546220312
 20
83.5736772221
 30
0.0
 10
111.7053972892
 20
83.647299954
 30
0.0
 10
111.3784688743
 20
83.6317078519
 30
0.0
 10
111.1816498564
 20
83.5582996345
 30
0.0
 10
111.0952839932
 20
83.5084473059
 30
0.0
  0
SPLINE
  5
3E9
100
AcDbEntity
  8
0
100
AcDbSpline
 62
7
  6
CONTINUOUS
 70
0
 71
3
 72
9
 73
5
 74
0
 42
0.0000001
 43
0.0000001
 44
0.0000000001
 40
0.0
 40
0.0
 40
0.0
 40
0.0
 40
0.2381190709
 40
1.0
 40
1.0
 40
1.0
 40
1.0
 10
80.9504425969
 20
81.6219099441
 30
0.0
 10
80.9511703722
 20
81.6696342555
 30
0.0
 10
80.9478721805
 20
81.8701383044
 30
0.0
 10
80.9211678246
 20
82.0699571458
 30
0.0
 10
80.8906384431
 20
82.219589954
 30
0.0
  0
SPLINE
  5
3EA
100
AcDbEntity
  8
0
100
AcDbSpline
 62
7
  6
CONTINUOUS
 70
0
 71
3
 72
9
 73
5
 74
0
 42
0.0000001
 43
0.0000001
 44
0.0000000001
 40
0.0
 40
0.0
 40
0.0
 40
0.0
 40
0.2381190709
 40
1.0
 40
1.0
 40
1.0
 40
1.0
 10
56.205371585
 20
96.4069077772
 30
0.0
 10
56.2060993603
 20
96.4546320886
 30
0.0
 10
56.2028011686
 20
96.6551361374
 30
0.0
 10
56.1760968127
 20
96.8549549789
 30
0.0
 10
56.1455674312
 20
97.0045877871
 30
0.0
  0
SPLINE
  5
3EB
100
AcDbEntity
  8
0
100
AcDbSpline
 62
7
  6
CONTINUOUS
 70
0
 71
3
 72
9
 73
5
 74
0
 42
0.0000001
 43
0.0000001
 44
0.0000000001
 40
0.0
 40
0.0
 40
0.0
 40
0.0
 40
0.2351939383
 40
1.0
 40
1.0
 40
1.0
 40
1.0
 10
31.4584496336
 20
111.0705291231
 30
0.0
 10
31.4593821108
 20
111.1316768813
 30
0.0
 10
31.4521575866
 20
111.3918086405
 30
0.0
 10
31.4046960986
 20
111.6500245377
 30
0.0
 10
31.352038403
 20
111.8417901969
 30
0.0
  0
SPLINE
  5
3EC
100
AcDbEntity
  8
0
100
AcDbSpline
 62
7
  6
CONTINUOUS
 70
0
 71
3
 72
10
 73
6
 74
0
 42
0.0000001
 43
0.0000001
 44
0.0000000001
 40
0.0
 40
0.0
 40
0.0
 40
0.0
 40
0.2273322545
 40
0.4741089206
 40
1.0
 40
1.0
 40
1.0
 40
1.0
 10
51.3831175855
 20
99.8483179813
 30
0.0
 10
51.387654699
 20
100.1458419656
 30
0.0
 10
51.3373982914
 20
100.7680153235
 30
0.0
 10
51.0366245187
 20
102.0448471182
 30
0.0
 10
50.6093764403
 20
102.9771510286
 30
0.0
 10
50.2523293965
 20
103.5656563825
 30
0.0
  0
SPLINE
  5
3ED
100
AcDbEntity
  8
0
100
AcDbSpline
 62
7
  6
CONTINUOUS
 70
0
 71
3
 72
17
 73
13
 74
0
 42
0.0000001
 43
0.0000001
 44
0.0000000001
 40
0.0
 40
0.0
 40
0.0
 40
0.0
 40
0.1278430753
 40
0.2689984061
 40
0.4161285007
 40
0.5607381046
 40
0.6948067896
 40
0.812436059
 40
0.8645332956
 40
0.9124507567
 40
0.9571226443
 40
1.0
 40
1.0
 40
1.0
 40
1.0
 10
80.8259408958
 20
108.9679502609
 30
0.0
 10
80.8322974563
 20
109.3847855901
 30
0.0
 10
80.7257565785
 20
110.264663858
 30
0.0
 10
80.2998376426
 20
111.5599478842
 30
0.0
 10
79.6333234681
 20
112.8120526319
 30
0.0
 10
78.7804198789
 20
113.9168575843
 30
0.0
 10
77.8118475006
 20
114.7838600859
 30
0.0
 10
76.9331116864
 20
115.2700061149
 30
0.0
 10
76.2448982186
 20
115.456553805
 30
0.0
 10
75.7711823326
 20
115.4931391662
 30
0.0
 10
75.3300672524
 20
115.4297900528
 30
0.0
 10
75.0629243718
 20
115.3190428515
 30
0.0
 10
74.9418271936
 20
115.2491515737
 30
0.0
  0
SPLINE
  5
3EE
100
AcDbEntity
  8
0
100
AcDbSpline
 62
7
  6
CONTINUOUS
 70
0
 71
3
 72
9
 73
5
 74
0
 42
0.0000001
 43
0.0000001
 44
0.0000000001
 40
0.0
 40
0.0
 40
0.0
 40
0.0
 40
0.2440190117
 40
1.0
 40
1.0
 40
1.0
 40
1.0
 10
131.2097722618
 20
96.9560674969
 30
0.0
 10
131.2103988252
 20
96.9971547747
 30
0.0
 10
131.2105622525
 20
97.1655643186
 30
0.0
 10
131.2014225434
 20
97.3339492064
 30
0.0
 10
131.1899348861
 20
97.4607347242
 30
0.0
  0
SPLINE
  5
3EF
100
AcDbEntity
  8
0
100
AcDbSpline
 62
7
  6
CONTINUOUS
 70
0
 71
3
 72
11
 73
7
 74
0
 42
0.0000001
 43
0.0000001
 44
0.0000000001
 40
0.0
 40
0.0
 40
0.0
 40
0.0
 40
0.2887296679
 40
0.5477047344
 40
0.7812536648
 40
1.0
 40
1.0
 40
1.0
 40
1.0
 10
70.3971519278
 20
111.0454074593
 30
0.0
 10
70.4008046911
 20
111.2849396356
 30
0.0
 10
70.4439270167
 20
111.7402967945
 30
0.0
 10
70.6373683371
 20
112.3649182042
 30
0.0
 10
70.9547160268
 20
112.8717168117
 30
0.0
 10
71.2491143718
 20
113.1172089538
 30
0.0
 10
71.4063075417
 20
113.2079316077
 30
0.0
  0
SPLINE
  5
3F0
100
AcDbEntity
  8
0
100
AcDbSpline
 62
7
  6
CONTINUOUS
 70
0
 71
3
 72
14
 73
10
 74
0
 42
0.0000001
 43
0.0000001
 44
0.0000000001
 40
0.0
 40
0.0
 40
0.0
 40
0.0
 40
0.117315777
 40
0.2453451799
 40
0.516769344
 40
0.6514693844
 40
0.7791381875
 40
0.8960516631
 40
1.0
 40
1.0
 40
1.0
 40
1.0
 10
115.3505275425
 20
130.8733186492
 30
0.0
 10
115.3530267438
 20
131.0372052999
 30
0.0
 10
115.3219717084
 20
131.3809377129
 30
0.0
 10
115.1411465101
 20
132.0819134919
 30
0.0
 10
114.8023615529
 20
132.7592709422
 30
0.0
 10
114.3453956861
 20
133.3505962035
 30
0.0
 10
113.9635316908
 20
133.7212152276
 30
0.0
 10
113.5619258087
 20
134.0005414224
 30
0.0
 10
113.2754660388
 20
134.1239654832
 30
0.0
 10
113.1354380007
 20
134.1624854852
 30
0.0
  0
SPLINE
  5
3F1
100
AcDbEntity
  8
0
100
AcDbSpline
 62
7
  6
CONTINUOUS
 70
0
 71
3
 72
11
 73
7
 74
0
 42
0.0000001
 43
0.0000001
 44
0.0000000001
 40
0.0
 40
0.0
 40
0.0
 40
0.0
 40
0.2886816256
 40
0.5477120969
 40
0.7812521076
 40
1.0
 40
1.0
 40
1.0
 40
1.0
 10
64.3453560006
 20
136.0111617639
 30
0.0
 10
64.3483440213
 20
136.207103041
 30
0.0
 10
64.3836669266
 20
136.5796548757
 30
0.0
 10
64.5418754786
 20
137.0906955749
 30
0.0
 10
64.8015069777
 20
137.5054056017
 30
0.0
 10
65.0424216372
 20
137.7061624669
 30
0.0
 10
65.1710026357
 20
137.7804363413
 30
0.0
  0
SPLINE
  5
3F2
100
AcDbEntity
  8
0
100
AcDbSpline
 62
7
  6
CONTINUOUS
 70
0
 71
3
 72
10
 73
6
 74
0
 42
0.0000001
 43
0.0000001
 44
0.0000000001
 40
0.0
 40
0.0
 40
0.0
 40
0.0
 40
0.5265637473
 40
0.7671413851
 40
1.0
 40
1.0
 40
1.0
 40
1.0
 10
73.0408195305
 20
142.4630275779
 30
0.0
 10
73.1107169575
 20
142.7265174764
 30
0.0
 10
73.2693637945
 20
143.1029766614
 30
0.0
 10
73.6087662156
 20
143.4982028749
 30
0.0
 10
73.8074837589
 20
143.6460057232
 30
0.0
 10
73.9118937735
 20
143.7062652128
 30
0.0
  0
SPLINE
  5
3F3
100
AcDbEntity
  8
0
100
AcDbSpline
 62
7
  6
CONTINUOUS
 70
0
 71
3
 72
10
 73
6
 74
0
 42
0.0000001
 43
0.0000001
 44
0.0000000001
 40
0.0
 40
0.0
 40
0.0
 40
0.0
 40
0.2906788579
 40
0.5573792178
 40
1.0
 40
1.0
 40
1.0
 40
1.0
 10
81.3475205041
 20
144.3308866222
 30
0.0
 10
81.1235410985
 20
144.5843673966
 30
0.0
 10
80.6584977129
 20
145.0427989704
 30
0.0
 10
79.7134062634
 20
145.7172713972
 30
0.0
 10
78.8913887167
 20
146.0144487982
 30
0.0
 10
78.3763296692
 20
146.0107936573
 30
0.0
  0
SPLINE
  5
3F4
100
AcDbEntity
  8
0
100
AcDbSpline
 62
7
  6
CONTINUOUS
 70
0
 71
3
 72
10
 73
6
 74
0
 42
0.0000001
 43
0.0000001
 44
0.0000000001
 40
0.0
 40
0.0
 40
0.0
 40
0.0
 40
0.5265637473
 40
0.7671413851
 40
1.0
 40
1.0
 40
1.0
 40
1.0
 10
48.1896982143
 20
157.3113896874
 30
0.0
 10
48.2595956413
 20
157.5748795859
 30
0.0
 10
48.4182424782
 20
157.951338771
 30
0.0
 10
48.7576448994
 20
158.3465649844
 30
0.0
 10
48.9563624427
 20
158.4943678328
 30
0.0
 10
49.0607724572
 20
158.5546273224
 30
0.0
  0
SPLINE
  5
3F5
100
AcDbEntity
  8
0
100
AcDbSpline
 62
7
  6
CONTINUOUS
 70
0
 71
3
 72
11
 73
7
 74
0
 42
0.0000001
 43
0.0000001
 44
0.0000000001
 40
0.0
 40
0.0
 40
0.0
 40
0.0
 40
0.2886816256
 40
0.5477120969
 40
0.7812521076
 40
1.0
 40
1.0
 40
1.0
 40
1.0
 10
39.4942346844
 20
150.8595238734
 30
0.0
 10
39.4972227051
 20
151.0554651505
 30
0.0
 10
39.5325456104
 20
151.4280169852
 30
0.0
 10
39.6907541624
 20
151.9390576844
 30
0.0
 10
39.9503856615
 20
152.3537677112
 30
0.0
 10
40.191300321
 20
152.5545245764
 30
0.0
 10
40.3198813194
 20
152.6287984508
 30
0.0
  0
SPLINE
  5
3F6
100
AcDbEntity
  8
0
100
AcDbSpline
 62
7
  6
CONTINUOUS
 70
0
 71
3
 72
16
 73
12
 74
0
 42
0.0000001
 43
0.0000001
 44
0.0000000001
 40
0.0
 40
0.0
 40
0.0
 40
0.0
 40
0.140950651
 40
0.2881491729
 40
0.4350777509
 40
0.575289898
 40
0.703298565
 40
0.815708978
 40
0.9126688725
 40
0.9570326883
 40
1.0
 40
1.0
 40
1.0
 40
1.0
 10
30.9942632096
 20
139.8915519052
 30
0.0
 10
30.910028142
 20
140.2842688264
 30
0.0
 10
30.6641756068
 20
141.0723668396
 30
0.0
 10
30.1166235966
 20
142.1894070547
 30
0.0
 10
29.4118717019
 20
143.2125771501
 30
0.0
 10
28.5954462295
 20
144.0758811921
 30
0.0
 10
27.7174425058
 20
144.7245545043
 30
0.0
 10
26.8301949747
 20
145.1183441711
 30
0.0
 10
26.0955871762
 20
145.2064652129
 30
0.0
 10
25.576198379
 20
145.1071292931
 30
0.0
 10
25.3456286078
 20
145.0070791505
 30
0.0
 10
25.2395845612
 20
144.9458757927
 30
0.0
  0
SPLINE
  5
3F7
100
AcDbEntity
  8
0
100
AcDbSpline
 62
7
  6
CONTINUOUS
 70
0
 71
3
 72
17
 73
13
 74
0
 42
0.0000001
 43
0.0000001
 44
0.0000000001
 40
0.0
 40
0.0
 40
0.0
 40
0.0
 40
0.1278372013
 40
0.2689974434
 40
0.4161248531
 40
0.5607328885
 40
0.6948034741
 40
0.8124336193
 40
0.8645309817
 40
0.9124484101
 40
0.9571220592
 40
1.0
 40
1.0
 40
1.0
 40
1.0
 10
65.64828491
 20
160.5700428682
 30
0.0
 10
65.6515445198
 20
160.7837937634
 30
0.0
 10
65.5969049206
 20
161.235007761
 30
0.0
 10
65.3785159515
 20
161.8992568313
 30
0.0
 10
65.0367016955
 20
162.541354512
 30
0.0
 10
64.5993113341
 20
163.1079094454
 30
0.0
 10
64.1026133108
 20
163.5525229144
 30
0.0
 10
63.6519864103
 20
163.8018614135
 30
0.0
 10
63.2990485881
 20
163.8974888691
 30
0.0
 10
63.0561192598
 20
163.9162882679
 30
0.0
 10
62.8299022928
 20
163.8838045511
 30
0.0
 10
62.6929008699
 20
163.8269993235
 30
0.0
 10
62.6308163841
 20
163.7911275501
 30
0.0
  0
SPLINE
  5
3F8
100
AcDbEntity
  8
0
100
AcDbSpline
 62
7
  6
CONTINUOUS
 70
0
 71
3
 72
11
 73
7
 74
0
 42
0.0000001
 43
0.0000001
 44
0.0000000001
 40
0.0
 40
0.0
 40
0.0
 40
0.0
 40
0.2887296679
 40
0.5477047344
 40
0.7812536648
 40
1.0
 40
1.0
 40
1.0
 40
1.0
 10
20.6949092954
 20
140.7421316783
 30
0.0
 10
20.6985620586
 20
140.9816638546
 30
0.0
 10
20.7416843843
 20
141.4370210135
 30
0.0
 10
20.9351257047
 20
142.0616424233
 30
0.0
 10
21.2524733944
 20
142.5684410307
 30
0.0
 10
21.5468717394
 20
142.8139331728
 30
0.0
 10
21.7040649093
 20
142.9046558267
 30
0.0
  0
SPLINE
  5
3F9
100
AcDbEntity
  8
0
100
AcDbSpline
 62
7
  6
CONTINUOUS
 70
0
 71
3
 72
11
 73
7
 74
0
 42
0.0000001
 43
0.0000001
 44
0.0000000001
 40
0.0
 40
0.0
 40
0.0
 40
0.0
 40
0.2912478449
 40
0.4287178315
 40
0.5592504252
 40
1.0
 40
1.0
 40
1.0
 40
1.0
 10
56.6624178293
 20
158.9846961912
 30
0.0
 10
56.4312013392
 20
159.2652392727
 30
0.0
 10
56.0608403924
 20
159.6550764196
 30
0.0
 10
55.5181452999
 20
160.096818388
 30
0.0
 10
54.786931156
 20
160.5886409927
 30
0.0
 10
54.0753534852
 20
160.8630598978
 30
0.0
 10
53.525208353
 20
160.8591557669
 30
0.0
  0
SPLINE
  5
3FA
100
AcDbEntity
  8
0
100
AcDbSpline
 62
7
  6
CONTINUOUS
 70
0
 71
3
 72
9
 73
5
 74
0
 42
0.0000001
 43
0.0000001
 44
0.0000000001
 40
0.0
 40
0.0
 40
0.0
 40
0.0
 40
0.4753115106
 40
1.0
 40
1.0
 40
1.0
 40
1.0
 10
80.8558657804
 20
110.8333431914
 30
0.0
 10
80.8592866365
 20
111.0576679153
 30
0.0
 10
80.8026335626
 20
111.5310086314
 30
0.0
 10
80.6555159345
 20
111.982294062
 30
0.0
 10
80.5594872216
 20
112.2105757764
 30
0.0
  0
SPLINE
  5
3FB
100
AcDbEntity
  8
0
100
AcDbSpline
 62
7
  6
CONTINUOUS
 70
0
 71
3
 72
9
 73
5
 74
0
 42
0.0000001
 43
0.0000001
 44
0.0000000001
 40
0.0
 40
0.0
 40
0.0
 40
0.0
 40
0.2272581029
 40
1.0
 40
1.0
 40
1.0
 40
1.0
 10
80.6479129248
 20
109.9998768734
 30
0.0
 10
80.6816831306
 20
110.0560212741
 30
0.0
 10
80.8089450023
 20
110.3160358005
 30
0.0
 10
80.8524688746
 20
110.6105890225
 30
0.0
 10
80.8558657804
 20
110.8333431914
 30
0.0
  0
SPLINE
  5
3FC
100
AcDbEntity
  8
0
100
AcDbSpline
 62
7
  6
CONTINUOUS
 70
0
 71
3
 72
9
 73
5
 74
0
 42
0.0000001
 43
0.0000001
 44
0.0000000001
 40
0.0
 40
0.0
 40
0.0
 40
0.0
 40
0.2354650952
 40
1.0
 40
1.0
 40
1.0
 40
1.0
 10
77.49694881
 20
84.2650593743
 30
0.0
 10
77.4839214047
 20
84.2248610684
 30
0.0
 10
77.4362968004
 20
84.0516569336
 30
0.0
 10
77.4175245026
 20
83.8712399644
 30
0.0
 10
77.4154324523
 20
83.7340524917
 30
0.0
  0
SPLINE
  5
3FD
100
AcDbEntity
  8
0
100
AcDbSpline
 62
7
  6
CONTINUOUS
 70
0
 71
3
 72
9
 73
5
 74
0
 42
0.0000001
 43
0.0000001
 44
0.0000000001
 40
0.0
 40
0.0
 40
0.0
 40
0.0
 40
0.2354650952
 40
1.0
 40
1.0
 40
1.0
 40
1.0
 10
52.7518777981
 20
99.0500572074
 30
0.0
 10
52.7388503928
 20
99.0098589015
 30
0.0
 10
52.6912257885
 20
98.8366547667
 30
0.0
 10
52.6724534907
 20
98.6562377975
 30
0.0
 10
52.6703614405
 20
98.5190503248
 30
0.0
  0
SPLINE
  5
3FE
100
AcDbEntity
  8
0
100
AcDbSpline
 62
7
  6
CONTINUOUS
 70
0
 71
3
 72
15
 73
11
 74
0
 42
0.0000001
 43
0.0000001
 44
0.0000000001
 40
0.0
 40
0.0
 40
0.0
 40
0.0
 40
0.1139370422
 40
0.2373898689
 40
0.3676035833
 40
0.5012793299
 40
0.6347756361
 40
0.7644663073
 40
0.8870984074
 40
1.0
 40
1.0
 40
1.0
 40
1.0
 10
96.2374768879
 20
144.0723629472
 30
0.0
 10
96.231868867
 20
143.7046135614
 30
0.0
 10
96.2914327673
 20
142.9365752024
 30
0.0
 10
96.5557236858
 20
141.7763301935
 30
0.0
 10
96.988533203
 20
140.5998226709
 30
0.0
 10
97.5722282763
 20
139.4542891041
 30
0.0
 10
98.2837190157
 20
138.3854510788
 30
0.0
 10
99.0945231992
 20
137.4357731392
 30
0.0
 10
99.9722375214
 20
136.6435881213
 30
0.0
 10
100.6094475998
 20
136.2212362579
 30
0.0
 10
100.9308934313
 20
136.0494918326
 30
0.0
  0
SPLINE
  5
3FF
100
AcDbEntity
  8
0
100
AcDbSpline
 62
7
  6
CONTINUOUS
 70
0
 71
3
 72
11
 73
7
 74
0
 42
0.0000001
 43
0.0000001
 44
0.0000000001
 40
0.0
 40
0.0
 40
0.0
 40
0.0
 40
0.2187498015
 40
0.4523015002
 40
0.7112785128
 40
1.0
 40
1.0
 40
1.0
 40
1.0
 10
45.3481292032
 20
106.2905756922
 30
0.0
 10
45.1869034839
 20
106.1975245335
 30
0.0
 10
44.884953378
 20
105.9457332568
 30
0.0
 10
44.5594683935
 20
105.4259320293
 30
0.0
 10
44.3610703125
 20
104.7852973088
 30
0.0
 10
44.3168436117
 20
104.3182699907
 30
0.0
 10
44.3130972964
 20
104.0726030764
 30
0.0
  0
SPLINE
  5
400
100
AcDbEntity
  8
0
100
AcDbSpline
 62
7
  6
CONTINUOUS
 70
0
 71
3
 72
9
 73
5
 74
0
 42
0.0000001
 43
0.0000001
 44
0.0000000001
 40
0.0
 40
0.0
 40
0.0
 40
0.0
 40
0.2396022972
 40
1.0
 40
1.0
 40
1.0
 40
1.0
 10
96.3478494992
 20
145.0680309555
 30
0.0
 10
96.3306159355
 20
144.9898205367
 30
0.0
 10
96.268037641
 20
144.6613616126
 30
0.0
 10
96.2413522912
 20
144.3264948833
 30
0.0
 10
96.2374768879
 20
144.0723629472
 30
0.0
  0
SPLINE
  5
401
100
AcDbEntity
  8
0
100
AcDbSpline
 62
7
  6
CONTINUOUS
 70
0
 71
3
 72
17
 73
13
 74
0
 42
0.0000001
 43
0.0000001
 44
0.0000000001
 40
0.0
 40
0.0
 40
0.0
 40
0.0
 40
0.0428749345
 40
0.0875453584
 40
0.135461488
 40
0.187557863
 40
0.3051848154
 40
0.4392503862
 40
0.5838598925
 40
0.7309952383
 40
0.8721558162
 40
1.0
 40
1.0
 40
1.0
 40
1.0
 10
46.5551862255
 20
128.0562937172
 30
0.0
 10
46.676277063
 20
128.1261802278
 30
0.0
 10
46.9434022074
 20
128.2369366699
 30
0.0
 10
47.3845026094
 20
128.3002756354
 30
0.0
 10
47.8582062645
 20
128.2637062556
 30
0.0
 10
48.5464102687
 20
128.0771761328
 30
0.0
 10
49.4251366065
 20
127.5910550942
 30
0.0
 10
50.3937032807
 20
126.7240728361
 30
0.0
 10
51.2466272312
 20
125.6192754769
 30
0.0
 10
51.9131727144
 20
124.3671478808
 30
0.0
 10
52.3391120397
 20
123.0718297816
 30
0.0
 10
52.44565701
 20
122.1919306061
 30
0.0
 10
52.4393003935
 20
121.775091601
 30
0.0
  0
SPLINE
  5
402
100
AcDbEntity
  8
0
100
AcDbSpline
 62
7
  6
CONTINUOUS
 70
0
 71
3
 72
11
 73
7
 74
0
 42
0.0000001
 43
0.0000001
 44
0.0000000001
 40
0.0
 40
0.0
 40
0.0
 40
0.0
 40
0.2887296679
 40
0.5477047344
 40
0.7812536648
 40
1.0
 40
1.0
 40
1.0
 40
1.0
 10
52.4393003935
 20
121.775091601
 30
0.0
 10
52.4356476303
 20
121.5355594247
 30
0.0
 10
52.3925253046
 20
121.0802022659
 30
0.0
 10
52.1990839842
 20
120.4555808561
 30
0.0
 10
51.8817362945
 20
119.9487822487
 30
0.0
 10
51.5873379496
 20
119.7032901065
 30
0.0
 10
51.4301447796
 20
119.6125674527
 30
0.0
  0
SPLINE
  5
403
100
AcDbEntity
  8
0
100
AcDbSpline
 62
7
  6
CONTINUOUS
 70
0
 71
3
 72
17
 73
13
 74
0
 42
0.0000001
 43
0.0000001
 44
0.0000000001
 40
0.0
 40
0.0
 40
0.0
 40
0.0
 40
0.0428749345
 40
0.0875453584
 40
0.135461488
 40
0.187557863
 40
0.3051848154
 40
0.4392503862
 40
0.5838598925
 40
0.7309952383
 40
0.8721558162
 40
1.0
 40
1.0
 40
1.0
 40
1.0
 10
21.7040649093
 20
142.9046558267
 30
0.0
 10
21.8251557468
 20
142.9745423373
 30
0.0
 10
22.0922808911
 20
143.0852987794
 30
0.0
 10
22.5333812932
 20
143.1486377449
 30
0.0
 10
23.0070849483
 20
143.1120683651
 30
0.0
 10
23.6952889525
 20
142.9255382423
 30
0.0
 10
24.5740152903
 20
142.4394172038
 30
0.0
 10
25.5425819645
 20
141.5724349456
 30
0.0
 10
26.395505915
 20
140.4676375864
 30
0.0
 10
27.0620513982
 20
139.2155099904
 30
0.0
 10
27.4879907235
 20
137.9201918911
 30
0.0
 10
27.5945356938
 20
137.0402927156
 30
0.0
 10
27.5881790773
 20
136.6234537105
 30
0.0
  0
SPLINE
  5
404
100
AcDbEntity
  8
0
100
AcDbSpline
 62
7
  6
CONTINUOUS
 70
0
 71
3
 72
11
 73
7
 74
0
 42
0.0000001
 43
0.0000001
 44
0.0000000001
 40
0.0
 40
0.0
 40
0.0
 40
0.0
 40
0.2187085718
 40
0.4522439515
 40
0.7113581473
 40
1.0
 40
1.0
 40
1.0
 40
1.0
 10
102.6451186989
 20
69.8701233708
 30
0.0
 10
102.5693737697
 20
69.8263692182
 30
0.0
 10
102.4274216829
 20
69.7081213777
 30
0.0
 10
102.2744627091
 20
69.4637433869
 30
0.0
 10
102.1812568619
 20
69.1626282767
 30
0.0
 10
102.1604127985
 20
68.943109195
 30
0.0
 10
102.1586525247
 20
68.8276781714
 30
0.0
  0
SPLINE
  5
405
100
AcDbEntity
  8
0
100
AcDbSpline
 62
7
  6
CONTINUOUS
 70
0
 71
3
 72
11
 73
7
 74
0
 42
0.0000001
 43
0.0000001
 44
0.0000000001
 40
0.0
 40
0.0
 40
0.0
 40
0.0
 40
0.21875179
 40
0.4522931534
 40
0.7112949746
 40
1.0
 40
1.0
 40
1.0
 40
1.0
 10
111.0952839932
 20
83.5084473059
 30
0.0
 10
111.0066120875
 20
83.4572638774
 30
0.0
 10
110.8405358358
 20
83.3187920032
 30
0.0
 10
110.6615214004
 20
83.0328880936
 30
0.0
 10
110.5524159194
 20
82.6805386206
 30
0.0
 10
110.5280762784
 20
82.4236720672
 30
0.0
 10
110.526015927
 20
82.2885632659
 30
0.0
  0
SPLINE
  5
406
100
AcDbEntity
  8
0
100
AcDbSpline
 62
7
  6
CONTINUOUS
 70
0
 71
3
 72
11
 73
7
 74
0
 42
0.0000001
 43
0.0000001
 44
0.0000000001
 40
0.0
 40
0.0
 40
0.0
 40
0.0
 40
0.2187287107
 40
0.4522745568
 40
0.711391832
 40
1.0
 40
1.0
 40
1.0
 40
1.0
 10
43.6390740636
 20
146.8797532363
 30
0.0
 10
43.7244910954
 20
146.9291063132
 30
0.0
 10
43.8846288609
 20
147.0623867331
 30
0.0
 10
44.0571127111
 20
147.3380002834
 30
0.0
 10
44.1621655112
 20
147.6775545948
 30
0.0
 10
44.1856834263
 20
147.9250805057
 30
0.0
 10
44.1876681794
 20
148.0552318987
 30
0.0
  0
SPLINE
  5
407
100
AcDbEntity
  8
0
100
AcDbSpline
 62
7
  6
CONTINUOUS
 70
0
 71
3
 72
11
 73
7
 74
0
 42
0.0000001
 43
0.0000001
 44
0.0000000001
 40
0.0
 40
0.0
 40
0.0
 40
0.0
 40
0.2187505732
 40
0.4522947104
 40
0.7113278915
 40
1.0
 40
1.0
 40
1.0
 40
1.0
 10
78.2811016349
 20
136.1385297224
 30
0.0
 10
78.4096811424
 20
136.2128095491
 30
0.0
 10
78.6506102556
 20
136.4135542041
 30
0.0
 10
78.910234413
 20
136.8282799621
 30
0.0
 10
79.0684418167
 20
137.3393164855
 30
0.0
 10
79.1037638179
 20
137.7118638584
 30
0.0
 10
79.1067517373
 20
137.9077984999
 30
0.0
  0
SPLINE
  5
408
100
AcDbEntity
  8
0
100
AcDbSpline
 62
7
  6
CONTINUOUS
 70
0
 71
3
 72
11
 73
7
 74
0
 42
0.0000001
 43
0.0000001
 44
0.0000000001
 40
0.0
 40
0.0
 40
0.0
 40
0.0
 40
0.2275107111
 40
0.47829116
 40
0.7404161114
 40
1.0
 40
1.0
 40
1.0
 40
1.0
 10
110.526015927
 20
82.2885632659
 30
0.0
 10
110.5225815802
 20
82.0633538846
 30
0.0
 10
110.5774771176
 20
81.5884334395
 30
0.0
 10
110.7994695483
 20
80.8862860486
 30
0.0
 10
111.1489423557
 20
80.2023803574
 30
0.0
 10
111.4563845733
 20
79.7838019589
 30
0.0
 10
111.6263907136
 20
79.5910826093
 30
0.0
  0
SPLINE
  5
409
100
AcDbEntity
  8
0
100
AcDbSpline
 62
7
  6
CONTINUOUS
 70
0
 71
3
 72
11
 73
7
 74
0
 42
0.0000001
 43
0.0000001
 44
0.0000000001
 40
0.0
 40
0.0
 40
0.0
 40
0.0
 40
0.2187505732
 40
0.4522947104
 40
0.7113278915
 40
1.0
 40
1.0
 40
1.0
 40
1.0
 10
53.4299803187
 20
150.9868918319
 30
0.0
 10
53.5585598262
 20
151.0611716586
 30
0.0
 10
53.7994889394
 20
151.2619163137
 30
0.0
 10
54.0591130967
 20
151.6766420716
 30
0.0
 10
54.2173205005
 20
152.187678595
 30
0.0
 10
54.2526425017
 20
152.560225968
 30
0.0
 10
54.2556304211
 20
152.7561606094
 30
0.0
  0
SPLINE
  5
40A
100
AcDbEntity
  8
0
100
AcDbSpline
 62
7
  6
CONTINUOUS
 70
0
 71
3
 72
10
 73
6
 74
0
 42
0.0000001
 43
0.0000001
 44
0.0000000001
 40
0.0
 40
0.0
 40
0.0
 40
0.0
 40
0.2271910208
 40
0.4741732762
 40
1.0
 40
1.0
 40
1.0
 40
1.0
 10
102.1586525247
 20
68.8276781714
 30
0.0
 10
102.1564714516
 20
68.6846529718
 30
0.0
 10
102.1813729548
 20
68.3853273629
 30
0.0
 10
102.3288390399
 20
67.7717812308
 30
0.0
 10
102.53811919
 20
67.3246682739
 30
0.0
 10
102.7128607916
 20
67.0434743003
 30
0.0
  0
SPLINE
  5
40B
100
AcDbEntity
  8
0
100
AcDbSpline
 62
7
  6
CONTINUOUS
 70
0
 71
3
 72
17
 73
13
 74
0
 42
0.0000001
 43
0.0000001
 44
0.0000000001
 40
0.0
 40
0.0
 40
0.0
 40
0.0
 40
0.0428761208
 40
0.0875447053
 40
0.135464173
 40
0.187556535
 40
0.3051834696
 40
0.439247505
 40
0.5838557113
 40
0.730994794
 40
0.8721578999
 40
1.0
 40
1.0
 40
1.0
 40
1.0
 10
40.3198813194
 20
152.6287984508
 30
0.0
 10
40.4189332113
 20
152.6860150524
 30
0.0
 10
40.6375314326
 20
152.776508377
 30
0.0
 10
40.9983935624
 20
152.8284975814
 30
0.0
 10
41.3859463477
 20
152.7984056605
 30
0.0
 10
41.9490242527
 20
152.6459506189
 30
0.0
 10
42.6679108849
 20
152.2481134617
 30
0.0
 10
43.4603418872
 20
151.5388332533
 30
0.0
 10
44.1581899527
 20
150.6349499138
 30
0.0
 10
44.7035424501
 20
149.6105147022
 30
0.0
 10
45.0520254148
 20
148.5507349697
 30
0.0
 10
45.1391915123
 20
147.8308429685
 30
0.0
 10
45.1339909211
 20
147.4898110244
 30
0.0
  0
SPLINE
  5
40C
100
AcDbEntity
  8
0
100
AcDbSpline
 62
7
  6
CONTINUOUS
 70
0
 71
3
 72
10
 73
6
 74
0
 42
0.0000001
 43
0.0000001
 44
0.0000000001
 40
0.0
 40
0.0
 40
0.0
 40
0.0
 40
0.2272648097
 40
0.4767814723
 40
1.0
 40
1.0
 40
1.0
 40
1.0
 10
77.4154324523
 20
83.7340524917
 30
0.0
 10
77.4125758078
 20
83.5467262837
 30
0.0
 10
77.4539232821
 20
83.1524068193
 30
0.0
 10
77.6854270627
 20
82.3588893739
 30
0.0
 10
78.005783573
 20
81.7929269457
 30
0.0
 10
78.2724664456
 20
81.4539321164
 30
0.0
  0
SPLINE
  5
40D
100
AcDbEntity
  8
0
100
AcDbSpline
 62
7
  6
CONTINUOUS
 70
0
 71
3
 72
11
 73
7
 74
0
 42
0.0000001
 43
0.0000001
 44
0.0000000001
 40
0.0
 40
0.0
 40
0.0
 40
0.0
 40
0.2187507853
 40
0.4522943962
 40
0.7112905861
 40
1.0
 40
1.0
 40
1.0
 40
1.0
 10
57.4169639271
 20
152.4094480953
 30
0.0
 10
57.5701229226
 20
152.4978576767
 30
0.0
 10
57.8569790034
 20
152.7370407542
 30
0.0
 10
58.1661940376
 20
153.230866476
 30
0.0
 10
58.3546471707
 20
153.8394743125
 30
0.0
 10
58.3966826595
 20
154.2831530098
 30
0.0
 10
58.4002415099
 20
154.5165267984
 30
0.0
  0
SPLINE
  5
40E
100
AcDbEntity
  8
0
100
AcDbSpline
 62
7
  6
CONTINUOUS
 70
0
 71
3
 72
10
 73
6
 74
0
 42
0.0000001
 43
0.0000001
 44
0.0000000001
 40
0.0
 40
0.0
 40
0.0
 40
0.0
 40
0.2272648097
 40
0.4767814723
 40
1.0
 40
1.0
 40
1.0
 40
1.0
 10
52.6703614405
 20
98.5190503248
 30
0.0
 10
52.6675047959
 20
98.3317241168
 30
0.0
 10
52.7088522702
 20
97.9374046524
 30
0.0
 10
52.9403560508
 20
97.143887207
 30
0.0
 10
53.2607125612
 20
96.5779247788
 30
0.0
 10
53.5273954338
 20
96.2389299495
 30
0.0
  0
SPLINE
  5
40F
100
AcDbEntity
  8
0
100
AcDbSpline
 62
7
  6
CONTINUOUS
 70
0
 71
3
 72
17
 73
13
 74
0
 42
0.0000001
 43
0.0000001
 44
0.0000000001
 40
0.0
 40
0.0
 40
0.0
 40
0.0
 40
0.0428748045
 40
0.0875450685
 40
0.1354610586
 40
0.1875573538
 40
0.3051844062
 40
0.4392499698
 40
0.5838592021
 40
0.7309944814
 40
0.8721552596
 40
1.0
 40
1.0
 40
1.0
 40
1.0
 10
49.0607724572
 20
158.5546273224
 30
0.0
 10
49.178757961
 20
158.622721808
 30
0.0
 10
49.439032981
 20
158.7306377348
 30
0.0
 10
49.8688215715
 20
158.7923532771
 30
0.0
 10
50.3303778285
 20
158.756722122
 30
0.0
 10
51.0009355451
 20
158.5749762431
 30
0.0
 10
51.8571309234
 20
158.1013203501
 30
0.0
 10
52.8008626352
 20
157.2565694333
 30
0.0
 10
53.6319168564
 20
156.1801016862
 30
0.0
 10
54.2813719713
 20
154.9600807491
 30
0.0
 10
54.6963918973
 20
153.6979743188
 30
0.0
 10
54.8002055935
 20
152.8406342078
 30
0.0
 10
54.7940119401
 20
152.4344816137
 30
0.0
  0
SPLINE
  5
410
100
AcDbEntity
  8
0
100
AcDbSpline
 62
7
  6
CONTINUOUS
 70
0
 71
3
 72
17
 73
13
 74
0
 42
0.0000001
 43
0.0000001
 44
0.0000000001
 40
0.0
 40
0.0
 40
0.0
 40
0.0
 40
0.0428748045
 40
0.0875450685
 40
0.1354610586
 40
0.1875573538
 40
0.3051844062
 40
0.4392499698
 40
0.5838592021
 40
0.7309944814
 40
0.8721552596
 40
1.0
 40
1.0
 40
1.0
 40
1.0
 10
73.9118937735
 20
143.7062652128
 30
0.0
 10
74.0298792772
 20
143.7743596985
 30
0.0
 10
74.2901542972
 20
143.8822756252
 30
0.0
 10
74.7199428877
 20
143.9439911675
 30
0.0
 10
75.1814991448
 20
143.9083600125
 30
0.0
 10
75.8520568613
 20
143.7266141336
 30
0.0
 10
76.7082522396
 20
143.2529582406
 30
0.0
 10
77.6519839514
 20
142.4082073238
 30
0.0
 10
78.4830381726
 20
141.3317395766
 30
0.0
 10
79.1324932875
 20
140.1117186396
 30
0.0
 10
79.5475132135
 20
138.8496122093
 30
0.0
 10
79.6513269097
 20
137.9922720982
 30
0.0
 10
79.6451332564
 20
137.5861195041
 30
0.0
  0
SPLINE
  5
411
100
AcDbEntity
  8
0
100
AcDbSpline
 62
7
  6
CONTINUOUS
 70
0
 71
3
 72
17
 73
13
 74
0
 42
0.0000001
 43
0.0000001
 44
0.0000000001
 40
0.0
 40
0.0
 40
0.0
 40
0.0
 40
0.0428761208
 40
0.0875447053
 40
0.135464173
 40
0.187556535
 40
0.3051834696
 40
0.439247505
 40
0.5838557113
 40
0.730994794
 40
0.8721578999
 40
1.0
 40
1.0
 40
1.0
 40
1.0
 10
65.1710026357
 20
137.7804363413
 30
0.0
 10
65.2700545275
 20
137.8376529429
 30
0.0
 10
65.4886527488
 20
137.9281462675
 30
0.0
 10
65.8495148787
 20
137.9801354719
 30
0.0
 10
66.2370676639
 20
137.950043551
 30
0.0
 10
66.8001455689
 20
137.7975885094
 30
0.0
 10
67.5190322011
 20
137.3997513522
 30
0.0
 10
68.3114632034
 20
136.6904711438
 30
0.0
 10
69.0093112689
 20
135.7865878043
 30
0.0
 10
69.5546637663
 20
134.7621525927
 30
0.0
 10
69.903146731
 20
133.7023728602
 30
0.0
 10
69.9903128286
 20
132.982480859
 30
0.0
 10
69.9851122373
 20
132.6414489149
 30
0.0
  0
SPLINE
  5
412
100
AcDbEntity
  8
0
100
AcDbSpline
 62
7
  6
CONTINUOUS
 70
0
 71
3
 72
9
 73
5
 74
0
 42
0.0000001
 43
0.0000001
 44
0.0000000001
 40
0.0
 40
0.0
 40
0.0
 40
0.0
 40
0.2330142973
 40
1.0
 40
1.0
 40
1.0
 40
1.0
 10
56.0047444642
 20
125.6817053009
 30
0.0
 10
56.006082674
 20
125.7694592234
 30
0.0
 10
55.9914146807
 20
126.1463321607
 30
0.0
 10
55.9044093007
 20
126.5183453906
 30
0.0
 10
55.8105223464
 20
126.7915459193
 30
0.0
  0
SPLINE
  5
413
100
AcDbEntity
  8
0
100
AcDbSpline
 62
7
  6
CONTINUOUS
 70
0
 71
3
 72
9
 73
5
 74
0
 42
0.0000001
 43
0.0000001
 44
0.0000000001
 40
0.0
 40
0.0
 40
0.0
 40
0.0
 40
0.2308400409
 40
1.0
 40
1.0
 40
1.0
 40
1.0
 10
55.8606496454
 20
124.9698083377
 30
0.0
 10
55.883948734
 20
125.0208654035
 30
0.0
 10
55.9704749906
 20
125.2486439214
 30
0.0
 10
56.0018931484
 20
125.4947285265
 30
0.0
 10
56.0047444642
 20
125.6817053009
 30
0.0
  0
SPLINE
  5
414
100
AcDbEntity
  8
0
100
AcDbSpline
 62
7
  6
CONTINUOUS
 70
0
 71
3
 72
11
 73
7
 74
0
 42
0.0000001
 43
0.0000001
 44
0.0000000001
 40
0.0
 40
0.0
 40
0.0
 40
0.0
 40
0.2187287107
 40
0.4522745568
 40
0.711391832
 40
1.0
 40
1.0
 40
1.0
 40
1.0
 10
68.4901953799
 20
132.0313911268
 30
0.0
 10
68.5756124116
 20
132.0807442037
 30
0.0
 10
68.7357501771
 20
132.2140246236
 30
0.0
 10
68.9082340273
 20
132.4896381739
 30
0.0
 10
69.0132868274
 20
132.8291924853
 30
0.0
 10
69.0368047425
 20
133.0767183961
 30
0.0
 10
69.0387894956
 20
133.2068697892
 30
0.0
  0
SPLINE
  5
415
100
AcDbEntity
  8
0
100
AcDbSpline
 62
7
  6
CONTINUOUS
 70
0
 71
3
 72
11
 73
7
 74
0
 42
0.0000001
 43
0.0000001
 44
0.0000000001
 40
0.0
 40
0.0
 40
0.0
 40
0.0
 40
0.2887296679
 40
0.5477047344
 40
0.7812536648
 40
1.0
 40
1.0
 40
1.0
 40
1.0
 10
77.2904217097
 20
106.9267294915
 30
0.0
 10
77.2867689465
 20
106.6871973152
 30
0.0
 10
77.2436466208
 20
106.2318401563
 30
0.0
 10
77.0502053004
 20
105.6072187466
 30
0.0
 10
76.7328576107
 20
105.1004201391
 30
0.0
 10
76.4384592658
 20
104.854927997
 30
0.0
 10
76.2812660958
 20
104.7642053431
 30
0.0
  0
SPLINE
  5
416
100
AcDbEntity
  8
0
100
AcDbSpline
 62
7
  6
CONTINUOUS
 70
0
 71
3
 72
12
 73
8
 74
0
 42
0.0000001
 43
0.0000001
 44
0.0000000001
 40
0.0
 40
0.0
 40
0.0
 40
0.0
 40
0.2956227744
 40
0.5571554672
 40
0.7876875602
 40
0.8951324053
 40
1.0
 40
1.0
 40
1.0
 40
1.0
 10
127.4645334737
 20
95.3334830603
 30
0.0
 10
127.7016433273
 20
95.1648596541
 30
0.0
 10
128.1762471445
 20
94.8824220513
 30
0.0
 10
128.9179849931
 20
94.6339904897
 30
0.0
 10
129.5190251679
 20
94.6092781329
 30
0.0
 10
129.9452883605
 20
94.7106132023
 30
0.0
 10
130.1371002566
 20
94.7974007831
 30
0.0
 10
130.2264920053
 20
94.8489934296
 30
0.0
  0
SPLINE
  5
417
100
AcDbEntity
  8
0
100
AcDbSpline
 62
7
  6
CONTINUOUS
 70
0
 71
3
 72
17
 73
13
 74
0
 42
0.0000001
 43
0.0000001
 44
0.0000000001
 40
0.0
 40
0.0
 40
0.0
 40
0.0
 40
0.0428749345
 40
0.0875453584
 40
0.135461488
 40
0.187557863
 40
0.3051848154
 40
0.4392503862
 40
0.5838598925
 40
0.7309952383
 40
0.8721558162
 40
1.0
 40
1.0
 40
1.0
 40
1.0
 10
71.4063075417
 20
113.2079316077
 30
0.0
 10
71.5273983793
 20
113.2778181183
 30
0.0
 10
71.7945235236
 20
113.3885745604
 30
0.0
 10
72.2356239256
 20
113.4519135259
 30
0.0
 10
72.7093275808
 20
113.4153441461
 30
0.0
 10
73.3975315849
 20
113.2288140233
 30
0.0
 10
74.2762579227
 20
112.7426929847
 30
0.0
 10
75.2448245969
 20
111.8757107266
 30
0.0
 10
76.0977485474
 20
110.7709133674
 30
0.0
 10
76.7642940307
 20
109.5187857713
 30
0.0
 10
77.190233356
 20
108.2234676721
 30
0.0
 10
77.2967783263
 20
107.3435684965
 30
0.0
 10
77.2904217097
 20
106.9267294915
 30
0.0
  0
SPLINE
  5
418
100
AcDbEntity
  8
0
100
AcDbSpline
 62
7
  6
CONTINUOUS
 70
0
 71
3
 72
17
 73
13
 74
0
 42
0.0000001
 43
0.0000001
 44
0.0000000001
 40
0.0
 40
0.0
 40
0.0
 40
0.0
 40
0.1278372013
 40
0.2689974434
 40
0.4161248531
 40
0.5607328885
 40
0.6948034741
 40
0.8124336193
 40
0.8645309817
 40
0.9124484101
 40
0.9571220592
 40
1.0
 40
1.0
 40
1.0
 40
1.0
 10
69.0387894956
 20
133.2068697892
 30
0.0
 10
69.0422446819
 20
133.4334457381
 30
0.0
 10
68.9843267067
 20
133.9117325756
 30
0.0
 10
68.7528343995
 20
134.61583659
 30
0.0
 10
68.3905112881
 20
135.2964601316
 30
0.0
 10
67.9268775051
 20
135.897008361
 30
0.0
 10
67.4003776004
 20
136.3682986381
 30
0.0
 10
66.9227130858
 20
136.6325974472
 30
0.0
 10
66.5485989943
 20
136.7339625501
 30
0.0
 10
66.2910939063
 20
136.7538899128
 30
0.0
 10
66.0513039213
 20
136.719457173
 30
0.0
 10
65.906082413
 20
136.6592436318
 30
0.0
 10
65.8402728581
 20
136.621219552
 30
0.0
  0
SPLINE
  5
419
100
AcDbEntity
  8
0
100
AcDbSpline
 62
7
  6
CONTINUOUS
 70
0
 71
3
 72
9
 73
5
 74
0
 42
0.0000001
 43
0.0000001
 44
0.0000000001
 40
0.0
 40
0.0
 40
0.0
 40
0.0
 40
0.5365109779
 40
1.0
 40
1.0
 40
1.0
 40
1.0
 10
69.9851122373
 20
132.6414489149
 30
0.0
 10
69.9811790097
 20
132.3835251174
 30
0.0
 10
69.9247663133
 20
131.9007158606
 30
0.0
 10
69.7255557195
 20
131.4504309759
 30
0.0
 10
69.5948817904
 20
131.269920078
 30
0.0
  0
SPLINE
  5
41A
100
AcDbEntity
  8
0
100
AcDbSpline
 62
7
  6
CONTINUOUS
 70
0
 71
3
 72
17
 73
13
 74
0
 42
0.0000001
 43
0.0000001
 44
0.0000000001
 40
0.0
 40
0.0
 40
0.0
 40
0.0
 40
0.1278409985
 40
0.268997583
 40
0.4161305399
 40
0.5607384488
 40
0.694806367
 40
0.8124362072
 40
0.8645293948
 40
0.9124503822
 40
0.9571211544
 40
1.0
 40
1.0
 40
1.0
 40
1.0
 10
79.1067517373
 20
137.9077984999
 30
0.0
 10
79.1119522833
 20
138.2488274717
 30
0.0
 10
79.0247905223
 20
138.9686991711
 30
0.0
 10
78.6763247302
 20
140.0284451445
 30
0.0
 10
78.1310031287
 20
141.0528565892
 30
0.0
 10
77.4331741645
 20
141.9567466476
 30
0.0
 10
76.6407436872
 20
142.6660504971
 30
0.0
 10
75.9218492276
 20
143.0639218442
 30
0.0
 10
75.3587578726
 20
143.2163760897
 30
0.0
 10
74.9711942692
 20
143.2464907894
 30
0.0
 10
74.610315434
 20
143.1944960433
 30
0.0
 10
74.3917015064
 20
143.1040042942
 30
0.0
 10
74.2926456032
 20
143.0467801263
 30
0.0
  0
SPLINE
  5
41B
100
AcDbEntity
  8
0
100
AcDbSpline
 62
7
  6
CONTINUOUS
 70
0
 71
3
 72
11
 73
7
 74
0
 42
0.0000001
 43
0.0000001
 44
0.0000000001
 40
0.0
 40
0.0
 40
0.0
 40
0.0
 40
0.2887301509
 40
0.54770578
 40
0.7812541936
 40
1.0
 40
1.0
 40
1.0
 40
1.0
 10
79.6451332564
 20
137.5861195041
 30
0.0
 10
79.6415741479
 20
137.3527287976
 30
0.0
 10
79.5995565588
 20
136.9090467731
 30
0.0
 10
79.4110758646
 20
136.3004406546
 30
0.0
 10
79.1018645026
 20
135.8066377892
 30
0.0
 10
78.8150155565
 20
135.5674410366
 30
0.0
 10
78.6618534646
 20
135.4790446359
 30
0.0
  0
SPLINE
  5
41C
100
AcDbEntity
  8
0
100
AcDbSpline
 62
7
  6
CONTINUOUS
 70
0
 71
3
 72
11
 73
7
 74
0
 42
0.0000001
 43
0.0000001
 44
0.0000000001
 40
0.0
 40
0.0
 40
0.0
 40
0.0
 40
0.2271250919
 40
0.4768902337
 40
0.738681602
 40
1.0
 40
1.0
 40
1.0
 40
1.0
 10
58.4002415099
 20
154.5165267984
 30
0.0
 10
58.4058747674
 20
154.8859310906
 30
0.0
 10
58.3209315671
 20
155.663904857
 30
0.0
 10
57.9723662108
 20
156.819205323
 30
0.0
 10
57.4201738117
 20
157.954115576
 30
0.0
 10
56.9327620412
 20
158.6566780716
 30
0.0
 10
56.6624178293
 20
158.9846961912
 30
0.0
  0
SPLINE
  5
41D
100
AcDbEntity
  8
0
100
AcDbSpline
 62
7
  6
CONTINUOUS
 70
0
 71
3
 72
11
 73
7
 74
0
 42
0.0000001
 43
0.0000001
 44
0.0000000001
 40
0.0
 40
0.0
 40
0.0
 40
0.0
 40
0.2887295912
 40
0.5477057241
 40
0.7812527448
 40
1.0
 40
1.0
 40
1.0
 40
1.0
 10
54.7940119401
 20
152.4344816137
 30
0.0
 10
54.7904528388
 20
152.201091372
 30
0.0
 10
54.7484356807
 20
151.7574091675
 30
0.0
 10
54.5599531093
 20
151.1488052794
 30
0.0
 10
54.2507464046
 20
150.654999318
 30
0.0
 10
53.9638957037
 20
150.4158030001
 30
0.0
 10
53.8107312837
 20
150.3274083089
 30
0.0
  0
SPLINE
  5
41E
100
AcDbEntity
  8
0
100
AcDbSpline
 62
7
  6
CONTINUOUS
 70
0
 71
3
 72
17
 73
13
 74
0
 42
0.0000001
 43
0.0000001
 44
0.0000000001
 40
0.0
 40
0.0
 40
0.0
 40
0.0
 40
0.1278409985
 40
0.268997583
 40
0.4161305399
 40
0.5607384488
 40
0.694806367
 40
0.8124362072
 40
0.8645293948
 40
0.9124503822
 40
0.9571211544
 40
1.0
 40
1.0
 40
1.0
 40
1.0
 10
54.2556304211
 20
152.7561606094
 30
0.0
 10
54.2608309671
 20
153.0971895812
 30
0.0
 10
54.1736692061
 20
153.8170612807
 30
0.0
 10
53.825203414
 20
154.876807254
 30
0.0
 10
53.2798818124
 20
155.9012186987
 30
0.0
 10
52.5820528483
 20
156.8051087571
 30
0.0
 10
51.789622371
 20
157.5144126066
 30
0.0
 10
51.0707279114
 20
157.9122839537
 30
0.0
 10
50.5076365564
 20
158.0647381992
 30
0.0
 10
50.120072953
 20
158.0948528989
 30
0.0
 10
49.7591941178
 20
158.0428581528
 30
0.0
 10
49.5405801901
 20
157.9523664037
 30
0.0
 10
49.441524287
 20
157.8951422358
 30
0.0
  0
SPLINE
  5
41F
100
AcDbEntity
  8
0
100
AcDbSpline
 62
7
  6
CONTINUOUS
 70
0
 71
3
 72
11
 73
7
 74
0
 42
0.0000001
 43
0.0000001
 44
0.0000000001
 40
0.0
 40
0.0
 40
0.0
 40
0.0
 40
0.2886816256
 40
0.5477120969
 40
0.7812521076
 40
1.0
 40
1.0
 40
1.0
 40
1.0
 10
45.1339909211
 20
147.4898110244
 30
0.0
 10
45.1310029004
 20
147.2938697473
 30
0.0
 10
45.0956799951
 20
146.9213179126
 30
0.0
 10
44.9374714431
 20
146.4102772134
 30
0.0
 10
44.677839944
 20
145.9955671866
 30
0.0
 10
44.4369252845
 20
145.7948103214
 30
0.0
 10
44.3083442861
 20
145.7205364471
 30
0.0
  0
SPLINE
  5
420
100
AcDbEntity
  8
0
100
AcDbSpline
 62
7
  6
CONTINUOUS
 70
0
 71
3
 72
17
 73
13
 74
0
 42
0.0000001
 43
0.0000001
 44
0.0000000001
 40
0.0
 40
0.0
 40
0.0
 40
0.0
 40
0.1278372013
 40
0.2689974434
 40
0.4161248531
 40
0.5607328885
 40
0.6948034741
 40
0.8124336193
 40
0.8645309817
 40
0.9124484101
 40
0.9571220592
 40
1.0
 40
1.0
 40
1.0
 40
1.0
 10
44.1876681794
 20
148.0552318987
 30
0.0
 10
44.1911233657
 20
148.2818078476
 30
0.0
 10
44.1332053905
 20
148.7600946851
 30
0.0
 10
43.9017130833
 20
149.4641986995
 30
0.0
 10
43.5393899719
 20
150.1448222411
 30
0.0
 10
43.0757561888
 20
150.7453704705
 30
0.0
 10
42.5492562842
 20
151.2166607477
 30
0.0
 10
42.0715917696
 20
151.4809595567
 30
0.0
 10
41.6974776781
 20
151.5823246596
 30
0.0
 10
41.4399725901
 20
151.6022520223
 30
0.0
 10
41.2001826051
 20
151.5678192826
 30
0.0
 10
41.0549610968
 20
151.5076057413
 30
0.0
 10
40.9891515418
 20
151.4695816616
 30
0.0
  0
SPLINE
  5
421
100
AcDbEntity
  8
0
100
AcDbSpline
 62
7
  6
CONTINUOUS
 70
0
 71
3
 72
11
 73
7
 74
0
 42
0.0000001
 43
0.0000001
 44
0.0000000001
 40
0.0
 40
0.0
 40
0.0
 40
0.0
 40
0.2887296679
 40
0.5477047344
 40
0.7812536648
 40
1.0
 40
1.0
 40
1.0
 40
1.0
 10
27.5881790773
 20
136.6234537105
 30
0.0
 10
27.5845263141
 20
136.3839215342
 30
0.0
 10
27.5414039884
 20
135.9285643754
 30
0.0
 10
27.347962668
 20
135.3039429656
 30
0.0
 10
27.0306149783
 20
134.7971443582
 30
0.0
 10
26.7362166334
 20
134.551652216
 30
0.0
 10
26.5790234634
 20
134.4609295622
 30
0.0
  0
ENDSEC
  0
SECTION
  2
OBJECTS
  0
DICTIONARY
  5
C
100
AcDbDictionary
280
0
281
1
  3
ACAD_GROUP
350
D
  3
ACAD_MLINESTYLE
350
17
  3
ACAD_LAYOUT
350
1A
  3
ACAD_PLOTSETTINGS
350
19
  3
ACAD_PLOTSTYLENAME
350
E
  0
DICTIONARY
  5
D
102
{ACAD_REACTORS
330
C
102
}
100
AcDbDictionary
280
0
281
1
  0
ACDBDICTIONARYWDFLT
  5
E
102
{ACAD_REACTORS
330
C
102
}
100
AcDbDictionary
281
1
  3
Normal
350
F
100
AcDbDictionaryWithDefault
340
F
  0
DICTIONARY
  5
17
102
{ACAD_REACTORS
330
C
102
}
100
AcDbDictionary
280
0
281
1
  3
Standard
350
18
  0
DICTIONARY
  5
19
102
{ACAD_REACTORS
330
C
102
}
100
AcDbDictionary
281
1
  0
DICTIONARY
  5
1A
102
{ACAD_REACTORS
330
C
102
}
100
AcDbDictionary
281
1
  3
Model
350
422
  3
Layout1
350
423
  0
ACDBPLACEHOLDER
  5
F
102
{ACAD_REACTORS
330
E
102
}
  0
MLINESTYLE
  5
18
102
{ACAD_REACTORS
330
17
102
}
100
AcDbMlineStyle
  2
STANDARD
 70
0
  3

 62
256
 51
90.0
 52
90.0
 71
2
 49
0.5
 62
256
  6
BYLAYER
 49
-0.5
 62
256
  6
BYLAYER
  0
LAYOUT
  5
422
102
{ACAD_REACTORS
330
1A
102
}
100
AcDbPlotSettings
  1

  2
none_device
  4

  6

 40
0.0
 41
0.0
 42
0.0
 43
0.0
 44
210.0
 45
297.0
 46
0.0
 47
0.0
 48
0.0
 49
0.0
140
0.0
141
0.0
142
1.0
143
1.0
 70
1024
 72
1
 73
0
 74
0
  7

 75
0
147
1.0
148
0.0
149
0.0
100
AcDbLayout
  1
Model
 70
0
 71
0
 10
0.0
 20
0.0
 11
210.0
 21
297.0
 12
0.0
 22
0.0
 32
0.0
 14
0.0
 24
0.0
 34
0.0
 15
0.0
 25
0.0
 35
0.0
146
0.0
 13
0.0
 23
0.0
 33
0.0
 16
1.0
 26
0.0
 36
0.0
 17
0.0
 27
1.0
 37
0.0
 76
0
330
210
345
0
346
0
  0
LAYOUT
  5
423
102
{ACAD_REACTORS
330
1A
102
}
100
AcDbPlotSettings
  1

  2
none_device
  4

  6

 40
0.0
 41
0.0
 42
0.0
 43
0.0
 44
210.0
 45
297.0
 46
0.0
 47
0.0
 48
0.0
 49
0.0
140
0.0
141
0.0
142
1.0
143
1.0
 70
0
 72
1
 73
0
 74
0
  7

 75
0
147
1.0
148
0.0
149
0.0
100
AcDbLayout
  1
Layout1
 70
0
 71
1
 10
0.0
 20
0.0
 11
210.0
 21
297.0
 12
0.0
 22
0.0
 32
0.0
 14
0.0
 24
0.0
 34
0.0
 15
0.0
 25
0.0
 35
0.0
146
0.0
 13
0.0
 23
0.0
 33
0.0
 16
1.0
 26
0.0
 36
0.0
 17
0.0
 27
1.0
 37
0.0
 76
0
330
211
345
0
346
0
  0
ENDSEC
  0
EOF
