999
DXF file: C:\Users\sesa63760\Dev\_Creo\CAD\MCADPD0005171_3D-CAD\drw0001_6.dxf
999
Pro/ENGINEER 2019471 by Parametric Technology Corporation
  0
SECTION
  2
HEADER
  9
$ACADVER
  1
AC1024
  9
$DWGCODEPAGE
  3
ANSI_1252
  9
$EXTMAX
 10
96.1382890489
 20
135.9670087977
 30
0.0
  9
$EXTMIN
 10
0.0
 20
0.0
 30
0.0
  9
$LIMMIN
 10
0.0
 20
0.0
  9
$LIMMAX
 10
96.1382890489
 20
135.9670087977
  9
$VIEWCTR
 10
48.0691445244
 20
67.9835043989
  9
$VIEWSIZE
 40
135.9670087977
  9
$CLAYER
  8
0
  9
$LTSCALE
 40
8.8630346476
  9
$CELTYPE
  6
BYLAYER
  9
$DIMSCALE
 40
1.0
  9
$DIMASZ
 40
1.1445034411
  9
$DIMEXO
 40
1.0
  9
$DIMDLI
 40
6.123551211
  9
$DIMEXE
 40
1.0
  9
$DIMCEN
 40
1.4503147605
  9
$DIMLFAC
 40
1.0
  9
$DIMBLK
  1
_FILLED
  9
$DIMALT
 70
0
  9
$DIMALTF
 40
0.0393700787
  9
$DIMTXT
 40
1.6023048175
  9
$DIMTOL
 70
1
  9
$DIMLIM
 70
0
  9
$DIMTFAC
 40
1.0
  9
$DIMTP
 40
0.01
  9
$DIMTM
 40
0.01
  9
$DIMGAP
 40
0.625
  9
$DIMDSEP
 70
46
  9
$AUNITS
 70
0
  9
$PDMODE
 70
3
  9
$PDSIZE
 40
0.3125
  9
$HANDSEED
  5
3E5
  9
$TILEMODE
 70
1
  9
$MEASUREMENT
 70
1
  9
$INSUNITS
 70
4
  0
ENDSEC
  0
SECTION
  2
CLASSES
  0
CLASS
  1
ACDBDICTIONARYWDFLT
  2
AcDbDictionaryWithDefault
  3
AutoCAD 2000
 90
0
 91
1
280
0
281
0
  0
CLASS
  1
ACDBPLACEHOLDER
  2
AcDbPlaceHolder
  3
AutoCAD 2000
 90
0
 91
1
280
0
281
0
  0
CLASS
  1
LAYOUT
  2
AcDbLayout
  3
AutoCAD 2000
 90
0
 91
0
280
0
281
0
  0
ENDSEC
  0
SECTION
  2
TABLES
  0
TABLE
  2
VPORT
  5
8
100
AcDbSymbolTable
 70
2
  0
VPORT
  5
1F4
100
AcDbSymbolTableRecord
100
AcDbViewportTableRecord
  2
*ACTIVE
 70
0
 10
0.0
 20
0.0
 11
1.0
 21
1.0
 12
48.0691445244
 22
67.9835043989
 13
0.0
 23
0.0
 14
1.0
 24
1.0
 15
0.0
 25
0.0
 16
0.0
 26
0.0
 36
1.0
 17
0.0
 27
0.0
 37
0.0
 40
135.9670087977
 41
0.7070707071
 42
50.0
 43
0.0
 44
0.0
 50
0.0
 51
0.0
 71
0
 72
100
 73
1
 74
1
 75
0
 76
0
 77
0
 78
0
  0
ENDTAB
  0
TABLE
  2
LTYPE
  5
5
100
AcDbSymbolTable
 70
6
  0
LTYPE
  5
14
100
AcDbSymbolTableRecord
100
AcDbLinetypeTableRecord
  2
BYBLOCK
 70
0
  3

 72
65
 73
0
 40
0.0
  0
LTYPE
  5
15
100
AcDbSymbolTableRecord
100
AcDbLinetypeTableRecord
  2
BYLAYER
 70
0
  3

 72
65
 73
0
 40
0.0
  0
LTYPE
  5
16
100
AcDbSymbolTableRecord
100
AcDbLinetypeTableRecord
  2
CONTINUOUS
 70
64
  3
Solid line
 72
65
 73
0
 40
0.0
  0
LTYPE
  5
1F5
100
AcDbSymbolTableRecord
100
AcDbLinetypeTableRecord
  2
CENTER
 70
64
  3
____ _ ____ _ ____ _ ____ _ ____ _ ____ _ ____
 72
65
 73
4
 40
0.6
 49
0.375
 74
0
 49
-0.075
 74
0
 49
0.075
 74
0
 49
-0.075
 74
0
  0
LTYPE
  5
1F6
100
AcDbSymbolTableRecord
100
AcDbLinetypeTableRecord
  2
HIDDEN
 70
64
  3
- - - - - - - - - - - - - - - - - - - -
 72
65
 73
2
 40
0.2
 49
0.1
 74
0
 49
-0.1
 74
0
  0
LTYPE
  5
1F7
100
AcDbSymbolTableRecord
100
AcDbLinetypeTableRecord
  2
PHANTOM
 70
64
  3
_____ _ _ _____ _ _ _____ _ _ _____
 72
65
 73
6
 40
0.8
 49
0.45
 74
0
 49
-0.05
 74
0
 49
0.1
 74
0
 49
-0.05
 74
0
 49
0.1
 74
0
 49
-0.05
 74
0
  0
LTYPE
  5
1F8
100
AcDbSymbolTableRecord
100
AcDbLinetypeTableRecord
  2
DOT
 70
64
  3
. . . . . . . . . . . . . . . . . . . .
 72
65
 73
2
 40
0.2
 49
0.1
 74
0
 49
-0.1
 74
0
  0
LTYPE
  5
1F9
100
AcDbSymbolTableRecord
100
AcDbLinetypeTableRecord
  2
DASHED
 70
64
  3
- - - - - - - - - - - - - - - - - - - -
 72
65
 73
2
 40
0.2
 49
0.1
 74
0
 49
-0.1
 74
0
  0
ENDTAB
  0
TABLE
  2
LAYER
  5
2
100
AcDbSymbolTable
 70
36
  0
LAYER
  5
10
100
AcDbSymbolTableRecord
100
AcDbLayerTableRecord
  2
0
 70
0
 62
7
  6
CONTINUOUS
370
-3
390
F
  0
LAYER
  5
1FA
100
AcDbSymbolTableRecord
100
AcDbLayerTableRecord
  2
DEFAULT_1
 70
0
 62
7
  6
CENTER
370
-3
390
F
  0
LAYER
  5
1FB
100
AcDbSymbolTableRecord
100
AcDbLayerTableRecord
  2
DEFAULT_2
 70
0
 62
7
  6
HIDDEN
370
-3
390
F
  0
LAYER
  5
1FC
100
AcDbSymbolTableRecord
100
AcDbLayerTableRecord
  2
DEFAULT_3
 70
0
 62
7
  6
PHANTOM
370
-3
390
F
  0
LAYER
  5
1FD
100
AcDbSymbolTableRecord
100
AcDbLayerTableRecord
  2
00_COMPONENTS
 70
0
 62
7
  6
CONTINUOUS
370
-3
390
F
  0
LAYER
  5
1FE
100
AcDbSymbolTableRecord
100
AcDbLayerTableRecord
  2
01_1_DEFAULT_DATUMS
 70
0
 62
7
  6
CONTINUOUS
370
-3
390
F
  0
LAYER
  5
1FF
100
AcDbSymbolTableRecord
100
AcDbLayerTableRecord
  2
01_PLANES
 70
0
 62
7
  6
CONTINUOUS
370
-3
390
F
  0
LAYER
  5
200
100
AcDbSymbolTableRecord
100
AcDbLayerTableRecord
  2
02_COORD_SYS
 70
0
 62
7
  6
CONTINUOUS
370
-3
390
F
  0
LAYER
  5
201
100
AcDbSymbolTableRecord
100
AcDbLayerTableRecord
  2
03_AXES
 70
0
 62
7
  6
CONTINUOUS
370
-3
390
F
  0
LAYER
  5
202
100
AcDbSymbolTableRecord
100
AcDbLayerTableRecord
  2
04_POINTS
 70
0
 62
7
  6
CONTINUOUS
370
-3
390
F
  0
LAYER
  5
203
100
AcDbSymbolTableRecord
100
AcDbLayerTableRecord
  2
05_CURVES
 70
0
 62
7
  6
CONTINUOUS
370
-3
390
F
  0
LAYER
  5
204
100
AcDbSymbolTableRecord
100
AcDbLayerTableRecord
  2
06_SURFS
 70
0
 62
7
  6
CONTINUOUS
370
-3
390
F
  0
LAYER
  5
205
100
AcDbSymbolTableRecord
100
AcDbLayerTableRecord
  2
07_COSMETICS
 70
0
 62
7
  6
CONTINUOUS
370
-3
390
F
  0
LAYER
  5
206
100
AcDbSymbolTableRecord
100
AcDbLayerTableRecord
  2
10_NOTES
 70
0
 62
7
  6
CONTINUOUS
370
-3
390
F
  0
LAYER
  5
207
100
AcDbSymbolTableRecord
100
AcDbLayerTableRecord
  2
11_NOTES_PUB
 70
0
 62
7
  6
CONTINUOUS
370
-3
390
F
  0
LAYER
  5
208
100
AcDbSymbolTableRecord
100
AcDbLayerTableRecord
  2
13_REF_GTOL
 70
0
 62
7
  6
CONTINUOUS
370
-3
390
F
  0
LAYER
  5
209
100
AcDbSymbolTableRecord
100
AcDbLayerTableRecord
  2
16_MISC
 70
0
 62
7
  6
CONTINUOUS
370
-3
390
F
  0
LAYER
  5
20A
100
AcDbSymbolTableRecord
100
AcDbLayerTableRecord
  2
17_NO_PRINT
 70
0
 62
7
  6
CONTINUOUS
370
-3
390
F
  0
LAYER
  5
20B
100
AcDbSymbolTableRecord
100
AcDbLayerTableRecord
  2
18_DATUM_CAMS_JOINTS
 70
0
 62
7
  6
CONTINUOUS
370
-3
390
F
  0
LAYER
  5
20C
100
AcDbSymbolTableRecord
100
AcDbLayerTableRecord
  2
19_DATUM_FUNCTIONAL
 70
0
 62
7
  6
CONTINUOUS
370
-3
390
F
  0
LAYER
  5
20D
100
AcDbSymbolTableRecord
100
AcDbLayerTableRecord
  2
20_DATUM_KINEMATIC_SCHEME
 70
0
 62
7
  6
CONTINUOUS
370
-3
390
F
  0
ENDTAB
  0
TABLE
  2
STYLE
  5
3
100
AcDbSymbolTable
 70
1
  0
STYLE
  5
11
100
AcDbSymbolTableRecord
100
AcDbTextStyleTableRecord
  2
STANDARD
 70
0
 40
0.0
 41
1.0
 50
0.0
 71
0
 42
0.2
  3
ARIAL.TTF
  4

  0
STYLE
  5
20E
100
AcDbSymbolTableRecord
100
AcDbTextStyleTableRecord
  2
TEXTSTYLE_1
 70
0
 40
0.0
 41
0.8
 50
0.0
 71
0
 42
0.2
  3
gdt
  4

  0
ENDTAB
  0
TABLE
  2
VIEW
  5
6
100
AcDbSymbolTable
 70
0
  0
ENDTAB
  0
TABLE
  2
UCS
  5
7
100
AcDbSymbolTable
 70
0
  0
ENDTAB
  0
TABLE
  2
APPID
  5
9
100
AcDbSymbolTable
 70
1
  0
APPID
  5
20F
100
AcDbSymbolTableRecord
100
AcDbRegAppTableRecord
  2
ACAD
 70
0
  0
ENDTAB
  0
TABLE
  2
BLOCK_RECORD
  5
1
100
AcDbSymbolTable
 70
0
  0
BLOCK_RECORD
  5
210
100
AcDbSymbolTableRecord
100
AcDbBlockTableRecord
  2
*Model_Space
  0
BLOCK_RECORD
  5
211
100
AcDbSymbolTableRecord
100
AcDbBlockTableRecord
  2
*Paper_Space
  0
BLOCK_RECORD
  5
212
100
AcDbSymbolTableRecord
100
AcDbBlockTableRecord
  2
_FILLED
  0
ENDTAB
  0
TABLE
  2
DIMSTYLE
  5
A
100
AcDbSymbolTable
 70
1
100
AcDbDimStyleTable
 71
0
  0
DIMSTYLE
105
213
100
AcDbSymbolTableRecord
100
AcDbDimStyleTableRecord
  2
STANDARD
 70
0
  3

  4

 40
1.0
 41
1.1445034411
 42
1.0
 43
0.38
 44
1.0
 45
0.0
 46
0.0
 47
0.01
 48
0.01
140
1.6023048175
141
0.09
142
0.0
143
25.4
144
1.0
145
0.0
146
1.0
147
0.625
 71
1
 72
0
 73
0
 74
0
 75
0
 76
0
 77
1
 78
8
 79
2
170
0
171
1
172
0
173
0
174
0
175
0
176
0
177
0
178
0
270
2
179
2
271
2
272
2
273
2
274
2
275
0
280
0
281
0
282
0
283
1
284
8
285
0
286
0
287
3
288
0
340
11
278
46
341
212
342
212
343
212
344
212
  0
ENDTAB
  0
ENDSEC
  0
SECTION
  2
BLOCKS
  0
BLOCK
  5
20
100
AcDbEntity
  8
0
100
AcDbBlockBegin
  2
*Model_Space
 70
0
 10
0.0
 20
0.0
 30
0.0
  3
*Model_Space
  1

  0
ENDBLK
  5
21
100
AcDbEntity
  8
0
100
AcDbBlockEnd
  0
BLOCK
  5
1C
100
AcDbEntity
  8
0
100
AcDbBlockBegin
  2
*Paper_Space
 70
0
 10
0.0
 20
0.0
 30
0.0
  3
*Paper_Space
  1

  0
ENDBLK
  5
1D
100
AcDbEntity
  8
0
100
AcDbBlockEnd
  0
BLOCK
  5
214
100
AcDbEntity
  8
0
100
AcDbBlockBegin
  2
_FILLED
 70
64
 10
0.0
 20
0.0
  3
_FILLED
  1

  0
SOLID
  5
215
100
AcDbEntity
  8
0
  6
BYBLOCK
 62
0
100
AcDbTrace
 10
0.0
 20
0.0
 11
-1.0
 21
0.25
 12
-1.0
 22
-0.25
 13
-1.0
 23
-0.25
  0
ENDBLK
  5
216
100
AcDbEntity
  8
0
  6
BYBLOCK
 62
0
100
AcDbBlockEnd
  0
ENDSEC
  0
SECTION
  2
ENTITIES
  0
LINE
  5
217
100
AcDbEntity
  8
0
100
AcDbLine
 62
7
  6
BYLAYER
 10
41.4512559617
 20
11.2335043989
 11
56.3512559617
 21
11.2335043989
  0
LINE
  5
218
100
AcDbEntity
  8
0
100
AcDbLine
 62
7
  6
BYLAYER
 10
57.6512559617
 20
12.5335043988
 11
56.8512559617
 21
12.5335043988
  0
LINE
  5
219
100
AcDbEntity
  8
0
100
AcDbLine
 62
7
  6
BYLAYER
 10
40.9512559617
 20
12.5335043988
 11
40.1512559617
 21
12.5335043988
  0
LINE
  5
21A
100
AcDbEntity
  8
0
100
AcDbLine
 62
7
  6
BYLAYER
 10
60.2012559614
 20
13.5137601202
 11
58.3012559614
 21
13.5137601202
  0
LINE
  5
21B
100
AcDbEntity
  8
0
100
AcDbLine
 62
7
  6
BYLAYER
 10
39.501255962
 20
13.5137601202
 11
37.6012559614
 21
13.5137601202
  0
LINE
  5
21C
100
AcDbEntity
  8
0
100
AcDbLine
 62
7
  6
BYLAYER
 10
58.3012559614
 20
13.6526832832
 11
39.501255962
 21
13.6526832832
  0
LINE
  5
21D
100
AcDbEntity
  8
0
100
AcDbLine
 62
7
  6
BYLAYER
 10
37.6012559614
 20
22.0412200011
 11
60.2012559614
 21
22.0412200011
  0
LINE
  5
21E
100
AcDbEntity
  8
0
100
AcDbLine
 62
7
  6
BYLAYER
 10
60.2012559614
 20
25.033504399
 11
56.4484792119
 21
25.033504399
  0
LINE
  5
21F
100
AcDbEntity
  8
0
100
AcDbLine
 62
7
  6
BYLAYER
 10
41.3540327115
 20
25.033504399
 11
37.6012559614
 21
25.033504399
  0
LINE
  5
220
100
AcDbEntity
  8
0
100
AcDbLine
 62
7
  6
BYLAYER
 10
41.3540327115
 20
25.033504399
 11
37.6012559614
 21
29.2546537552
  0
LINE
  5
221
100
AcDbEntity
  8
0
100
AcDbLine
 62
7
  6
BYLAYER
 10
37.6012559614
 20
46.6335043987
 11
41.3540327115
 21
46.6335043987
  0
LINE
  5
222
100
AcDbEntity
  8
0
100
AcDbLine
 62
7
  6
BYLAYER
 10
56.4484792119
 20
46.6335043987
 11
60.2012559614
 21
46.6335043987
  0
LINE
  5
223
100
AcDbEntity
  8
0
100
AcDbLine
 62
7
  6
BYLAYER
 10
58.9512559615
 20
49.3908936479
 11
38.8512559617
 21
49.3908936479
  0
LINE
  5
224
100
AcDbEntity
  8
0
100
AcDbLine
 62
7
  6
BYLAYER
 10
38.8512559617
 20
50.1148473565
 11
58.9512559615
 21
50.1148473565
  0
LINE
  5
225
100
AcDbEntity
  8
0
100
AcDbLine
 62
7
  6
BYLAYER
 10
37.6012559614
 20
13.5137601202
 11
37.6012559614
 21
124.7335043989
  0
LINE
  5
226
100
AcDbEntity
  8
0
100
AcDbLine
 62
7
  6
BYLAYER
 10
59.4512559617
 20
53.4865136893
 11
58.9512559615
 21
53.4865136893
  0
LINE
  5
227
100
AcDbEntity
  8
0
100
AcDbLine
 62
7
  6
BYLAYER
 10
38.8512559617
 20
53.4865136893
 11
38.3512559617
 21
53.4865136893
  0
LINE
  5
228
100
AcDbEntity
  8
0
100
AcDbLine
 62
7
  6
BYLAYER
 10
38.3512559617
 20
53.4865136893
 11
38.3512559617
 21
70.9648911011
  0
LINE
  5
229
100
AcDbEntity
  8
0
100
AcDbLine
 62
7
  6
BYLAYER
 10
38.3512559617
 20
75.0865136893
 11
38.3512559617
 21
92.5648911011
  0
LINE
  5
22A
100
AcDbEntity
  8
0
100
AcDbLine
 62
7
  6
BYLAYER
 10
38.3512559617
 20
96.6835043989
 11
38.3512559617
 21
114.2950540345
  0
LINE
  5
22B
100
AcDbEntity
  8
0
100
AcDbLine
 62
7
  6
BYLAYER
 10
38.8512559617
 20
117.0649275874
 11
38.8512559617
 21
114.2950540345
  0
LINE
  5
22C
100
AcDbEntity
  8
0
100
AcDbLine
 62
7
  6
BYLAYER
 10
38.8512559617
 20
111.1394823701
 11
38.8512559617
 21
92.5648911011
  0
LINE
  5
22D
100
AcDbEntity
  8
0
100
AcDbLine
 62
7
  6
BYLAYER
 10
38.8512559617
 20
89.5390209697
 11
38.8512559617
 21
70.9648911011
  0
LINE
  5
22E
100
AcDbEntity
  8
0
100
AcDbLine
 62
7
  6
BYLAYER
 10
38.8512559617
 20
67.9050065739
 11
38.8512559617
 21
49.3908936479
  0
LINE
  5
22F
100
AcDbEntity
  8
0
100
AcDbLine
 62
7
  6
BYLAYER
 10
39.2012559617
 20
123.0287241981
 11
39.2012559617
 21
121.0287367368
  0
LINE
  5
230
100
AcDbEntity
  8
0
100
AcDbLine
 62
7
  6
BYLAYER
 10
39.4512559619
 20
59.2349263529
 11
39.4512559619
 21
65.8640846773
  0
LINE
  5
231
100
AcDbEntity
  8
0
100
AcDbLine
 62
7
  6
BYLAYER
 10
39.4512559619
 20
80.8689407487
 11
39.4512559619
 21
87.4980990731
  0
LINE
  5
232
100
AcDbEntity
  8
0
100
AcDbLine
 62
7
  6
BYLAYER
 10
39.4512559619
 20
102.4694021491
 11
39.4512559619
 21
109.0985604735
  0
LINE
  5
233
100
AcDbEntity
  8
0
100
AcDbLine
 62
7
  6
BYLAYER
 10
39.501255962
 20
13.5137601202
 11
39.501255962
 21
13.6526832832
  0
LINE
  5
234
100
AcDbEntity
  8
0
100
AcDbLine
 62
7
  6
BYLAYER
 10
40.1512559617
 20
13.6526832832
 11
40.1512559617
 21
12.5335043988
  0
LINE
  5
235
100
AcDbEntity
  8
0
100
AcDbLine
 62
7
  6
BYLAYER
 10
40.4847408217
 20
64.7913480212
 11
40.4847408217
 21
65.2107446678
  0
LINE
  5
236
100
AcDbEntity
  8
0
100
AcDbLine
 62
7
  6
BYLAYER
 10
40.4847408217
 20
86.425362417
 11
40.4847408217
 21
86.8447590636
  0
LINE
  5
237
100
AcDbEntity
  8
0
100
AcDbLine
 62
7
  6
BYLAYER
 10
40.4847408217
 20
108.0258238174
 11
40.4847408217
 21
108.445220464
  0
LINE
  5
238
100
AcDbEntity
  8
0
100
AcDbLine
 62
7
  6
BYLAYER
 10
40.9512559617
 20
12.5335043988
 11
40.9512559617
 21
13.6526832832
  0
LINE
  5
239
100
AcDbEntity
  8
0
100
AcDbLine
 62
7
  6
BYLAYER
 10
41.0012559613
 20
63.6931676083
 11
41.0012559613
 21
64.4939679902
  0
LINE
  5
23A
100
AcDbEntity
  8
0
100
AcDbLine
 62
7
  6
BYLAYER
 10
41.0012559613
 20
85.3271820041
 11
41.0012559613
 21
86.127982386
  0
LINE
  5
23B
100
AcDbEntity
  8
0
100
AcDbLine
 62
7
  6
BYLAYER
 10
41.0012559613
 20
106.9276434045
 11
41.0012559613
 21
107.7284437864
  0
LINE
  5
23C
100
AcDbEntity
  8
0
100
AcDbLine
 62
7
  6
BYLAYER
 10
41.3540327115
 20
25.033504399
 11
41.3540327115
 21
46.6335043987
  0
LINE
  5
23D
100
AcDbEntity
  8
0
100
AcDbLine
 62
7
  6
BYLAYER
 10
38.8512559617
 20
57.8287998664
 11
58.9512559615
 21
57.8287998664
  0
LINE
  5
23E
100
AcDbEntity
  8
0
100
AcDbLine
 62
7
  6
BYLAYER
 10
38.8512559617
 20
58.5197873085
 11
58.9512559615
 21
58.5197873085
  0
LINE
  5
23F
100
AcDbEntity
  8
0
100
AcDbLine
 62
7
  6
BYLAYER
 10
38.3512559617
 20
59.5276841154
 11
38.8512559617
 21
59.5276841154
  0
LINE
  5
240
100
AcDbEntity
  8
0
100
AcDbLine
 62
7
  6
BYLAYER
 10
58.9512559615
 20
59.5276841154
 11
59.4512559617
 21
59.5276841154
  0
LINE
  5
241
100
AcDbEntity
  8
0
100
AcDbLine
 62
7
  6
BYLAYER
 10
56.4484792119
 20
46.6335043987
 11
60.2012559614
 21
42.4123550432
  0
LINE
  5
242
100
AcDbEntity
  8
0
100
AcDbLine
 62
7
  6
BYLAYER
 10
41.8012559613
 20
63.6931676083
 11
41.8012559613
 21
64.4939679902
  0
LINE
  5
243
100
AcDbEntity
  8
0
100
AcDbLine
 62
7
  6
BYLAYER
 10
41.8012559613
 20
85.3271820041
 11
41.8012559613
 21
86.127982386
  0
LINE
  5
244
100
AcDbEntity
  8
0
100
AcDbLine
 62
7
  6
BYLAYER
 10
41.8012559613
 20
106.9276434045
 11
41.8012559613
 21
107.7284437864
  0
LINE
  5
245
100
AcDbEntity
  8
0
100
AcDbLine
 62
7
  6
BYLAYER
 10
42.3177710997
 20
108.445220464
 11
42.3177710997
 21
108.0258238174
  0
LINE
  5
246
100
AcDbEntity
  8
0
100
AcDbLine
 62
7
  6
BYLAYER
 10
42.3177710997
 20
86.8447590636
 11
42.3177710997
 21
86.425362417
  0
LINE
  5
247
100
AcDbEntity
  8
0
100
AcDbLine
 62
7
  6
BYLAYER
 10
42.3177710997
 20
65.2107446678
 11
42.3177710997
 21
64.7913480212
  0
LINE
  5
248
100
AcDbEntity
  8
0
100
AcDbLine
 62
7
  6
BYLAYER
 10
42.8012559617
 20
13.6526832832
 11
42.8012559617
 21
11.2335043989
  0
LINE
  5
249
100
AcDbEntity
  8
0
100
AcDbLine
 62
7
  6
BYLAYER
 10
43.3012559617
 20
13.6526832832
 11
43.3012559617
 21
11.2335043989
  0
LINE
  5
24A
100
AcDbEntity
  8
0
100
AcDbLine
 62
7
  6
BYLAYER
 10
43.3512559607
 20
59.2349263529
 11
43.3512559607
 21
65.8640846773
  0
LINE
  5
24B
100
AcDbEntity
  8
0
100
AcDbLine
 62
7
  6
BYLAYER
 10
43.3512559607
 20
80.8689407487
 11
43.3512559607
 21
87.4980990731
  0
LINE
  5
24C
100
AcDbEntity
  8
0
100
AcDbLine
 62
7
  6
BYLAYER
 10
43.3512559607
 20
102.4694021491
 11
43.3512559607
 21
109.0985604735
  0
LINE
  5
24D
100
AcDbEntity
  8
0
100
AcDbLine
 62
7
  6
BYLAYER
 10
44.3012559617
 20
13.6526832832
 11
44.3012559617
 21
11.2335043989
  0
LINE
  5
24E
100
AcDbEntity
  8
0
100
AcDbLine
 62
7
  6
BYLAYER
 10
44.4512559619
 20
59.2349263529
 11
44.4512559619
 21
65.8640846773
  0
LINE
  5
24F
100
AcDbEntity
  8
0
100
AcDbLine
 62
7
  6
BYLAYER
 10
44.4512559619
 20
80.8689407487
 11
44.4512559619
 21
87.4980990731
  0
LINE
  5
250
100
AcDbEntity
  8
0
100
AcDbLine
 62
7
  6
BYLAYER
 10
44.4512559619
 20
102.4694021491
 11
44.4512559619
 21
109.0985604735
  0
LINE
  5
251
100
AcDbEntity
  8
0
100
AcDbLine
 62
7
  6
BYLAYER
 10
45.4847408217
 20
64.7913480212
 11
45.4847408217
 21
65.2107446678
  0
LINE
  5
252
100
AcDbEntity
  8
0
100
AcDbLine
 62
7
  6
BYLAYER
 10
45.4847408217
 20
86.425362417
 11
45.4847408217
 21
86.8447590636
  0
LINE
  5
253
100
AcDbEntity
  8
0
100
AcDbLine
 62
7
  6
BYLAYER
 10
45.4847408217
 20
108.0258238174
 11
45.4847408217
 21
108.445220464
  0
LINE
  5
254
100
AcDbEntity
  8
0
100
AcDbLine
 62
7
  6
BYLAYER
 10
38.8512559617
 20
60.827751964
 11
58.9512559615
 21
60.827751964
  0
LINE
  5
255
100
AcDbEntity
  8
0
100
AcDbLine
 62
7
  6
BYLAYER
 10
56.8012559613
 20
63.6931676083
 11
56.0012559613
 21
63.6931676083
  0
LINE
  5
256
100
AcDbEntity
  8
0
100
AcDbLine
 62
7
  6
BYLAYER
 10
51.8012559613
 20
63.6931676083
 11
51.0012559613
 21
63.6931676083
  0
LINE
  5
257
100
AcDbEntity
  8
0
100
AcDbLine
 62
7
  6
BYLAYER
 10
46.8012559613
 20
63.6931676083
 11
46.0012559613
 21
63.6931676083
  0
LINE
  5
258
100
AcDbEntity
  8
0
100
AcDbLine
 62
7
  6
BYLAYER
 10
41.8012559613
 20
63.6931676083
 11
41.0012559613
 21
63.6931676083
  0
LINE
  5
259
100
AcDbEntity
  8
0
100
AcDbLine
 62
7
  6
BYLAYER
 10
39.4512559619
 20
64.1218446521
 11
41.0012559613
 21
64.1218446521
  0
LINE
  5
25A
100
AcDbEntity
  8
0
100
AcDbLine
 62
7
  6
BYLAYER
 10
41.8012559613
 20
64.1218446521
 11
43.3512559607
 21
64.1218446521
  0
LINE
  5
25B
100
AcDbEntity
  8
0
100
AcDbLine
 62
7
  6
BYLAYER
 10
44.4512559619
 20
64.1218446521
 11
46.0012559613
 21
64.1218446521
  0
LINE
  5
25C
100
AcDbEntity
  8
0
100
AcDbLine
 62
7
  6
BYLAYER
 10
46.8012559613
 20
64.1218446521
 11
48.3512559607
 21
64.1218446521
  0
LINE
  5
25D
100
AcDbEntity
  8
0
100
AcDbLine
 62
7
  6
BYLAYER
 10
49.4512559619
 20
64.1218446521
 11
51.0012559613
 21
64.1218446521
  0
LINE
  5
25E
100
AcDbEntity
  8
0
100
AcDbLine
 62
7
  6
BYLAYER
 10
51.8012559613
 20
64.1218446521
 11
53.3512559607
 21
64.1218446521
  0
LINE
  5
25F
100
AcDbEntity
  8
0
100
AcDbLine
 62
7
  6
BYLAYER
 10
54.4512559619
 20
64.1218446521
 11
56.0012559613
 21
64.1218446521
  0
LINE
  5
260
100
AcDbEntity
  8
0
100
AcDbLine
 62
7
  6
BYLAYER
 10
56.8012559613
 20
64.1218446521
 11
58.3512559607
 21
64.1218446521
  0
LINE
  5
261
100
AcDbEntity
  8
0
100
AcDbLine
 62
7
  6
BYLAYER
 10
46.0012559613
 20
63.6931676083
 11
46.0012559613
 21
64.4939679902
  0
LINE
  5
262
100
AcDbEntity
  8
0
100
AcDbLine
 62
7
  6
BYLAYER
 10
46.0012559613
 20
85.3271820041
 11
46.0012559613
 21
86.127982386
  0
LINE
  5
263
100
AcDbEntity
  8
0
100
AcDbLine
 62
7
  6
BYLAYER
 10
46.0012559613
 20
106.9276434045
 11
46.0012559613
 21
107.7284437864
  0
LINE
  5
264
100
AcDbEntity
  8
0
100
AcDbLine
 62
7
  6
BYLAYER
 10
46.8012559613
 20
63.6931676083
 11
46.8012559613
 21
64.4939679902
  0
LINE
  5
265
100
AcDbEntity
  8
0
100
AcDbLine
 62
7
  6
BYLAYER
 10
46.8012559613
 20
85.3271820041
 11
46.8012559613
 21
86.127982386
  0
LINE
  5
266
100
AcDbEntity
  8
0
100
AcDbLine
 62
7
  6
BYLAYER
 10
46.8012559613
 20
106.9276434045
 11
46.8012559613
 21
107.7284437864
  0
LINE
  5
267
100
AcDbEntity
  8
0
100
AcDbLine
 62
7
  6
BYLAYER
 10
47.3177710997
 20
108.445220464
 11
47.3177710997
 21
108.0258238174
  0
LINE
  5
268
100
AcDbEntity
  8
0
100
AcDbLine
 62
7
  6
BYLAYER
 10
47.3177710997
 20
86.8447590636
 11
47.3177710997
 21
86.425362417
  0
LINE
  5
269
100
AcDbEntity
  8
0
100
AcDbLine
 62
7
  6
BYLAYER
 10
47.3177710997
 20
65.2107446678
 11
47.3177710997
 21
64.7913480212
  0
LINE
  5
26A
100
AcDbEntity
  8
0
100
AcDbLine
 62
7
  6
BYLAYER
 10
48.3512559607
 20
59.2349263529
 11
48.3512559607
 21
65.8640846773
  0
LINE
  5
26B
100
AcDbEntity
  8
0
100
AcDbLine
 62
7
  6
BYLAYER
 10
48.3512559607
 20
80.8689407487
 11
48.3512559607
 21
87.4980990731
  0
LINE
  5
26C
100
AcDbEntity
  8
0
100
AcDbLine
 62
7
  6
BYLAYER
 10
48.3512559607
 20
102.4694021491
 11
48.3512559607
 21
109.0985604735
  0
LINE
  5
26D
100
AcDbEntity
  8
0
100
AcDbLine
 62
7
  6
BYLAYER
 10
39.4512559619
 20
64.7751846615
 11
40.4847408229
 21
64.7751846616
  0
LINE
  5
26E
100
AcDbEntity
  8
0
100
AcDbLine
 62
7
  6
BYLAYER
 10
42.3177710997
 20
64.7751846615
 11
43.3512559607
 21
64.7751846615
  0
LINE
  5
26F
100
AcDbEntity
  8
0
100
AcDbLine
 62
7
  6
BYLAYER
 10
44.4512559619
 20
64.7751846615
 11
45.4847408229
 21
64.7751846616
  0
LINE
  5
270
100
AcDbEntity
  8
0
100
AcDbLine
 62
7
  6
BYLAYER
 10
47.3177710997
 20
64.7751846615
 11
48.3512559607
 21
64.7751846615
  0
LINE
  5
271
100
AcDbEntity
  8
0
100
AcDbLine
 62
7
  6
BYLAYER
 10
49.4512559619
 20
64.7751846615
 11
50.4847408229
 21
64.7751846616
  0
LINE
  5
272
100
AcDbEntity
  8
0
100
AcDbLine
 62
7
  6
BYLAYER
 10
52.3177710997
 20
64.7751846615
 11
53.3512559607
 21
64.7751846615
  0
LINE
  5
273
100
AcDbEntity
  8
0
100
AcDbLine
 62
7
  6
BYLAYER
 10
54.4512559619
 20
64.7751846615
 11
55.4847408229
 21
64.7751846616
  0
LINE
  5
274
100
AcDbEntity
  8
0
100
AcDbLine
 62
7
  6
BYLAYER
 10
57.3177710997
 20
64.7751846615
 11
58.3512559607
 21
64.7751846615
  0
LINE
  5
275
100
AcDbEntity
  8
0
100
AcDbLine
 62
7
  6
BYLAYER
 10
58.3512559607
 20
64.7913480212
 11
57.3177710997
 21
64.7913480212
  0
LINE
  5
276
100
AcDbEntity
  8
0
100
AcDbLine
 62
7
  6
BYLAYER
 10
53.3512559607
 20
64.7913480212
 11
52.3177710997
 21
64.7913480212
  0
LINE
  5
277
100
AcDbEntity
  8
0
100
AcDbLine
 62
7
  6
BYLAYER
 10
48.3512559607
 20
64.7913480212
 11
47.3177710997
 21
64.7913480212
  0
LINE
  5
278
100
AcDbEntity
  8
0
100
AcDbLine
 62
7
  6
BYLAYER
 10
43.3512559607
 20
64.7913480212
 11
42.3177710997
 21
64.7913480212
  0
LINE
  5
279
100
AcDbEntity
  8
0
100
AcDbLine
 62
7
  6
BYLAYER
 10
39.4512559619
 20
64.7913480212
 11
40.4847408217
 21
64.7913480212
  0
LINE
  5
27A
100
AcDbEntity
  8
0
100
AcDbLine
 62
7
  6
BYLAYER
 10
44.4512559619
 20
64.7913480212
 11
45.4847408217
 21
64.7913480212
  0
LINE
  5
27B
100
AcDbEntity
  8
0
100
AcDbLine
 62
7
  6
BYLAYER
 10
49.4512559619
 20
64.7913480212
 11
50.4847408217
 21
64.7913480212
  0
LINE
  5
27C
100
AcDbEntity
  8
0
100
AcDbLine
 62
7
  6
BYLAYER
 10
54.4512559619
 20
64.7913480212
 11
55.4847408217
 21
64.7913480212
  0
LINE
  5
27D
100
AcDbEntity
  8
0
100
AcDbLine
 62
7
  6
BYLAYER
 10
58.3512559607
 20
65.2107446678
 11
57.3177710997
 21
65.2107446678
  0
LINE
  5
27E
100
AcDbEntity
  8
0
100
AcDbLine
 62
7
  6
BYLAYER
 10
55.4847408217
 20
65.2107446678
 11
54.4512559619
 21
65.2107446678
  0
LINE
  5
27F
100
AcDbEntity
  8
0
100
AcDbLine
 62
7
  6
BYLAYER
 10
53.3512559607
 20
65.2107446678
 11
52.3177710997
 21
65.2107446678
  0
LINE
  5
280
100
AcDbEntity
  8
0
100
AcDbLine
 62
7
  6
BYLAYER
 10
50.4847408217
 20
65.2107446678
 11
49.4512559619
 21
65.2107446678
  0
LINE
  5
281
100
AcDbEntity
  8
0
100
AcDbLine
 62
7
  6
BYLAYER
 10
48.3512559607
 20
65.2107446678
 11
47.3177710997
 21
65.2107446678
  0
LINE
  5
282
100
AcDbEntity
  8
0
100
AcDbLine
 62
7
  6
BYLAYER
 10
45.4847408217
 20
65.2107446678
 11
44.4512559619
 21
65.2107446678
  0
LINE
  5
283
100
AcDbEntity
  8
0
100
AcDbLine
 62
7
  6
BYLAYER
 10
43.3512559607
 20
65.2107446678
 11
42.3177710997
 21
65.2107446678
  0
LINE
  5
284
100
AcDbEntity
  8
0
100
AcDbLine
 62
7
  6
BYLAYER
 10
40.4847408217
 20
65.2107446678
 11
39.4512559619
 21
65.2107446678
  0
LINE
  5
285
100
AcDbEntity
  8
0
100
AcDbLine
 62
7
  6
BYLAYER
 10
38.8512559617
 20
65.3466870292
 11
39.4512559619
 21
65.3466870292
  0
LINE
  5
286
100
AcDbEntity
  8
0
100
AcDbLine
 62
7
  6
BYLAYER
 10
43.3512559607
 20
65.3466870292
 11
44.4512559619
 21
65.3466870292
  0
LINE
  5
287
100
AcDbEntity
  8
0
100
AcDbLine
 62
7
  6
BYLAYER
 10
48.3512559607
 20
65.3466870292
 11
49.4512559619
 21
65.3466870292
  0
LINE
  5
288
100
AcDbEntity
  8
0
100
AcDbLine
 62
7
  6
BYLAYER
 10
53.3512559607
 20
65.3466870292
 11
54.4512559619
 21
65.3466870292
  0
LINE
  5
289
100
AcDbEntity
  8
0
100
AcDbLine
 62
7
  6
BYLAYER
 10
58.3512559607
 20
65.3466870292
 11
58.9512559615
 21
65.3466870292
  0
LINE
  5
28A
100
AcDbEntity
  8
0
100
AcDbLine
 62
7
  6
BYLAYER
 10
58.3512559607
 20
65.8640846773
 11
54.4512559619
 21
65.8640846773
  0
LINE
  5
28B
100
AcDbEntity
  8
0
100
AcDbLine
 62
7
  6
BYLAYER
 10
53.3512559607
 20
65.8640846773
 11
49.4512559619
 21
65.8640846773
  0
LINE
  5
28C
100
AcDbEntity
  8
0
100
AcDbLine
 62
7
  6
BYLAYER
 10
48.3512559607
 20
65.8640846773
 11
44.4512559619
 21
65.8640846773
  0
LINE
  5
28D
100
AcDbEntity
  8
0
100
AcDbLine
 62
7
  6
BYLAYER
 10
43.3512559607
 20
65.8640846773
 11
39.4512559619
 21
65.8640846773
  0
LINE
  5
28E
100
AcDbEntity
  8
0
100
AcDbLine
 62
7
  6
BYLAYER
 10
38.8512559617
 20
67.9050065739
 11
58.9512559615
 21
67.9050065739
  0
LINE
  5
28F
100
AcDbEntity
  8
0
100
AcDbLine
 62
7
  6
BYLAYER
 10
49.4512559619
 20
59.2349263529
 11
49.4512559619
 21
65.8640846773
  0
LINE
  5
290
100
AcDbEntity
  8
0
100
AcDbLine
 62
7
  6
BYLAYER
 10
49.4512559619
 20
80.8689407487
 11
49.4512559619
 21
87.4980990731
  0
LINE
  5
291
100
AcDbEntity
  8
0
100
AcDbLine
 62
7
  6
BYLAYER
 10
49.4512559619
 20
102.4694021491
 11
49.4512559619
 21
109.0985604735
  0
LINE
  5
292
100
AcDbEntity
  8
0
100
AcDbLine
 62
7
  6
BYLAYER
 10
50.4847408217
 20
64.7913480212
 11
50.4847408217
 21
65.2107446678
  0
LINE
  5
293
100
AcDbEntity
  8
0
100
AcDbLine
 62
7
  6
BYLAYER
 10
50.4847408217
 20
86.425362417
 11
50.4847408217
 21
86.8447590636
  0
LINE
  5
294
100
AcDbEntity
  8
0
100
AcDbLine
 62
7
  6
BYLAYER
 10
50.4847408217
 20
108.0258238174
 11
50.4847408217
 21
108.445220464
  0
LINE
  5
295
100
AcDbEntity
  8
0
100
AcDbLine
 62
7
  6
BYLAYER
 10
51.0012559613
 20
63.6931676083
 11
51.0012559613
 21
64.4939679902
  0
LINE
  5
296
100
AcDbEntity
  8
0
100
AcDbLine
 62
7
  6
BYLAYER
 10
51.0012559613
 20
85.3271820041
 11
51.0012559613
 21
86.127982386
  0
LINE
  5
297
100
AcDbEntity
  8
0
100
AcDbLine
 62
7
  6
BYLAYER
 10
51.0012559613
 20
106.9276434045
 11
51.0012559613
 21
107.7284437864
  0
LINE
  5
298
100
AcDbEntity
  8
0
100
AcDbLine
 62
7
  6
BYLAYER
 10
51.8012559613
 20
63.6931676083
 11
51.8012559613
 21
64.4939679902
  0
LINE
  5
299
100
AcDbEntity
  8
0
100
AcDbLine
 62
7
  6
BYLAYER
 10
51.8012559613
 20
85.3271820041
 11
51.8012559613
 21
86.127982386
  0
LINE
  5
29A
100
AcDbEntity
  8
0
100
AcDbLine
 62
7
  6
BYLAYER
 10
51.8012559613
 20
106.9276434045
 11
51.8012559613
 21
107.7284437864
  0
LINE
  5
29B
100
AcDbEntity
  8
0
100
AcDbLine
 62
7
  6
BYLAYER
 10
52.3177710997
 20
108.445220464
 11
52.3177710997
 21
108.0258238174
  0
LINE
  5
29C
100
AcDbEntity
  8
0
100
AcDbLine
 62
7
  6
BYLAYER
 10
52.3177710997
 20
86.8447590636
 11
52.3177710997
 21
86.425362417
  0
LINE
  5
29D
100
AcDbEntity
  8
0
100
AcDbLine
 62
7
  6
BYLAYER
 10
52.3177710997
 20
65.2107446678
 11
52.3177710997
 21
64.7913480212
  0
LINE
  5
29E
100
AcDbEntity
  8
0
100
AcDbLine
 62
7
  6
BYLAYER
 10
38.3512559617
 20
70.9648911011
 11
38.8512559617
 21
70.9648911011
  0
LINE
  5
29F
100
AcDbEntity
  8
0
100
AcDbLine
 62
7
  6
BYLAYER
 10
58.9512559615
 20
70.9648911011
 11
59.4512559617
 21
70.9648911011
  0
LINE
  5
2A0
100
AcDbEntity
  8
0
100
AcDbLine
 62
7
  6
BYLAYER
 10
38.8512559617
 20
71.7488617523
 11
58.9512559615
 21
71.7488617523
  0
LINE
  5
2A1
100
AcDbEntity
  8
0
100
AcDbLine
 62
7
  6
BYLAYER
 10
53.3512559607
 20
59.2349263529
 11
53.3512559607
 21
65.8640846773
  0
LINE
  5
2A2
100
AcDbEntity
  8
0
100
AcDbLine
 62
7
  6
BYLAYER
 10
53.3512559607
 20
80.8689407487
 11
53.3512559607
 21
87.4980990731
  0
LINE
  5
2A3
100
AcDbEntity
  8
0
100
AcDbLine
 62
7
  6
BYLAYER
 10
53.3512559607
 20
102.4694021491
 11
53.3512559607
 21
109.0985604735
  0
LINE
  5
2A4
100
AcDbEntity
  8
0
100
AcDbLine
 62
7
  6
BYLAYER
 10
53.5012559617
 20
13.6526832832
 11
53.5012559617
 21
11.2335043989
  0
LINE
  5
2A5
100
AcDbEntity
  8
0
100
AcDbLine
 62
7
  6
BYLAYER
 10
54.4512559619
 20
59.2349263529
 11
54.4512559619
 21
65.8640846773
  0
LINE
  5
2A6
100
AcDbEntity
  8
0
100
AcDbLine
 62
7
  6
BYLAYER
 10
54.4512559619
 20
80.8689407487
 11
54.4512559619
 21
87.4980990731
  0
LINE
  5
2A7
100
AcDbEntity
  8
0
100
AcDbLine
 62
7
  6
BYLAYER
 10
54.4512559619
 20
102.4694021491
 11
54.4512559619
 21
109.0985604735
  0
LINE
  5
2A8
100
AcDbEntity
  8
0
100
AcDbLine
 62
7
  6
BYLAYER
 10
54.5012559617
 20
13.6526832832
 11
54.5012559617
 21
11.2335043989
  0
LINE
  5
2A9
100
AcDbEntity
  8
0
100
AcDbLine
 62
7
  6
BYLAYER
 10
55.0012559617
 20
13.6526832832
 11
55.0012559617
 21
11.2335043989
  0
LINE
  5
2AA
100
AcDbEntity
  8
0
100
AcDbLine
 62
7
  6
BYLAYER
 10
55.4847408217
 20
64.7913480212
 11
55.4847408217
 21
65.2107446678
  0
LINE
  5
2AB
100
AcDbEntity
  8
0
100
AcDbLine
 62
7
  6
BYLAYER
 10
55.4847408217
 20
86.425362417
 11
55.4847408217
 21
86.8447590636
  0
LINE
  5
2AC
100
AcDbEntity
  8
0
100
AcDbLine
 62
7
  6
BYLAYER
 10
55.4847408217
 20
108.0258238174
 11
55.4847408217
 21
108.445220464
  0
LINE
  5
2AD
100
AcDbEntity
  8
0
100
AcDbLine
 62
7
  6
BYLAYER
 10
56.0012559613
 20
63.6931676083
 11
56.0012559613
 21
64.4939679902
  0
LINE
  5
2AE
100
AcDbEntity
  8
0
100
AcDbLine
 62
7
  6
BYLAYER
 10
56.0012559613
 20
85.3271820041
 11
56.0012559613
 21
86.127982386
  0
LINE
  5
2AF
100
AcDbEntity
  8
0
100
AcDbLine
 62
7
  6
BYLAYER
 10
56.0012559613
 20
106.9276434045
 11
56.0012559613
 21
107.7284437864
  0
LINE
  5
2B0
100
AcDbEntity
  8
0
100
AcDbLine
 62
7
  6
BYLAYER
 10
56.4484792119
 20
46.6335043987
 11
56.4484792119
 21
25.033504399
  0
LINE
  5
2B1
100
AcDbEntity
  8
0
100
AcDbLine
 62
7
  6
BYLAYER
 10
56.8012559613
 20
63.6931676083
 11
56.8012559613
 21
64.4939679902
  0
LINE
  5
2B2
100
AcDbEntity
  8
0
100
AcDbLine
 62
7
  6
BYLAYER
 10
56.8012559613
 20
85.3271820041
 11
56.8012559613
 21
86.127982386
  0
LINE
  5
2B3
100
AcDbEntity
  8
0
100
AcDbLine
 62
7
  6
BYLAYER
 10
56.8012559613
 20
106.9276434045
 11
56.8012559613
 21
107.7284437864
  0
LINE
  5
2B4
100
AcDbEntity
  8
0
100
AcDbLine
 62
7
  6
BYLAYER
 10
56.8512559617
 20
13.6526832832
 11
56.8512559617
 21
12.5335043988
  0
LINE
  5
2B5
100
AcDbEntity
  8
0
100
AcDbLine
 62
7
  6
BYLAYER
 10
59.4512559617
 20
75.0865136893
 11
58.9512559615
 21
75.0865136893
  0
LINE
  5
2B6
100
AcDbEntity
  8
0
100
AcDbLine
 62
7
  6
BYLAYER
 10
38.8512559617
 20
75.0865136893
 11
38.3512559617
 21
75.0865136893
  0
LINE
  5
2B7
100
AcDbEntity
  8
0
100
AcDbLine
 62
7
  6
BYLAYER
 10
57.3177710997
 20
108.445220464
 11
57.3177710997
 21
108.0258238174
  0
LINE
  5
2B8
100
AcDbEntity
  8
0
100
AcDbLine
 62
7
  6
BYLAYER
 10
57.3177710997
 20
86.8447590636
 11
57.3177710997
 21
86.425362417
  0
LINE
  5
2B9
100
AcDbEntity
  8
0
100
AcDbLine
 62
7
  6
BYLAYER
 10
57.3177710997
 20
65.2107446678
 11
57.3177710997
 21
64.7913480212
  0
LINE
  5
2BA
100
AcDbEntity
  8
0
100
AcDbLine
 62
7
  6
BYLAYER
 10
57.6512559617
 20
12.5335043988
 11
57.6512559617
 21
13.6526832832
  0
LINE
  5
2BB
100
AcDbEntity
  8
0
100
AcDbLine
 62
7
  6
BYLAYER
 10
58.3012559614
 20
13.6526832832
 11
58.3012559614
 21
13.5137601202
  0
LINE
  5
2BC
100
AcDbEntity
  8
0
100
AcDbLine
 62
7
  6
BYLAYER
 10
58.3512559607
 20
59.2349263529
 11
58.3512559607
 21
65.8640846772
  0
LINE
  5
2BD
100
AcDbEntity
  8
0
100
AcDbLine
 62
7
  6
BYLAYER
 10
58.3512559607
 20
80.8689407487
 11
58.3512559607
 21
87.4980990731
  0
LINE
  5
2BE
100
AcDbEntity
  8
0
100
AcDbLine
 62
7
  6
BYLAYER
 10
58.3512559607
 20
102.4694021491
 11
58.3512559607
 21
109.0985604735
  0
LINE
  5
2BF
100
AcDbEntity
  8
0
100
AcDbLine
 62
7
  6
BYLAYER
 10
58.9512559615
 20
49.3908936479
 11
58.9512559615
 21
67.9050065739
  0
LINE
  5
2C0
100
AcDbEntity
  8
0
100
AcDbLine
 62
7
  6
BYLAYER
 10
58.9512559615
 20
70.9648911011
 11
58.9512559615
 21
89.5390209697
  0
LINE
  5
2C1
100
AcDbEntity
  8
0
100
AcDbLine
 62
7
  6
BYLAYER
 10
58.9512559615
 20
92.5648911011
 11
58.9512559615
 21
111.1394823701
  0
LINE
  5
2C2
100
AcDbEntity
  8
0
100
AcDbLine
 62
7
  6
BYLAYER
 10
58.9512559615
 20
114.2950540345
 11
58.9512559615
 21
117.0649275874
  0
LINE
  5
2C3
100
AcDbEntity
  8
0
100
AcDbLine
 62
7
  6
BYLAYER
 10
59.4512559617
 20
114.2950540345
 11
59.4512559617
 21
96.6835043989
  0
LINE
  5
2C4
100
AcDbEntity
  8
0
100
AcDbLine
 62
7
  6
BYLAYER
 10
59.4512559617
 20
92.5648911011
 11
59.4512559617
 21
75.0865136893
  0
LINE
  5
2C5
100
AcDbEntity
  8
0
100
AcDbLine
 62
7
  6
BYLAYER
 10
59.4512559617
 20
70.9648911011
 11
59.4512559617
 21
53.4865136893
  0
LINE
  5
2C6
100
AcDbEntity
  8
0
100
AcDbLine
 62
7
  6
BYLAYER
 10
60.2012559614
 20
13.5137601202
 11
60.2012559614
 21
124.7335043989
  0
LINE
  5
2C7
100
AcDbEntity
  8
0
100
AcDbLine
 62
7
  6
BYLAYER
 10
37.6012559614
 20
42.4123550426
 11
41.3540327115
 21
46.6335043987
  0
LINE
  5
2C8
100
AcDbEntity
  8
0
100
AcDbLine
 62
7
  6
BYLAYER
 10
38.8512559617
 20
79.4628142622
 11
58.9512559615
 21
79.4628142622
  0
LINE
  5
2C9
100
AcDbEntity
  8
0
100
AcDbLine
 62
7
  6
BYLAYER
 10
38.8512559617
 20
80.1538017043
 11
58.9512559615
 21
80.1538017043
  0
LINE
  5
2CA
100
AcDbEntity
  8
0
100
AcDbLine
 62
7
  6
BYLAYER
 10
38.3512559617
 20
81.1276841154
 11
38.8512559617
 21
81.1276841154
  0
LINE
  5
2CB
100
AcDbEntity
  8
0
100
AcDbLine
 62
7
  6
BYLAYER
 10
58.9512559615
 20
81.1276841154
 11
59.4512559617
 21
81.1276841154
  0
LINE
  5
2CC
100
AcDbEntity
  8
0
100
AcDbLine
 62
7
  6
BYLAYER
 10
38.8512559617
 20
82.4617663598
 11
58.9512559615
 21
82.4617663598
  0
LINE
  5
2CD
100
AcDbEntity
  8
0
100
AcDbLine
 62
7
  6
BYLAYER
 10
56.8012559613
 20
85.3271820041
 11
56.0012559613
 21
85.3271820041
  0
LINE
  5
2CE
100
AcDbEntity
  8
0
100
AcDbLine
 62
7
  6
BYLAYER
 10
51.8012559613
 20
85.3271820041
 11
51.0012559613
 21
85.3271820041
  0
LINE
  5
2CF
100
AcDbEntity
  8
0
100
AcDbLine
 62
7
  6
BYLAYER
 10
46.8012559613
 20
85.3271820041
 11
46.0012559613
 21
85.3271820041
  0
LINE
  5
2D0
100
AcDbEntity
  8
0
100
AcDbLine
 62
7
  6
BYLAYER
 10
41.8012559613
 20
85.3271820041
 11
41.0012559613
 21
85.3271820041
  0
LINE
  5
2D1
100
AcDbEntity
  8
0
100
AcDbLine
 62
7
  6
BYLAYER
 10
39.4512559619
 20
85.7558590479
 11
41.0012559613
 21
85.7558590479
  0
LINE
  5
2D2
100
AcDbEntity
  8
0
100
AcDbLine
 62
7
  6
BYLAYER
 10
41.8012559613
 20
85.7558590479
 11
43.3512559607
 21
85.7558590479
  0
LINE
  5
2D3
100
AcDbEntity
  8
0
100
AcDbLine
 62
7
  6
BYLAYER
 10
44.4512559619
 20
85.7558590479
 11
46.0012559613
 21
85.7558590479
  0
LINE
  5
2D4
100
AcDbEntity
  8
0
100
AcDbLine
 62
7
  6
BYLAYER
 10
46.8012559613
 20
85.7558590479
 11
48.3512559607
 21
85.7558590479
  0
LINE
  5
2D5
100
AcDbEntity
  8
0
100
AcDbLine
 62
7
  6
BYLAYER
 10
49.4512559619
 20
85.7558590479
 11
51.0012559613
 21
85.7558590479
  0
LINE
  5
2D6
100
AcDbEntity
  8
0
100
AcDbLine
 62
7
  6
BYLAYER
 10
51.8012559613
 20
85.7558590479
 11
53.3512559607
 21
85.7558590479
  0
LINE
  5
2D7
100
AcDbEntity
  8
0
100
AcDbLine
 62
7
  6
BYLAYER
 10
54.4512559619
 20
85.7558590479
 11
56.0012559613
 21
85.7558590479
  0
LINE
  5
2D8
100
AcDbEntity
  8
0
100
AcDbLine
 62
7
  6
BYLAYER
 10
56.8012559613
 20
85.7558590479
 11
58.3512559607
 21
85.7558590479
  0
LINE
  5
2D9
100
AcDbEntity
  8
0
100
AcDbLine
 62
7
  6
BYLAYER
 10
39.4512559619
 20
86.4091990574
 11
40.4847408229
 21
86.4091990574
  0
LINE
  5
2DA
100
AcDbEntity
  8
0
100
AcDbLine
 62
7
  6
BYLAYER
 10
42.3177710997
 20
86.4091990574
 11
43.3512559607
 21
86.4091990573
  0
LINE
  5
2DB
100
AcDbEntity
  8
0
100
AcDbLine
 62
7
  6
BYLAYER
 10
44.4512559619
 20
86.4091990574
 11
45.4847408229
 21
86.4091990574
  0
LINE
  5
2DC
100
AcDbEntity
  8
0
100
AcDbLine
 62
7
  6
BYLAYER
 10
47.3177710997
 20
86.4091990574
 11
48.3512559607
 21
86.4091990573
  0
LINE
  5
2DD
100
AcDbEntity
  8
0
100
AcDbLine
 62
7
  6
BYLAYER
 10
49.4512559619
 20
86.4091990574
 11
50.4847408229
 21
86.4091990574
  0
LINE
  5
2DE
100
AcDbEntity
  8
0
100
AcDbLine
 62
7
  6
BYLAYER
 10
52.3177710997
 20
86.4091990574
 11
53.3512559607
 21
86.4091990573
  0
LINE
  5
2DF
100
AcDbEntity
  8
0
100
AcDbLine
 62
7
  6
BYLAYER
 10
54.4512559619
 20
86.4091990574
 11
55.4847408229
 21
86.4091990574
  0
LINE
  5
2E0
100
AcDbEntity
  8
0
100
AcDbLine
 62
7
  6
BYLAYER
 10
57.3177710997
 20
86.4091990574
 11
58.3512559607
 21
86.4091990573
  0
LINE
  5
2E1
100
AcDbEntity
  8
0
100
AcDbLine
 62
7
  6
BYLAYER
 10
58.3512559607
 20
86.425362417
 11
57.3177710997
 21
86.425362417
  0
LINE
  5
2E2
100
AcDbEntity
  8
0
100
AcDbLine
 62
7
  6
BYLAYER
 10
53.3512559607
 20
86.425362417
 11
52.3177710997
 21
86.425362417
  0
LINE
  5
2E3
100
AcDbEntity
  8
0
100
AcDbLine
 62
7
  6
BYLAYER
 10
48.3512559607
 20
86.425362417
 11
47.3177710997
 21
86.425362417
  0
LINE
  5
2E4
100
AcDbEntity
  8
0
100
AcDbLine
 62
7
  6
BYLAYER
 10
43.3512559607
 20
86.425362417
 11
42.3177710997
 21
86.425362417
  0
LINE
  5
2E5
100
AcDbEntity
  8
0
100
AcDbLine
 62
7
  6
BYLAYER
 10
39.4512559619
 20
86.425362417
 11
40.4847408217
 21
86.425362417
  0
LINE
  5
2E6
100
AcDbEntity
  8
0
100
AcDbLine
 62
7
  6
BYLAYER
 10
44.4512559619
 20
86.425362417
 11
45.4847408217
 21
86.425362417
  0
LINE
  5
2E7
100
AcDbEntity
  8
0
100
AcDbLine
 62
7
  6
BYLAYER
 10
49.4512559619
 20
86.425362417
 11
50.4847408217
 21
86.425362417
  0
LINE
  5
2E8
100
AcDbEntity
  8
0
100
AcDbLine
 62
7
  6
BYLAYER
 10
54.4512559619
 20
86.425362417
 11
55.4847408217
 21
86.425362417
  0
LINE
  5
2E9
100
AcDbEntity
  8
0
100
AcDbLine
 62
7
  6
BYLAYER
 10
58.3512559607
 20
86.8447590636
 11
57.3177710997
 21
86.8447590636
  0
LINE
  5
2EA
100
AcDbEntity
  8
0
100
AcDbLine
 62
7
  6
BYLAYER
 10
55.4847408217
 20
86.8447590636
 11
54.4512559619
 21
86.8447590636
  0
LINE
  5
2EB
100
AcDbEntity
  8
0
100
AcDbLine
 62
7
  6
BYLAYER
 10
53.3512559607
 20
86.8447590636
 11
52.3177710997
 21
86.8447590636
  0
LINE
  5
2EC
100
AcDbEntity
  8
0
100
AcDbLine
 62
7
  6
BYLAYER
 10
50.4847408217
 20
86.8447590636
 11
49.4512559619
 21
86.8447590636
  0
LINE
  5
2ED
100
AcDbEntity
  8
0
100
AcDbLine
 62
7
  6
BYLAYER
 10
48.3512559607
 20
86.8447590636
 11
47.3177710997
 21
86.8447590636
  0
LINE
  5
2EE
100
AcDbEntity
  8
0
100
AcDbLine
 62
7
  6
BYLAYER
 10
45.4847408217
 20
86.8447590636
 11
44.4512559619
 21
86.8447590636
  0
LINE
  5
2EF
100
AcDbEntity
  8
0
100
AcDbLine
 62
7
  6
BYLAYER
 10
43.3512559607
 20
86.8447590636
 11
42.3177710997
 21
86.8447590636
  0
LINE
  5
2F0
100
AcDbEntity
  8
0
100
AcDbLine
 62
7
  6
BYLAYER
 10
40.4847408217
 20
86.8447590636
 11
39.4512559619
 21
86.8447590636
  0
LINE
  5
2F1
100
AcDbEntity
  8
0
100
AcDbLine
 62
7
  6
BYLAYER
 10
38.8512559617
 20
86.980701425
 11
39.4512559619
 21
86.980701425
  0
LINE
  5
2F2
100
AcDbEntity
  8
0
100
AcDbLine
 62
7
  6
BYLAYER
 10
43.3512559607
 20
86.980701425
 11
44.4512559619
 21
86.980701425
  0
LINE
  5
2F3
100
AcDbEntity
  8
0
100
AcDbLine
 62
7
  6
BYLAYER
 10
48.3512559607
 20
86.980701425
 11
49.4512559619
 21
86.980701425
  0
LINE
  5
2F4
100
AcDbEntity
  8
0
100
AcDbLine
 62
7
  6
BYLAYER
 10
53.3512559607
 20
86.980701425
 11
54.4512559619
 21
86.980701425
  0
LINE
  5
2F5
100
AcDbEntity
  8
0
100
AcDbLine
 62
7
  6
BYLAYER
 10
58.3512559607
 20
86.980701425
 11
58.9512559615
 21
86.980701425
  0
LINE
  5
2F6
100
AcDbEntity
  8
0
100
AcDbLine
 62
7
  6
BYLAYER
 10
58.3512559607
 20
87.4980990731
 11
54.4512559619
 21
87.4980990731
  0
LINE
  5
2F7
100
AcDbEntity
  8
0
100
AcDbLine
 62
7
  6
BYLAYER
 10
53.3512559607
 20
87.4980990731
 11
49.4512559619
 21
87.4980990731
  0
LINE
  5
2F8
100
AcDbEntity
  8
0
100
AcDbLine
 62
7
  6
BYLAYER
 10
48.3512559607
 20
87.4980990731
 11
44.4512559619
 21
87.4980990731
  0
LINE
  5
2F9
100
AcDbEntity
  8
0
100
AcDbLine
 62
7
  6
BYLAYER
 10
43.3512559607
 20
87.4980990731
 11
39.4512559619
 21
87.4980990731
  0
LINE
  5
2FA
100
AcDbEntity
  8
0
100
AcDbLine
 62
7
  6
BYLAYER
 10
38.8512559617
 20
89.5390209697
 11
58.9512559615
 21
89.5390209697
  0
LINE
  5
2FB
100
AcDbEntity
  8
0
100
AcDbLine
 62
7
  6
BYLAYER
 10
38.3512559617
 20
92.5648911011
 11
38.8512559617
 21
92.5648911011
  0
LINE
  5
2FC
100
AcDbEntity
  8
0
100
AcDbLine
 62
7
  6
BYLAYER
 10
58.9512559615
 20
92.5648911011
 11
59.4512559617
 21
92.5648911011
  0
LINE
  5
2FD
100
AcDbEntity
  8
0
100
AcDbLine
 62
7
  6
BYLAYER
 10
38.8512559617
 20
93.3493231527
 11
58.9512559615
 21
93.3493231527
  0
LINE
  5
2FE
100
AcDbEntity
  8
0
100
AcDbLine
 62
7
  6
BYLAYER
 10
59.4512559617
 20
96.6835043989
 11
58.9512559615
 21
96.6835043989
  0
LINE
  5
2FF
100
AcDbEntity
  8
0
100
AcDbLine
 62
7
  6
BYLAYER
 10
38.8512559617
 20
96.6835043989
 11
38.3512559617
 21
96.6835043989
  0
LINE
  5
300
100
AcDbEntity
  8
0
100
AcDbLine
 62
7
  6
BYLAYER
 10
60.2012559614
 20
29.2546537545
 11
56.4484792119
 21
25.033504399
  0
LINE
  5
301
100
AcDbEntity
  8
0
100
AcDbLine
 62
7
  6
BYLAYER
 10
38.8512559617
 20
101.0632756626
 11
58.9512559615
 21
101.0632756626
  0
LINE
  5
302
100
AcDbEntity
  8
0
100
AcDbLine
 62
7
  6
BYLAYER
 10
38.8512559617
 20
101.7542631047
 11
58.9512559615
 21
101.7542631047
  0
LINE
  5
303
100
AcDbEntity
  8
0
100
AcDbLine
 62
7
  6
BYLAYER
 10
38.3512559617
 20
102.7292801688
 11
38.8512559617
 21
102.7292801688
  0
LINE
  5
304
100
AcDbEntity
  8
0
100
AcDbLine
 62
7
  6
BYLAYER
 10
58.9512559615
 20
102.7292801688
 11
59.4512559617
 21
102.7292801688
  0
LINE
  5
305
100
AcDbEntity
  8
0
100
AcDbLine
 62
7
  6
BYLAYER
 10
38.8512559617
 20
104.0622277602
 11
58.9512559615
 21
104.0622277602
  0
LINE
  5
306
100
AcDbEntity
  8
0
100
AcDbLine
 62
7
  6
BYLAYER
 10
56.8012559613
 20
106.9276434045
 11
56.0012559613
 21
106.9276434045
  0
LINE
  5
307
100
AcDbEntity
  8
0
100
AcDbLine
 62
7
  6
BYLAYER
 10
51.8012559613
 20
106.9276434045
 11
51.0012559613
 21
106.9276434045
  0
LINE
  5
308
100
AcDbEntity
  8
0
100
AcDbLine
 62
7
  6
BYLAYER
 10
46.8012559613
 20
106.9276434045
 11
46.0012559613
 21
106.9276434045
  0
LINE
  5
309
100
AcDbEntity
  8
0
100
AcDbLine
 62
7
  6
BYLAYER
 10
41.8012559613
 20
106.9276434045
 11
41.0012559613
 21
106.9276434045
  0
LINE
  5
30A
100
AcDbEntity
  8
0
100
AcDbLine
 62
7
  6
BYLAYER
 10
39.4512559619
 20
107.3563204483
 11
41.0012559613
 21
107.3563204483
  0
LINE
  5
30B
100
AcDbEntity
  8
0
100
AcDbLine
 62
7
  6
BYLAYER
 10
41.8012559613
 20
107.3563204483
 11
43.3512559607
 21
107.3563204483
  0
LINE
  5
30C
100
AcDbEntity
  8
0
100
AcDbLine
 62
7
  6
BYLAYER
 10
44.4512559619
 20
107.3563204483
 11
46.0012559613
 21
107.3563204483
  0
LINE
  5
30D
100
AcDbEntity
  8
0
100
AcDbLine
 62
7
  6
BYLAYER
 10
46.8012559613
 20
107.3563204483
 11
48.3512559607
 21
107.3563204483
  0
LINE
  5
30E
100
AcDbEntity
  8
0
100
AcDbLine
 62
7
  6
BYLAYER
 10
49.4512559619
 20
107.3563204483
 11
51.0012559613
 21
107.3563204483
  0
LINE
  5
30F
100
AcDbEntity
  8
0
100
AcDbLine
 62
7
  6
BYLAYER
 10
51.8012559613
 20
107.3563204483
 11
53.3512559607
 21
107.3563204483
  0
LINE
  5
310
100
AcDbEntity
  8
0
100
AcDbLine
 62
7
  6
BYLAYER
 10
54.4512559619
 20
107.3563204483
 11
56.0012559613
 21
107.3563204483
  0
LINE
  5
311
100
AcDbEntity
  8
0
100
AcDbLine
 62
7
  6
BYLAYER
 10
56.8012559613
 20
107.3563204483
 11
58.3512559607
 21
107.3563204483
  0
LINE
  5
312
100
AcDbEntity
  8
0
100
AcDbLine
 62
7
  6
BYLAYER
 10
39.4512559619
 20
108.0096604578
 11
40.4847408229
 21
108.0096604578
  0
LINE
  5
313
100
AcDbEntity
  8
0
100
AcDbLine
 62
7
  6
BYLAYER
 10
42.3177710997
 20
108.0096604578
 11
43.3512559607
 21
108.0096604578
  0
LINE
  5
314
100
AcDbEntity
  8
0
100
AcDbLine
 62
7
  6
BYLAYER
 10
44.4512559619
 20
108.0096604578
 11
45.4847408229
 21
108.0096604578
  0
LINE
  5
315
100
AcDbEntity
  8
0
100
AcDbLine
 62
7
  6
BYLAYER
 10
47.3177710997
 20
108.0096604578
 11
48.3512559607
 21
108.0096604578
  0
LINE
  5
316
100
AcDbEntity
  8
0
100
AcDbLine
 62
7
  6
BYLAYER
 10
49.4512559619
 20
108.0096604578
 11
50.4847408229
 21
108.0096604578
  0
LINE
  5
317
100
AcDbEntity
  8
0
100
AcDbLine
 62
7
  6
BYLAYER
 10
52.3177710997
 20
108.0096604578
 11
53.3512559607
 21
108.0096604578
  0
LINE
  5
318
100
AcDbEntity
  8
0
100
AcDbLine
 62
7
  6
BYLAYER
 10
54.4512559619
 20
108.0096604578
 11
55.4847408229
 21
108.0096604578
  0
LINE
  5
319
100
AcDbEntity
  8
0
100
AcDbLine
 62
7
  6
BYLAYER
 10
57.3177710997
 20
108.0096604578
 11
58.3512559607
 21
108.0096604578
  0
LINE
  5
31A
100
AcDbEntity
  8
0
100
AcDbLine
 62
7
  6
BYLAYER
 10
58.3512559607
 20
108.0258238174
 11
57.3177710997
 21
108.0258238174
  0
LINE
  5
31B
100
AcDbEntity
  8
0
100
AcDbLine
 62
7
  6
BYLAYER
 10
53.3512559607
 20
108.0258238174
 11
52.3177710997
 21
108.0258238174
  0
LINE
  5
31C
100
AcDbEntity
  8
0
100
AcDbLine
 62
7
  6
BYLAYER
 10
48.3512559607
 20
108.0258238174
 11
47.3177710997
 21
108.0258238174
  0
LINE
  5
31D
100
AcDbEntity
  8
0
100
AcDbLine
 62
7
  6
BYLAYER
 10
43.3512559607
 20
108.0258238174
 11
42.3177710997
 21
108.0258238174
  0
LINE
  5
31E
100
AcDbEntity
  8
0
100
AcDbLine
 62
7
  6
BYLAYER
 10
39.4512559619
 20
108.0258238174
 11
40.4847408217
 21
108.0258238174
  0
LINE
  5
31F
100
AcDbEntity
  8
0
100
AcDbLine
 62
7
  6
BYLAYER
 10
44.4512559619
 20
108.0258238174
 11
45.4847408217
 21
108.0258238174
  0
LINE
  5
320
100
AcDbEntity
  8
0
100
AcDbLine
 62
7
  6
BYLAYER
 10
49.4512559619
 20
108.0258238174
 11
50.4847408217
 21
108.0258238174
  0
LINE
  5
321
100
AcDbEntity
  8
0
100
AcDbLine
 62
7
  6
BYLAYER
 10
54.4512559619
 20
108.0258238174
 11
55.4847408217
 21
108.0258238174
  0
LINE
  5
322
100
AcDbEntity
  8
0
100
AcDbLine
 62
7
  6
BYLAYER
 10
58.3512559607
 20
108.445220464
 11
57.3177710997
 21
108.445220464
  0
LINE
  5
323
100
AcDbEntity
  8
0
100
AcDbLine
 62
7
  6
BYLAYER
 10
55.4847408217
 20
108.445220464
 11
54.4512559619
 21
108.445220464
  0
LINE
  5
324
100
AcDbEntity
  8
0
100
AcDbLine
 62
7
  6
BYLAYER
 10
53.3512559607
 20
108.445220464
 11
52.3177710997
 21
108.445220464
  0
LINE
  5
325
100
AcDbEntity
  8
0
100
AcDbLine
 62
7
  6
BYLAYER
 10
50.4847408217
 20
108.445220464
 11
49.4512559619
 21
108.445220464
  0
LINE
  5
326
100
AcDbEntity
  8
0
100
AcDbLine
 62
7
  6
BYLAYER
 10
48.3512559607
 20
108.445220464
 11
47.3177710997
 21
108.445220464
  0
LINE
  5
327
100
AcDbEntity
  8
0
100
AcDbLine
 62
7
  6
BYLAYER
 10
45.4847408217
 20
108.445220464
 11
44.4512559619
 21
108.445220464
  0
LINE
  5
328
100
AcDbEntity
  8
0
100
AcDbLine
 62
7
  6
BYLAYER
 10
43.3512559607
 20
108.445220464
 11
42.3177710997
 21
108.445220464
  0
LINE
  5
329
100
AcDbEntity
  8
0
100
AcDbLine
 62
7
  6
BYLAYER
 10
40.4847408217
 20
108.445220464
 11
39.4512559619
 21
108.445220464
  0
LINE
  5
32A
100
AcDbEntity
  8
0
100
AcDbLine
 62
7
  6
BYLAYER
 10
38.8512559617
 20
108.5811628254
 11
39.4512559619
 21
108.5811628254
  0
LINE
  5
32B
100
AcDbEntity
  8
0
100
AcDbLine
 62
7
  6
BYLAYER
 10
43.3512559607
 20
108.5811628254
 11
44.4512559619
 21
108.5811628254
  0
LINE
  5
32C
100
AcDbEntity
  8
0
100
AcDbLine
 62
7
  6
BYLAYER
 10
48.3512559607
 20
108.5811628254
 11
49.4512559619
 21
108.5811628254
  0
LINE
  5
32D
100
AcDbEntity
  8
0
100
AcDbLine
 62
7
  6
BYLAYER
 10
53.3512559607
 20
108.5811628254
 11
54.4512559619
 21
108.5811628254
  0
LINE
  5
32E
100
AcDbEntity
  8
0
100
AcDbLine
 62
7
  6
BYLAYER
 10
58.3512559607
 20
108.5811628254
 11
58.9512559615
 21
108.5811628254
  0
LINE
  5
32F
100
AcDbEntity
  8
0
100
AcDbLine
 62
7
  6
BYLAYER
 10
58.3512559607
 20
109.0985604735
 11
54.4512559619
 21
109.0985604735
  0
LINE
  5
330
100
AcDbEntity
  8
0
100
AcDbLine
 62
7
  6
BYLAYER
 10
53.3512559607
 20
109.0985604735
 11
49.4512559619
 21
109.0985604735
  0
LINE
  5
331
100
AcDbEntity
  8
0
100
AcDbLine
 62
7
  6
BYLAYER
 10
48.3512559607
 20
109.0985604735
 11
44.4512559619
 21
109.0985604735
  0
LINE
  5
332
100
AcDbEntity
  8
0
100
AcDbLine
 62
7
  6
BYLAYER
 10
43.3512559607
 20
109.0985604735
 11
39.4512559619
 21
109.0985604735
  0
LINE
  5
333
100
AcDbEntity
  8
0
100
AcDbLine
 62
7
  6
BYLAYER
 10
38.8512559617
 20
111.1394823701
 11
58.9512559615
 21
111.1394823701
  0
LINE
  5
334
100
AcDbEntity
  8
0
100
AcDbLine
 62
7
  6
BYLAYER
 10
38.3512559617
 20
114.2950540345
 11
38.8512559617
 21
114.2950540345
  0
LINE
  5
335
100
AcDbEntity
  8
0
100
AcDbLine
 62
7
  6
BYLAYER
 10
58.9512559615
 20
114.2950540345
 11
59.4512559617
 21
114.2950540345
  0
LINE
  5
336
100
AcDbEntity
  8
0
100
AcDbLine
 62
7
  6
BYLAYER
 10
58.9512559615
 20
117.0649275874
 11
38.8512559617
 21
117.0649275874
  0
LINE
  5
337
100
AcDbEntity
  8
0
100
AcDbLine
 62
7
  6
BYLAYER
 10
37.6012559614
 20
117.3951985959
 11
60.2012559614
 21
117.3951985959
  0
LINE
  5
338
100
AcDbEntity
  8
0
100
AcDbLine
 62
7
  6
BYLAYER
 10
37.6012559614
 20
124.7335043989
 11
60.2012559614
 21
124.7335043989
  0
ARC
  5
339
100
AcDbEntity
  8
0
100
AcDbCircle
 62
7
  6
BYLAYER
 10
46.4016656768
 20
98.9646693129
 40
2.4279342399
100
AcDbArc
 50
269.9903313072
 51
282.6128617283
  0
ARC
  5
33A
100
AcDbEntity
  8
0
100
AcDbCircle
 62
7
  6
BYLAYER
 10
51.4016656768
 20
98.9646693129
 40
2.4279342399
100
AcDbArc
 50
269.9903313072
 51
282.6128617283
  0
ARC
  5
33B
100
AcDbEntity
  8
0
100
AcDbCircle
 62
7
  6
BYLAYER
 10
56.4016656768
 20
98.9646693129
 40
2.4279342399
100
AcDbArc
 50
269.9903313072
 51
282.6128617283
  0
ARC
  5
33C
100
AcDbEntity
  8
0
100
AcDbCircle
 62
7
  6
BYLAYER
 10
41.4016656768
 20
98.9646693129
 40
2.4279342399
100
AcDbArc
 50
269.9903313072
 51
282.6128617283
  0
ARC
  5
33D
100
AcDbEntity
  8
0
100
AcDbCircle
 62
7
  6
BYLAYER
 10
46.4016656768
 20
77.3642079125
 40
2.4279342399
100
AcDbArc
 50
269.9903313072
 51
282.6128617283
  0
ARC
  5
33E
100
AcDbEntity
  8
0
100
AcDbCircle
 62
7
  6
BYLAYER
 10
51.4016656768
 20
77.3642079125
 40
2.4279342399
100
AcDbArc
 50
269.9903313072
 51
282.6128617283
  0
ARC
  5
33F
100
AcDbEntity
  8
0
100
AcDbCircle
 62
7
  6
BYLAYER
 10
56.4016656768
 20
77.3642079125
 40
2.4279342399
100
AcDbArc
 50
269.9903313072
 51
282.6128617283
  0
ARC
  5
340
100
AcDbEntity
  8
0
100
AcDbCircle
 62
7
  6
BYLAYER
 10
41.4016656768
 20
77.3642079125
 40
2.4279342399
100
AcDbArc
 50
269.9903313072
 51
282.6128617283
  0
ARC
  5
341
100
AcDbEntity
  8
0
100
AcDbCircle
 62
7
  6
BYLAYER
 10
46.4016656768
 20
55.7301935167
 40
2.4279342399
100
AcDbArc
 50
269.9903313072
 51
282.6128617283
  0
ARC
  5
342
100
AcDbEntity
  8
0
100
AcDbCircle
 62
7
  6
BYLAYER
 10
51.4016656768
 20
55.7301935167
 40
2.4279342399
100
AcDbArc
 50
269.9903313072
 51
282.6128617283
  0
ARC
  5
343
100
AcDbEntity
  8
0
100
AcDbCircle
 62
7
  6
BYLAYER
 10
56.4016656768
 20
55.7301935167
 40
2.4279342399
100
AcDbArc
 50
269.9903313072
 51
282.6128617283
  0
ARC
  5
344
100
AcDbEntity
  8
0
100
AcDbCircle
 62
7
  6
BYLAYER
 10
41.4016656768
 20
55.7301935167
 40
2.4279342399
100
AcDbArc
 50
269.9903313072
 51
282.6128617283
  0
ARC
  5
345
100
AcDbEntity
  8
0
100
AcDbCircle
 62
7
  6
BYLAYER
 10
56.3512559617
 20
12.5335043989
 40
1.3
100
AcDbArc
 50
270.0
 51
360.0
  0
ARC
  5
346
100
AcDbEntity
  8
0
100
AcDbCircle
 62
7
  6
BYLAYER
 10
41.4512559617
 20
12.5335043989
 40
1.3
100
AcDbArc
 50
180.0
 51
270.0
  0
SPLINE
  5
347
100
AcDbEntity
  8
0
100
AcDbSpline
 62
7
  6
BYLAYER
 70
0
 71
3
 72
12
 73
8
 74
0
 42
0.0000001
 43
0.0000001
 44
0.0000000001
 40
0.0
 40
0.0
 40
0.0
 40
0.0
 40
0.2854413263
 40
0.5492660195
 40
0.6718801653
 40
0.7879245097
 40
1.0
 40
1.0
 40
1.0
 40
1.0
 10
41.8012559613
 20
107.7284437864
 30
0.0
 10
41.8565845006
 20
107.7415908137
 30
0.0
 10
41.9617787391
 20
107.7727891979
 30
0.0
 10
42.0845927432
 20
107.8272400566
 30
0.0
 10
42.1707432017
 20
107.8784869925
 30
0.0
 10
42.243680016
 20
107.9309457199
 30
0.0
 10
42.291344009
 20
107.9766928818
 30
0.0
 10
42.3177710997
 20
108.0096604578
 30
0.0
  0
SPLINE
  5
348
100
AcDbEntity
  8
0
100
AcDbSpline
 62
7
  6
BYLAYER
 70
0
 71
3
 72
12
 73
8
 74
0
 42
0.0000001
 43
0.0000001
 44
0.0000000001
 40
0.0
 40
0.0
 40
0.0
 40
0.0
 40
0.2120754903
 40
0.3281198347
 40
0.4507339805
 40
0.7145586737
 40
1.0
 40
1.0
 40
1.0
 40
1.0
 10
40.4847408229
 20
108.0096604578
 30
0.0
 10
40.5111679136
 20
107.9766928818
 30
0.0
 10
40.5588319065
 20
107.9309457199
 30
0.0
 10
40.6317687209
 20
107.8784869925
 30
0.0
 10
40.7179191794
 20
107.8272400566
 30
0.0
 10
40.8407331835
 20
107.7727891979
 30
0.0
 10
40.945927422
 20
107.7415908137
 30
0.0
 10
41.0012559613
 20
107.7284437864
 30
0.0
  0
SPLINE
  5
349
100
AcDbEntity
  8
0
100
AcDbSpline
 62
7
  6
BYLAYER
 70
0
 71
3
 72
15
 73
11
 74
0
 42
0.0000001
 43
0.0000001
 44
0.0000000001
 40
0.0
 40
0.0
 40
0.0
 40
0.0
 40
0.0968690865
 40
0.2031319719
 40
0.3188211573
 40
0.4432948579
 40
0.575360014
 40
0.713426432
 40
0.8556630212
 40
1.0
 40
1.0
 40
1.0
 40
1.0
 10
40.4847408217
 20
108.0258238174
 30
0.0
 10
40.5049608449
 20
108.0510481282
 30
0.0
 10
40.5527385134
 20
108.0997324962
 30
0.0
 10
40.63861166
 20
108.1631231896
 30
0.0
 10
40.74013563
 20
108.2190480541
 30
0.0
 10
40.8552196169
 20
108.2664164075
 30
0.0
 10
40.9815478478
 20
108.3042970119
 30
0.0
 10
41.116539316
 20
108.3319318805
 30
0.0
 10
41.257403897
 20
108.3487396102
 30
0.0
 10
41.3530862002
 20
108.3524938221
 30
0.0
 10
41.4012559607
 20
108.3524938221
 30
0.0
  0
SPLINE
  5
34A
100
AcDbEntity
  8
0
100
AcDbSpline
 62
7
  6
BYLAYER
 70
0
 71
3
 72
15
 73
11
 74
0
 42
0.0000001
 43
0.0000001
 44
0.0000000001
 40
0.0
 40
0.0
 40
0.0
 40
0.0
 40
0.1443369788
 40
0.286573568
 40
0.424639986
 40
0.5567051421
 40
0.6811788427
 40
0.7968680281
 40
0.9031309135
 40
1.0
 40
1.0
 40
1.0
 40
1.0
 10
41.4012559607
 20
108.3524938221
 30
0.0
 10
41.4494257212
 20
108.3524938221
 30
0.0
 10
41.5451080244
 20
108.3487396102
 30
0.0
 10
41.6859726054
 20
108.3319318805
 30
0.0
 10
41.8209640736
 20
108.3042970119
 30
0.0
 10
41.9472923046
 20
108.2664164075
 30
0.0
 10
42.0623762914
 20
108.2190480541
 30
0.0
 10
42.1639002614
 20
108.1631231896
 30
0.0
 10
42.249773408
 20
108.0997324962
 30
0.0
 10
42.2975510765
 20
108.0510481282
 30
0.0
 10
42.3177710997
 20
108.0258238174
 30
0.0
  0
SPLINE
  5
34B
100
AcDbEntity
  8
0
100
AcDbSpline
 62
7
  6
BYLAYER
 70
0
 71
3
 72
15
 73
11
 74
0
 42
0.0000001
 43
0.0000001
 44
0.0000000001
 40
0.0
 40
0.0
 40
0.0
 40
0.0
 40
0.0968690865
 40
0.2031319719
 40
0.3188211573
 40
0.4432948579
 40
0.575360014
 40
0.713426432
 40
0.8556630212
 40
1.0
 40
1.0
 40
1.0
 40
1.0
 10
42.3177710997
 20
108.445220464
 30
0.0
 10
42.2975510765
 20
108.4704447749
 30
0.0
 10
42.249773408
 20
108.5191291429
 30
0.0
 10
42.1639002614
 20
108.5825198363
 30
0.0
 10
42.0623762914
 20
108.6384447007
 30
0.0
 10
41.9472923046
 20
108.6858130542
 30
0.0
 10
41.8209640736
 20
108.7236936586
 30
0.0
 10
41.6859726054
 20
108.7513285271
 30
0.0
 10
41.5451080244
 20
108.7681362569
 30
0.0
 10
41.4494257212
 20
108.7718904688
 30
0.0
 10
41.4012559607
 20
108.7718904688
 30
0.0
  0
SPLINE
  5
34C
100
AcDbEntity
  8
0
100
AcDbSpline
 62
7
  6
BYLAYER
 70
0
 71
3
 72
15
 73
11
 74
0
 42
0.0000001
 43
0.0000001
 44
0.0000000001
 40
0.0
 40
0.0
 40
0.0
 40
0.0
 40
0.1443369788
 40
0.286573568
 40
0.424639986
 40
0.5567051421
 40
0.6811788427
 40
0.7968680281
 40
0.9031309135
 40
1.0
 40
1.0
 40
1.0
 40
1.0
 10
41.4012559607
 20
108.7718904688
 30
0.0
 10
41.3530862002
 20
108.7718904688
 30
0.0
 10
41.257403897
 20
108.7681362569
 30
0.0
 10
41.116539316
 20
108.7513285271
 30
0.0
 10
40.9815478478
 20
108.7236936586
 30
0.0
 10
40.8552196169
 20
108.6858130542
 30
0.0
 10
40.74013563
 20
108.6384447007
 30
0.0
 10
40.63861166
 20
108.5825198363
 30
0.0
 10
40.5527385134
 20
108.5191291429
 30
0.0
 10
40.5049608449
 20
108.4704447748
 30
0.0
 10
40.4847408217
 20
108.445220464
 30
0.0
  0
SPLINE
  5
34D
100
AcDbEntity
  8
0
100
AcDbSpline
 62
7
  6
BYLAYER
 70
0
 71
3
 72
12
 73
8
 74
0
 42
0.0000001
 43
0.0000001
 44
0.0000000001
 40
0.0
 40
0.0
 40
0.0
 40
0.0
 40
0.2854413263
 40
0.5492660195
 40
0.6718801653
 40
0.7879245097
 40
1.0
 40
1.0
 40
1.0
 40
1.0
 10
46.8012559613
 20
107.7284437864
 30
0.0
 10
46.8565845006
 20
107.7415908137
 30
0.0
 10
46.9617787391
 20
107.7727891979
 30
0.0
 10
47.0845927432
 20
107.8272400566
 30
0.0
 10
47.1707432017
 20
107.8784869925
 30
0.0
 10
47.243680016
 20
107.9309457199
 30
0.0
 10
47.291344009
 20
107.9766928818
 30
0.0
 10
47.3177710997
 20
108.0096604578
 30
0.0
  0
SPLINE
  5
34E
100
AcDbEntity
  8
0
100
AcDbSpline
 62
7
  6
BYLAYER
 70
0
 71
3
 72
12
 73
8
 74
0
 42
0.0000001
 43
0.0000001
 44
0.0000000001
 40
0.0
 40
0.0
 40
0.0
 40
0.0
 40
0.2120754903
 40
0.3281198347
 40
0.4507339805
 40
0.7145586737
 40
1.0
 40
1.0
 40
1.0
 40
1.0
 10
45.4847408229
 20
108.0096604578
 30
0.0
 10
45.5111679136
 20
107.9766928818
 30
0.0
 10
45.5588319065
 20
107.9309457199
 30
0.0
 10
45.6317687209
 20
107.8784869925
 30
0.0
 10
45.7179191794
 20
107.8272400566
 30
0.0
 10
45.8407331835
 20
107.7727891979
 30
0.0
 10
45.945927422
 20
107.7415908137
 30
0.0
 10
46.0012559613
 20
107.7284437864
 30
0.0
  0
SPLINE
  5
34F
100
AcDbEntity
  8
0
100
AcDbSpline
 62
7
  6
BYLAYER
 70
0
 71
3
 72
15
 73
11
 74
0
 42
0.0000001
 43
0.0000001
 44
0.0000000001
 40
0.0
 40
0.0
 40
0.0
 40
0.0
 40
0.0968690865
 40
0.2031319719
 40
0.3188211573
 40
0.4432948579
 40
0.575360014
 40
0.713426432
 40
0.8556630212
 40
1.0
 40
1.0
 40
1.0
 40
1.0
 10
45.4847408217
 20
108.0258238174
 30
0.0
 10
45.5049608449
 20
108.0510481282
 30
0.0
 10
45.5527385134
 20
108.0997324962
 30
0.0
 10
45.63861166
 20
108.1631231896
 30
0.0
 10
45.74013563
 20
108.2190480541
 30
0.0
 10
45.8552196169
 20
108.2664164075
 30
0.0
 10
45.9815478478
 20
108.3042970119
 30
0.0
 10
46.116539316
 20
108.3319318805
 30
0.0
 10
46.257403897
 20
108.3487396102
 30
0.0
 10
46.3530862002
 20
108.3524938221
 30
0.0
 10
46.4012559607
 20
108.3524938221
 30
0.0
  0
SPLINE
  5
350
100
AcDbEntity
  8
0
100
AcDbSpline
 62
7
  6
BYLAYER
 70
0
 71
3
 72
15
 73
11
 74
0
 42
0.0000001
 43
0.0000001
 44
0.0000000001
 40
0.0
 40
0.0
 40
0.0
 40
0.0
 40
0.1443369788
 40
0.286573568
 40
0.424639986
 40
0.5567051421
 40
0.6811788427
 40
0.7968680281
 40
0.9031309135
 40
1.0
 40
1.0
 40
1.0
 40
1.0
 10
46.4012559607
 20
108.3524938221
 30
0.0
 10
46.4494257212
 20
108.3524938221
 30
0.0
 10
46.5451080244
 20
108.3487396102
 30
0.0
 10
46.6859726054
 20
108.3319318805
 30
0.0
 10
46.8209640736
 20
108.3042970119
 30
0.0
 10
46.9472923046
 20
108.2664164075
 30
0.0
 10
47.0623762914
 20
108.2190480541
 30
0.0
 10
47.1639002614
 20
108.1631231896
 30
0.0
 10
47.249773408
 20
108.0997324962
 30
0.0
 10
47.2975510765
 20
108.0510481282
 30
0.0
 10
47.3177710997
 20
108.0258238174
 30
0.0
  0
SPLINE
  5
351
100
AcDbEntity
  8
0
100
AcDbSpline
 62
7
  6
BYLAYER
 70
0
 71
3
 72
15
 73
11
 74
0
 42
0.0000001
 43
0.0000001
 44
0.0000000001
 40
0.0
 40
0.0
 40
0.0
 40
0.0
 40
0.0968690865
 40
0.2031319719
 40
0.3188211573
 40
0.4432948579
 40
0.575360014
 40
0.713426432
 40
0.8556630212
 40
1.0
 40
1.0
 40
1.0
 40
1.0
 10
47.3177710997
 20
108.445220464
 30
0.0
 10
47.2975510765
 20
108.4704447749
 30
0.0
 10
47.249773408
 20
108.5191291429
 30
0.0
 10
47.1639002614
 20
108.5825198363
 30
0.0
 10
47.0623762914
 20
108.6384447007
 30
0.0
 10
46.9472923046
 20
108.6858130542
 30
0.0
 10
46.8209640736
 20
108.7236936586
 30
0.0
 10
46.6859726054
 20
108.7513285271
 30
0.0
 10
46.5451080244
 20
108.7681362569
 30
0.0
 10
46.4494257212
 20
108.7718904688
 30
0.0
 10
46.4012559607
 20
108.7718904688
 30
0.0
  0
SPLINE
  5
352
100
AcDbEntity
  8
0
100
AcDbSpline
 62
7
  6
BYLAYER
 70
0
 71
3
 72
15
 73
11
 74
0
 42
0.0000001
 43
0.0000001
 44
0.0000000001
 40
0.0
 40
0.0
 40
0.0
 40
0.0
 40
0.1443369788
 40
0.286573568
 40
0.424639986
 40
0.5567051421
 40
0.6811788427
 40
0.7968680281
 40
0.9031309135
 40
1.0
 40
1.0
 40
1.0
 40
1.0
 10
46.4012559607
 20
108.7718904688
 30
0.0
 10
46.3530862002
 20
108.7718904688
 30
0.0
 10
46.257403897
 20
108.7681362569
 30
0.0
 10
46.116539316
 20
108.7513285271
 30
0.0
 10
45.9815478478
 20
108.7236936586
 30
0.0
 10
45.8552196169
 20
108.6858130542
 30
0.0
 10
45.74013563
 20
108.6384447007
 30
0.0
 10
45.63861166
 20
108.5825198363
 30
0.0
 10
45.5527385134
 20
108.5191291429
 30
0.0
 10
45.5049608449
 20
108.4704447748
 30
0.0
 10
45.4847408217
 20
108.445220464
 30
0.0
  0
SPLINE
  5
353
100
AcDbEntity
  8
0
100
AcDbSpline
 62
7
  6
BYLAYER
 70
0
 71
3
 72
12
 73
8
 74
0
 42
0.0000001
 43
0.0000001
 44
0.0000000001
 40
0.0
 40
0.0
 40
0.0
 40
0.0
 40
0.2854413263
 40
0.5492660195
 40
0.6718801653
 40
0.7879245097
 40
1.0
 40
1.0
 40
1.0
 40
1.0
 10
51.8012559613
 20
107.7284437864
 30
0.0
 10
51.8565845006
 20
107.7415908137
 30
0.0
 10
51.9617787391
 20
107.7727891979
 30
0.0
 10
52.0845927432
 20
107.8272400566
 30
0.0
 10
52.1707432017
 20
107.8784869925
 30
0.0
 10
52.243680016
 20
107.9309457199
 30
0.0
 10
52.291344009
 20
107.9766928818
 30
0.0
 10
52.3177710997
 20
108.0096604578
 30
0.0
  0
SPLINE
  5
354
100
AcDbEntity
  8
0
100
AcDbSpline
 62
7
  6
BYLAYER
 70
0
 71
3
 72
12
 73
8
 74
0
 42
0.0000001
 43
0.0000001
 44
0.0000000001
 40
0.0
 40
0.0
 40
0.0
 40
0.0
 40
0.2120754903
 40
0.3281198347
 40
0.4507339805
 40
0.7145586737
 40
1.0
 40
1.0
 40
1.0
 40
1.0
 10
50.4847408229
 20
108.0096604578
 30
0.0
 10
50.5111679136
 20
107.9766928818
 30
0.0
 10
50.5588319065
 20
107.9309457199
 30
0.0
 10
50.6317687209
 20
107.8784869925
 30
0.0
 10
50.7179191794
 20
107.8272400566
 30
0.0
 10
50.8407331835
 20
107.7727891979
 30
0.0
 10
50.945927422
 20
107.7415908137
 30
0.0
 10
51.0012559613
 20
107.7284437864
 30
0.0
  0
SPLINE
  5
355
100
AcDbEntity
  8
0
100
AcDbSpline
 62
7
  6
BYLAYER
 70
0
 71
3
 72
15
 73
11
 74
0
 42
0.0000001
 43
0.0000001
 44
0.0000000001
 40
0.0
 40
0.0
 40
0.0
 40
0.0
 40
0.0968690865
 40
0.2031319719
 40
0.3188211573
 40
0.4432948579
 40
0.575360014
 40
0.713426432
 40
0.8556630212
 40
1.0
 40
1.0
 40
1.0
 40
1.0
 10
50.4847408217
 20
108.0258238174
 30
0.0
 10
50.5049608449
 20
108.0510481282
 30
0.0
 10
50.5527385134
 20
108.0997324962
 30
0.0
 10
50.63861166
 20
108.1631231896
 30
0.0
 10
50.74013563
 20
108.2190480541
 30
0.0
 10
50.8552196169
 20
108.2664164075
 30
0.0
 10
50.9815478478
 20
108.3042970119
 30
0.0
 10
51.116539316
 20
108.3319318805
 30
0.0
 10
51.257403897
 20
108.3487396102
 30
0.0
 10
51.3530862002
 20
108.3524938221
 30
0.0
 10
51.4012559607
 20
108.3524938221
 30
0.0
  0
SPLINE
  5
356
100
AcDbEntity
  8
0
100
AcDbSpline
 62
7
  6
BYLAYER
 70
0
 71
3
 72
15
 73
11
 74
0
 42
0.0000001
 43
0.0000001
 44
0.0000000001
 40
0.0
 40
0.0
 40
0.0
 40
0.0
 40
0.1443369788
 40
0.286573568
 40
0.424639986
 40
0.5567051421
 40
0.6811788427
 40
0.7968680281
 40
0.9031309135
 40
1.0
 40
1.0
 40
1.0
 40
1.0
 10
51.4012559607
 20
108.3524938221
 30
0.0
 10
51.4494257212
 20
108.3524938221
 30
0.0
 10
51.5451080244
 20
108.3487396102
 30
0.0
 10
51.6859726054
 20
108.3319318805
 30
0.0
 10
51.8209640736
 20
108.3042970119
 30
0.0
 10
51.9472923046
 20
108.2664164075
 30
0.0
 10
52.0623762914
 20
108.2190480541
 30
0.0
 10
52.1639002614
 20
108.1631231896
 30
0.0
 10
52.249773408
 20
108.0997324962
 30
0.0
 10
52.2975510765
 20
108.0510481282
 30
0.0
 10
52.3177710997
 20
108.0258238174
 30
0.0
  0
SPLINE
  5
357
100
AcDbEntity
  8
0
100
AcDbSpline
 62
7
  6
BYLAYER
 70
0
 71
3
 72
15
 73
11
 74
0
 42
0.0000001
 43
0.0000001
 44
0.0000000001
 40
0.0
 40
0.0
 40
0.0
 40
0.0
 40
0.0968690865
 40
0.2031319719
 40
0.3188211573
 40
0.4432948579
 40
0.575360014
 40
0.713426432
 40
0.8556630212
 40
1.0
 40
1.0
 40
1.0
 40
1.0
 10
52.3177710997
 20
108.445220464
 30
0.0
 10
52.2975510765
 20
108.4704447749
 30
0.0
 10
52.249773408
 20
108.5191291429
 30
0.0
 10
52.1639002614
 20
108.5825198363
 30
0.0
 10
52.0623762914
 20
108.6384447007
 30
0.0
 10
51.9472923046
 20
108.6858130542
 30
0.0
 10
51.8209640736
 20
108.7236936586
 30
0.0
 10
51.6859726054
 20
108.7513285271
 30
0.0
 10
51.5451080244
 20
108.7681362569
 30
0.0
 10
51.4494257212
 20
108.7718904688
 30
0.0
 10
51.4012559607
 20
108.7718904688
 30
0.0
  0
SPLINE
  5
358
100
AcDbEntity
  8
0
100
AcDbSpline
 62
7
  6
BYLAYER
 70
0
 71
3
 72
15
 73
11
 74
0
 42
0.0000001
 43
0.0000001
 44
0.0000000001
 40
0.0
 40
0.0
 40
0.0
 40
0.0
 40
0.1443369788
 40
0.286573568
 40
0.424639986
 40
0.5567051421
 40
0.6811788427
 40
0.7968680281
 40
0.9031309135
 40
1.0
 40
1.0
 40
1.0
 40
1.0
 10
51.4012559607
 20
108.7718904688
 30
0.0
 10
51.3530862002
 20
108.7718904688
 30
0.0
 10
51.257403897
 20
108.7681362569
 30
0.0
 10
51.116539316
 20
108.7513285271
 30
0.0
 10
50.9815478478
 20
108.7236936586
 30
0.0
 10
50.8552196169
 20
108.6858130542
 30
0.0
 10
50.74013563
 20
108.6384447007
 30
0.0
 10
50.63861166
 20
108.5825198363
 30
0.0
 10
50.5527385134
 20
108.5191291429
 30
0.0
 10
50.5049608449
 20
108.4704447748
 30
0.0
 10
50.4847408217
 20
108.445220464
 30
0.0
  0
SPLINE
  5
359
100
AcDbEntity
  8
0
100
AcDbSpline
 62
7
  6
BYLAYER
 70
0
 71
3
 72
12
 73
8
 74
0
 42
0.0000001
 43
0.0000001
 44
0.0000000001
 40
0.0
 40
0.0
 40
0.0
 40
0.0
 40
0.2854413263
 40
0.5492660195
 40
0.6718801653
 40
0.7879245097
 40
1.0
 40
1.0
 40
1.0
 40
1.0
 10
56.8012559613
 20
107.7284437864
 30
0.0
 10
56.8565845006
 20
107.7415908137
 30
0.0
 10
56.9617787391
 20
107.7727891979
 30
0.0
 10
57.0845927432
 20
107.8272400566
 30
0.0
 10
57.1707432017
 20
107.8784869925
 30
0.0
 10
57.243680016
 20
107.9309457199
 30
0.0
 10
57.291344009
 20
107.9766928818
 30
0.0
 10
57.3177710997
 20
108.0096604578
 30
0.0
  0
SPLINE
  5
35A
100
AcDbEntity
  8
0
100
AcDbSpline
 62
7
  6
BYLAYER
 70
0
 71
3
 72
12
 73
8
 74
0
 42
0.0000001
 43
0.0000001
 44
0.0000000001
 40
0.0
 40
0.0
 40
0.0
 40
0.0
 40
0.2120754903
 40
0.3281198347
 40
0.4507339805
 40
0.7145586737
 40
1.0
 40
1.0
 40
1.0
 40
1.0
 10
55.4847408229
 20
108.0096604578
 30
0.0
 10
55.5111679136
 20
107.9766928818
 30
0.0
 10
55.5588319065
 20
107.9309457199
 30
0.0
 10
55.6317687209
 20
107.8784869925
 30
0.0
 10
55.7179191794
 20
107.8272400566
 30
0.0
 10
55.8407331835
 20
107.7727891979
 30
0.0
 10
55.945927422
 20
107.7415908137
 30
0.0
 10
56.0012559613
 20
107.7284437864
 30
0.0
  0
SPLINE
  5
35B
100
AcDbEntity
  8
0
100
AcDbSpline
 62
7
  6
BYLAYER
 70
0
 71
3
 72
15
 73
11
 74
0
 42
0.0000001
 43
0.0000001
 44
0.0000000001
 40
0.0
 40
0.0
 40
0.0
 40
0.0
 40
0.0968690865
 40
0.2031319719
 40
0.3188211573
 40
0.4432948579
 40
0.575360014
 40
0.713426432
 40
0.8556630212
 40
1.0
 40
1.0
 40
1.0
 40
1.0
 10
55.4847408217
 20
108.0258238174
 30
0.0
 10
55.5049608449
 20
108.0510481282
 30
0.0
 10
55.5527385134
 20
108.0997324962
 30
0.0
 10
55.63861166
 20
108.1631231896
 30
0.0
 10
55.74013563
 20
108.2190480541
 30
0.0
 10
55.8552196169
 20
108.2664164075
 30
0.0
 10
55.9815478478
 20
108.3042970119
 30
0.0
 10
56.116539316
 20
108.3319318805
 30
0.0
 10
56.257403897
 20
108.3487396102
 30
0.0
 10
56.3530862002
 20
108.3524938221
 30
0.0
 10
56.4012559607
 20
108.3524938221
 30
0.0
  0
SPLINE
  5
35C
100
AcDbEntity
  8
0
100
AcDbSpline
 62
7
  6
BYLAYER
 70
0
 71
3
 72
15
 73
11
 74
0
 42
0.0000001
 43
0.0000001
 44
0.0000000001
 40
0.0
 40
0.0
 40
0.0
 40
0.0
 40
0.1443369788
 40
0.286573568
 40
0.424639986
 40
0.5567051421
 40
0.6811788427
 40
0.7968680281
 40
0.9031309135
 40
1.0
 40
1.0
 40
1.0
 40
1.0
 10
56.4012559607
 20
108.3524938221
 30
0.0
 10
56.4494257212
 20
108.3524938221
 30
0.0
 10
56.5451080244
 20
108.3487396102
 30
0.0
 10
56.6859726054
 20
108.3319318805
 30
0.0
 10
56.8209640736
 20
108.3042970119
 30
0.0
 10
56.9472923046
 20
108.2664164075
 30
0.0
 10
57.0623762914
 20
108.2190480541
 30
0.0
 10
57.1639002614
 20
108.1631231896
 30
0.0
 10
57.249773408
 20
108.0997324962
 30
0.0
 10
57.2975510765
 20
108.0510481282
 30
0.0
 10
57.3177710997
 20
108.0258238174
 30
0.0
  0
SPLINE
  5
35D
100
AcDbEntity
  8
0
100
AcDbSpline
 62
7
  6
BYLAYER
 70
0
 71
3
 72
15
 73
11
 74
0
 42
0.0000001
 43
0.0000001
 44
0.0000000001
 40
0.0
 40
0.0
 40
0.0
 40
0.0
 40
0.0968690865
 40
0.2031319719
 40
0.3188211573
 40
0.4432948579
 40
0.575360014
 40
0.713426432
 40
0.8556630212
 40
1.0
 40
1.0
 40
1.0
 40
1.0
 10
57.3177710997
 20
108.445220464
 30
0.0
 10
57.2975510765
 20
108.4704447749
 30
0.0
 10
57.249773408
 20
108.5191291429
 30
0.0
 10
57.1639002614
 20
108.5825198363
 30
0.0
 10
57.0623762914
 20
108.6384447007
 30
0.0
 10
56.9472923046
 20
108.6858130542
 30
0.0
 10
56.8209640736
 20
108.7236936586
 30
0.0
 10
56.6859726054
 20
108.7513285271
 30
0.0
 10
56.5451080244
 20
108.7681362569
 30
0.0
 10
56.4494257212
 20
108.7718904688
 30
0.0
 10
56.4012559607
 20
108.7718904688
 30
0.0
  0
SPLINE
  5
35E
100
AcDbEntity
  8
0
100
AcDbSpline
 62
7
  6
BYLAYER
 70
0
 71
3
 72
15
 73
11
 74
0
 42
0.0000001
 43
0.0000001
 44
0.0000000001
 40
0.0
 40
0.0
 40
0.0
 40
0.0
 40
0.1443369788
 40
0.286573568
 40
0.424639986
 40
0.5567051421
 40
0.6811788427
 40
0.7968680281
 40
0.9031309135
 40
1.0
 40
1.0
 40
1.0
 40
1.0
 10
56.4012559607
 20
108.7718904688
 30
0.0
 10
56.3530862002
 20
108.7718904688
 30
0.0
 10
56.257403897
 20
108.7681362569
 30
0.0
 10
56.116539316
 20
108.7513285271
 30
0.0
 10
55.9815478478
 20
108.7236936586
 30
0.0
 10
55.8552196169
 20
108.6858130542
 30
0.0
 10
55.74013563
 20
108.6384447007
 30
0.0
 10
55.63861166
 20
108.5825198363
 30
0.0
 10
55.5527385134
 20
108.5191291429
 30
0.0
 10
55.5049608449
 20
108.4704447748
 30
0.0
 10
55.4847408217
 20
108.445220464
 30
0.0
  0
SPLINE
  5
35F
100
AcDbEntity
  8
0
100
AcDbSpline
 62
7
  6
BYLAYER
 70
0
 71
3
 72
12
 73
8
 74
0
 42
0.0000001
 43
0.0000001
 44
0.0000000001
 40
0.0
 40
0.0
 40
0.0
 40
0.0
 40
0.2854413263
 40
0.5492660195
 40
0.6718801653
 40
0.7879245097
 40
1.0
 40
1.0
 40
1.0
 40
1.0
 10
41.8012559613
 20
86.127982386
 30
0.0
 10
41.8565845006
 20
86.1411294132
 30
0.0
 10
41.9617787391
 20
86.1723277975
 30
0.0
 10
42.0845927432
 20
86.2267786562
 30
0.0
 10
42.1707432017
 20
86.2780255921
 30
0.0
 10
42.243680016
 20
86.3304843195
 30
0.0
 10
42.291344009
 20
86.3762314814
 30
0.0
 10
42.3177710997
 20
86.4091990574
 30
0.0
  0
SPLINE
  5
360
100
AcDbEntity
  8
0
100
AcDbSpline
 62
7
  6
BYLAYER
 70
0
 71
3
 72
12
 73
8
 74
0
 42
0.0000001
 43
0.0000001
 44
0.0000000001
 40
0.0
 40
0.0
 40
0.0
 40
0.0
 40
0.2120754903
 40
0.3281198347
 40
0.4507339805
 40
0.7145586737
 40
1.0
 40
1.0
 40
1.0
 40
1.0
 10
40.4847408229
 20
86.4091990574
 30
0.0
 10
40.5111679136
 20
86.3762314814
 30
0.0
 10
40.5588319065
 20
86.3304843195
 30
0.0
 10
40.6317687209
 20
86.2780255921
 30
0.0
 10
40.7179191794
 20
86.2267786562
 30
0.0
 10
40.8407331835
 20
86.1723277975
 30
0.0
 10
40.945927422
 20
86.1411294132
 30
0.0
 10
41.0012559613
 20
86.127982386
 30
0.0
  0
SPLINE
  5
361
100
AcDbEntity
  8
0
100
AcDbSpline
 62
7
  6
BYLAYER
 70
0
 71
3
 72
15
 73
11
 74
0
 42
0.0000001
 43
0.0000001
 44
0.0000000001
 40
0.0
 40
0.0
 40
0.0
 40
0.0
 40
0.0968690865
 40
0.2031319719
 40
0.3188211573
 40
0.4432948579
 40
0.575360014
 40
0.713426432
 40
0.8556630212
 40
1.0
 40
1.0
 40
1.0
 40
1.0
 10
40.4847408217
 20
86.425362417
 30
0.0
 10
40.5049608449
 20
86.4505867278
 30
0.0
 10
40.5527385134
 20
86.4992710958
 30
0.0
 10
40.63861166
 20
86.5626617892
 30
0.0
 10
40.74013563
 20
86.6185866537
 30
0.0
 10
40.8552196169
 20
86.6659550071
 30
0.0
 10
40.9815478478
 20
86.7038356115
 30
0.0
 10
41.116539316
 20
86.7314704801
 30
0.0
 10
41.257403897
 20
86.7482782098
 30
0.0
 10
41.3530862002
 20
86.7520324217
 30
0.0
 10
41.4012559607
 20
86.7520324217
 30
0.0
  0
SPLINE
  5
362
100
AcDbEntity
  8
0
100
AcDbSpline
 62
7
  6
BYLAYER
 70
0
 71
3
 72
15
 73
11
 74
0
 42
0.0000001
 43
0.0000001
 44
0.0000000001
 40
0.0
 40
0.0
 40
0.0
 40
0.0
 40
0.1443369788
 40
0.286573568
 40
0.424639986
 40
0.5567051421
 40
0.6811788427
 40
0.7968680281
 40
0.9031309135
 40
1.0
 40
1.0
 40
1.0
 40
1.0
 10
41.4012559607
 20
86.7520324217
 30
0.0
 10
41.4494257212
 20
86.7520324217
 30
0.0
 10
41.5451080244
 20
86.7482782098
 30
0.0
 10
41.6859726054
 20
86.7314704801
 30
0.0
 10
41.8209640736
 20
86.7038356115
 30
0.0
 10
41.9472923046
 20
86.6659550071
 30
0.0
 10
42.0623762914
 20
86.6185866537
 30
0.0
 10
42.1639002614
 20
86.5626617892
 30
0.0
 10
42.249773408
 20
86.4992710958
 30
0.0
 10
42.2975510765
 20
86.4505867278
 30
0.0
 10
42.3177710997
 20
86.425362417
 30
0.0
  0
SPLINE
  5
363
100
AcDbEntity
  8
0
100
AcDbSpline
 62
7
  6
BYLAYER
 70
0
 71
3
 72
15
 73
11
 74
0
 42
0.0000001
 43
0.0000001
 44
0.0000000001
 40
0.0
 40
0.0
 40
0.0
 40
0.0
 40
0.0968690865
 40
0.2031319719
 40
0.3188211573
 40
0.4432948579
 40
0.575360014
 40
0.713426432
 40
0.8556630212
 40
1.0
 40
1.0
 40
1.0
 40
1.0
 10
42.3177710997
 20
86.8447590636
 30
0.0
 10
42.2975510765
 20
86.8699833744
 30
0.0
 10
42.249773408
 20
86.9186677425
 30
0.0
 10
42.1639002614
 20
86.9820584359
 30
0.0
 10
42.0623762914
 20
87.0379833003
 30
0.0
 10
41.9472923046
 20
87.0853516538
 30
0.0
 10
41.8209640736
 20
87.1232322582
 30
0.0
 10
41.6859726054
 20
87.1508671267
 30
0.0
 10
41.5451080244
 20
87.1676748565
 30
0.0
 10
41.4494257212
 20
87.1714290684
 30
0.0
 10
41.4012559607
 20
87.1714290684
 30
0.0
  0
SPLINE
  5
364
100
AcDbEntity
  8
0
100
AcDbSpline
 62
7
  6
BYLAYER
 70
0
 71
3
 72
15
 73
11
 74
0
 42
0.0000001
 43
0.0000001
 44
0.0000000001
 40
0.0
 40
0.0
 40
0.0
 40
0.0
 40
0.1443369788
 40
0.286573568
 40
0.424639986
 40
0.5567051421
 40
0.6811788427
 40
0.7968680281
 40
0.9031309135
 40
1.0
 40
1.0
 40
1.0
 40
1.0
 10
41.4012559607
 20
87.1714290684
 30
0.0
 10
41.3530862002
 20
87.1714290684
 30
0.0
 10
41.257403897
 20
87.1676748565
 30
0.0
 10
41.116539316
 20
87.1508671267
 30
0.0
 10
40.9815478478
 20
87.1232322582
 30
0.0
 10
40.8552196169
 20
87.0853516538
 30
0.0
 10
40.74013563
 20
87.0379833003
 30
0.0
 10
40.63861166
 20
86.9820584359
 30
0.0
 10
40.5527385134
 20
86.9186677425
 30
0.0
 10
40.5049608449
 20
86.8699833744
 30
0.0
 10
40.4847408217
 20
86.8447590636
 30
0.0
  0
SPLINE
  5
365
100
AcDbEntity
  8
0
100
AcDbSpline
 62
7
  6
BYLAYER
 70
0
 71
3
 72
12
 73
8
 74
0
 42
0.0000001
 43
0.0000001
 44
0.0000000001
 40
0.0
 40
0.0
 40
0.0
 40
0.0
 40
0.2854413263
 40
0.5492660195
 40
0.6718801653
 40
0.7879245097
 40
1.0
 40
1.0
 40
1.0
 40
1.0
 10
46.8012559613
 20
86.127982386
 30
0.0
 10
46.8565845006
 20
86.1411294132
 30
0.0
 10
46.9617787391
 20
86.1723277975
 30
0.0
 10
47.0845927432
 20
86.2267786562
 30
0.0
 10
47.1707432017
 20
86.2780255921
 30
0.0
 10
47.243680016
 20
86.3304843195
 30
0.0
 10
47.291344009
 20
86.3762314814
 30
0.0
 10
47.3177710997
 20
86.4091990574
 30
0.0
  0
SPLINE
  5
366
100
AcDbEntity
  8
0
100
AcDbSpline
 62
7
  6
BYLAYER
 70
0
 71
3
 72
12
 73
8
 74
0
 42
0.0000001
 43
0.0000001
 44
0.0000000001
 40
0.0
 40
0.0
 40
0.0
 40
0.0
 40
0.2120754903
 40
0.3281198347
 40
0.4507339805
 40
0.7145586737
 40
1.0
 40
1.0
 40
1.0
 40
1.0
 10
45.4847408229
 20
86.4091990574
 30
0.0
 10
45.5111679136
 20
86.3762314814
 30
0.0
 10
45.5588319065
 20
86.3304843195
 30
0.0
 10
45.6317687209
 20
86.2780255921
 30
0.0
 10
45.7179191794
 20
86.2267786562
 30
0.0
 10
45.8407331835
 20
86.1723277975
 30
0.0
 10
45.945927422
 20
86.1411294132
 30
0.0
 10
46.0012559613
 20
86.127982386
 30
0.0
  0
SPLINE
  5
367
100
AcDbEntity
  8
0
100
AcDbSpline
 62
7
  6
BYLAYER
 70
0
 71
3
 72
15
 73
11
 74
0
 42
0.0000001
 43
0.0000001
 44
0.0000000001
 40
0.0
 40
0.0
 40
0.0
 40
0.0
 40
0.0968690865
 40
0.2031319719
 40
0.3188211573
 40
0.4432948579
 40
0.575360014
 40
0.713426432
 40
0.8556630212
 40
1.0
 40
1.0
 40
1.0
 40
1.0
 10
45.4847408217
 20
86.425362417
 30
0.0
 10
45.5049608449
 20
86.4505867278
 30
0.0
 10
45.5527385134
 20
86.4992710958
 30
0.0
 10
45.63861166
 20
86.5626617892
 30
0.0
 10
45.74013563
 20
86.6185866537
 30
0.0
 10
45.8552196169
 20
86.6659550071
 30
0.0
 10
45.9815478478
 20
86.7038356115
 30
0.0
 10
46.116539316
 20
86.7314704801
 30
0.0
 10
46.257403897
 20
86.7482782098
 30
0.0
 10
46.3530862002
 20
86.7520324217
 30
0.0
 10
46.4012559607
 20
86.7520324217
 30
0.0
  0
SPLINE
  5
368
100
AcDbEntity
  8
0
100
AcDbSpline
 62
7
  6
BYLAYER
 70
0
 71
3
 72
15
 73
11
 74
0
 42
0.0000001
 43
0.0000001
 44
0.0000000001
 40
0.0
 40
0.0
 40
0.0
 40
0.0
 40
0.1443369788
 40
0.286573568
 40
0.424639986
 40
0.5567051421
 40
0.6811788427
 40
0.7968680281
 40
0.9031309135
 40
1.0
 40
1.0
 40
1.0
 40
1.0
 10
46.4012559607
 20
86.7520324217
 30
0.0
 10
46.4494257212
 20
86.7520324217
 30
0.0
 10
46.5451080244
 20
86.7482782098
 30
0.0
 10
46.6859726054
 20
86.7314704801
 30
0.0
 10
46.8209640736
 20
86.7038356115
 30
0.0
 10
46.9472923046
 20
86.6659550071
 30
0.0
 10
47.0623762914
 20
86.6185866537
 30
0.0
 10
47.1639002614
 20
86.5626617892
 30
0.0
 10
47.249773408
 20
86.4992710958
 30
0.0
 10
47.2975510765
 20
86.4505867278
 30
0.0
 10
47.3177710997
 20
86.425362417
 30
0.0
  0
SPLINE
  5
369
100
AcDbEntity
  8
0
100
AcDbSpline
 62
7
  6
BYLAYER
 70
0
 71
3
 72
15
 73
11
 74
0
 42
0.0000001
 43
0.0000001
 44
0.0000000001
 40
0.0
 40
0.0
 40
0.0
 40
0.0
 40
0.0968690865
 40
0.2031319719
 40
0.3188211573
 40
0.4432948579
 40
0.575360014
 40
0.713426432
 40
0.8556630212
 40
1.0
 40
1.0
 40
1.0
 40
1.0
 10
47.3177710997
 20
86.8447590636
 30
0.0
 10
47.2975510765
 20
86.8699833744
 30
0.0
 10
47.249773408
 20
86.9186677425
 30
0.0
 10
47.1639002614
 20
86.9820584359
 30
0.0
 10
47.0623762914
 20
87.0379833003
 30
0.0
 10
46.9472923046
 20
87.0853516538
 30
0.0
 10
46.8209640736
 20
87.1232322582
 30
0.0
 10
46.6859726054
 20
87.1508671267
 30
0.0
 10
46.5451080244
 20
87.1676748565
 30
0.0
 10
46.4494257212
 20
87.1714290684
 30
0.0
 10
46.4012559607
 20
87.1714290684
 30
0.0
  0
SPLINE
  5
36A
100
AcDbEntity
  8
0
100
AcDbSpline
 62
7
  6
BYLAYER
 70
0
 71
3
 72
15
 73
11
 74
0
 42
0.0000001
 43
0.0000001
 44
0.0000000001
 40
0.0
 40
0.0
 40
0.0
 40
0.0
 40
0.1443369788
 40
0.286573568
 40
0.424639986
 40
0.5567051421
 40
0.6811788427
 40
0.7968680281
 40
0.9031309135
 40
1.0
 40
1.0
 40
1.0
 40
1.0
 10
46.4012559607
 20
87.1714290684
 30
0.0
 10
46.3530862002
 20
87.1714290684
 30
0.0
 10
46.257403897
 20
87.1676748565
 30
0.0
 10
46.116539316
 20
87.1508671267
 30
0.0
 10
45.9815478478
 20
87.1232322582
 30
0.0
 10
45.8552196169
 20
87.0853516538
 30
0.0
 10
45.74013563
 20
87.0379833003
 30
0.0
 10
45.63861166
 20
86.9820584359
 30
0.0
 10
45.5527385134
 20
86.9186677425
 30
0.0
 10
45.5049608449
 20
86.8699833744
 30
0.0
 10
45.4847408217
 20
86.8447590636
 30
0.0
  0
SPLINE
  5
36B
100
AcDbEntity
  8
0
100
AcDbSpline
 62
7
  6
BYLAYER
 70
0
 71
3
 72
12
 73
8
 74
0
 42
0.0000001
 43
0.0000001
 44
0.0000000001
 40
0.0
 40
0.0
 40
0.0
 40
0.0
 40
0.2854413263
 40
0.5492660195
 40
0.6718801653
 40
0.7879245097
 40
1.0
 40
1.0
 40
1.0
 40
1.0
 10
51.8012559613
 20
86.127982386
 30
0.0
 10
51.8565845006
 20
86.1411294132
 30
0.0
 10
51.9617787391
 20
86.1723277975
 30
0.0
 10
52.0845927432
 20
86.2267786562
 30
0.0
 10
52.1707432017
 20
86.2780255921
 30
0.0
 10
52.243680016
 20
86.3304843195
 30
0.0
 10
52.291344009
 20
86.3762314814
 30
0.0
 10
52.3177710997
 20
86.4091990574
 30
0.0
  0
SPLINE
  5
36C
100
AcDbEntity
  8
0
100
AcDbSpline
 62
7
  6
BYLAYER
 70
0
 71
3
 72
12
 73
8
 74
0
 42
0.0000001
 43
0.0000001
 44
0.0000000001
 40
0.0
 40
0.0
 40
0.0
 40
0.0
 40
0.2120754903
 40
0.3281198347
 40
0.4507339805
 40
0.7145586737
 40
1.0
 40
1.0
 40
1.0
 40
1.0
 10
50.4847408229
 20
86.4091990574
 30
0.0
 10
50.5111679136
 20
86.3762314814
 30
0.0
 10
50.5588319065
 20
86.3304843195
 30
0.0
 10
50.6317687209
 20
86.2780255921
 30
0.0
 10
50.7179191794
 20
86.2267786562
 30
0.0
 10
50.8407331835
 20
86.1723277975
 30
0.0
 10
50.945927422
 20
86.1411294132
 30
0.0
 10
51.0012559613
 20
86.127982386
 30
0.0
  0
SPLINE
  5
36D
100
AcDbEntity
  8
0
100
AcDbSpline
 62
7
  6
BYLAYER
 70
0
 71
3
 72
15
 73
11
 74
0
 42
0.0000001
 43
0.0000001
 44
0.0000000001
 40
0.0
 40
0.0
 40
0.0
 40
0.0
 40
0.0968690865
 40
0.2031319719
 40
0.3188211573
 40
0.4432948579
 40
0.575360014
 40
0.713426432
 40
0.8556630212
 40
1.0
 40
1.0
 40
1.0
 40
1.0
 10
50.4847408217
 20
86.425362417
 30
0.0
 10
50.5049608449
 20
86.4505867278
 30
0.0
 10
50.5527385134
 20
86.4992710958
 30
0.0
 10
50.63861166
 20
86.5626617892
 30
0.0
 10
50.74013563
 20
86.6185866537
 30
0.0
 10
50.8552196169
 20
86.6659550071
 30
0.0
 10
50.9815478478
 20
86.7038356115
 30
0.0
 10
51.116539316
 20
86.7314704801
 30
0.0
 10
51.257403897
 20
86.7482782098
 30
0.0
 10
51.3530862002
 20
86.7520324217
 30
0.0
 10
51.4012559607
 20
86.7520324217
 30
0.0
  0
SPLINE
  5
36E
100
AcDbEntity
  8
0
100
AcDbSpline
 62
7
  6
BYLAYER
 70
0
 71
3
 72
15
 73
11
 74
0
 42
0.0000001
 43
0.0000001
 44
0.0000000001
 40
0.0
 40
0.0
 40
0.0
 40
0.0
 40
0.1443369788
 40
0.286573568
 40
0.424639986
 40
0.5567051421
 40
0.6811788427
 40
0.7968680281
 40
0.9031309135
 40
1.0
 40
1.0
 40
1.0
 40
1.0
 10
51.4012559607
 20
86.7520324217
 30
0.0
 10
51.4494257212
 20
86.7520324217
 30
0.0
 10
51.5451080244
 20
86.7482782098
 30
0.0
 10
51.6859726054
 20
86.7314704801
 30
0.0
 10
51.8209640736
 20
86.7038356115
 30
0.0
 10
51.9472923046
 20
86.6659550071
 30
0.0
 10
52.0623762914
 20
86.6185866537
 30
0.0
 10
52.1639002614
 20
86.5626617892
 30
0.0
 10
52.249773408
 20
86.4992710958
 30
0.0
 10
52.2975510765
 20
86.4505867278
 30
0.0
 10
52.3177710997
 20
86.425362417
 30
0.0
  0
SPLINE
  5
36F
100
AcDbEntity
  8
0
100
AcDbSpline
 62
7
  6
BYLAYER
 70
0
 71
3
 72
15
 73
11
 74
0
 42
0.0000001
 43
0.0000001
 44
0.0000000001
 40
0.0
 40
0.0
 40
0.0
 40
0.0
 40
0.0968690865
 40
0.2031319719
 40
0.3188211573
 40
0.4432948579
 40
0.575360014
 40
0.713426432
 40
0.8556630212
 40
1.0
 40
1.0
 40
1.0
 40
1.0
 10
52.3177710997
 20
86.8447590636
 30
0.0
 10
52.2975510765
 20
86.8699833744
 30
0.0
 10
52.249773408
 20
86.9186677425
 30
0.0
 10
52.1639002614
 20
86.9820584359
 30
0.0
 10
52.0623762914
 20
87.0379833003
 30
0.0
 10
51.9472923046
 20
87.0853516538
 30
0.0
 10
51.8209640736
 20
87.1232322582
 30
0.0
 10
51.6859726054
 20
87.1508671267
 30
0.0
 10
51.5451080244
 20
87.1676748565
 30
0.0
 10
51.4494257212
 20
87.1714290684
 30
0.0
 10
51.4012559607
 20
87.1714290684
 30
0.0
  0
SPLINE
  5
370
100
AcDbEntity
  8
0
100
AcDbSpline
 62
7
  6
BYLAYER
 70
0
 71
3
 72
15
 73
11
 74
0
 42
0.0000001
 43
0.0000001
 44
0.0000000001
 40
0.0
 40
0.0
 40
0.0
 40
0.0
 40
0.1443369788
 40
0.286573568
 40
0.424639986
 40
0.5567051421
 40
0.6811788427
 40
0.7968680281
 40
0.9031309135
 40
1.0
 40
1.0
 40
1.0
 40
1.0
 10
51.4012559607
 20
87.1714290684
 30
0.0
 10
51.3530862002
 20
87.1714290684
 30
0.0
 10
51.257403897
 20
87.1676748565
 30
0.0
 10
51.116539316
 20
87.1508671267
 30
0.0
 10
50.9815478478
 20
87.1232322582
 30
0.0
 10
50.8552196169
 20
87.0853516538
 30
0.0
 10
50.74013563
 20
87.0379833003
 30
0.0
 10
50.63861166
 20
86.9820584359
 30
0.0
 10
50.5527385134
 20
86.9186677425
 30
0.0
 10
50.5049608449
 20
86.8699833744
 30
0.0
 10
50.4847408217
 20
86.8447590636
 30
0.0
  0
SPLINE
  5
371
100
AcDbEntity
  8
0
100
AcDbSpline
 62
7
  6
BYLAYER
 70
0
 71
3
 72
12
 73
8
 74
0
 42
0.0000001
 43
0.0000001
 44
0.0000000001
 40
0.0
 40
0.0
 40
0.0
 40
0.0
 40
0.2854413263
 40
0.5492660195
 40
0.6718801653
 40
0.7879245097
 40
1.0
 40
1.0
 40
1.0
 40
1.0
 10
56.8012559613
 20
86.127982386
 30
0.0
 10
56.8565845006
 20
86.1411294132
 30
0.0
 10
56.9617787391
 20
86.1723277975
 30
0.0
 10
57.0845927432
 20
86.2267786562
 30
0.0
 10
57.1707432017
 20
86.2780255921
 30
0.0
 10
57.243680016
 20
86.3304843195
 30
0.0
 10
57.291344009
 20
86.3762314814
 30
0.0
 10
57.3177710997
 20
86.4091990574
 30
0.0
  0
SPLINE
  5
372
100
AcDbEntity
  8
0
100
AcDbSpline
 62
7
  6
BYLAYER
 70
0
 71
3
 72
12
 73
8
 74
0
 42
0.0000001
 43
0.0000001
 44
0.0000000001
 40
0.0
 40
0.0
 40
0.0
 40
0.0
 40
0.2120754903
 40
0.3281198347
 40
0.4507339805
 40
0.7145586737
 40
1.0
 40
1.0
 40
1.0
 40
1.0
 10
55.4847408229
 20
86.4091990574
 30
0.0
 10
55.5111679136
 20
86.3762314814
 30
0.0
 10
55.5588319065
 20
86.3304843195
 30
0.0
 10
55.6317687209
 20
86.2780255921
 30
0.0
 10
55.7179191794
 20
86.2267786562
 30
0.0
 10
55.8407331835
 20
86.1723277975
 30
0.0
 10
55.945927422
 20
86.1411294132
 30
0.0
 10
56.0012559613
 20
86.127982386
 30
0.0
  0
SPLINE
  5
373
100
AcDbEntity
  8
0
100
AcDbSpline
 62
7
  6
BYLAYER
 70
0
 71
3
 72
15
 73
11
 74
0
 42
0.0000001
 43
0.0000001
 44
0.0000000001
 40
0.0
 40
0.0
 40
0.0
 40
0.0
 40
0.0968690865
 40
0.2031319719
 40
0.3188211573
 40
0.4432948579
 40
0.575360014
 40
0.713426432
 40
0.8556630212
 40
1.0
 40
1.0
 40
1.0
 40
1.0
 10
55.4847408217
 20
86.425362417
 30
0.0
 10
55.5049608449
 20
86.4505867278
 30
0.0
 10
55.5527385134
 20
86.4992710958
 30
0.0
 10
55.63861166
 20
86.5626617892
 30
0.0
 10
55.74013563
 20
86.6185866537
 30
0.0
 10
55.8552196169
 20
86.6659550071
 30
0.0
 10
55.9815478478
 20
86.7038356115
 30
0.0
 10
56.116539316
 20
86.7314704801
 30
0.0
 10
56.257403897
 20
86.7482782098
 30
0.0
 10
56.3530862002
 20
86.7520324217
 30
0.0
 10
56.4012559607
 20
86.7520324217
 30
0.0
  0
SPLINE
  5
374
100
AcDbEntity
  8
0
100
AcDbSpline
 62
7
  6
BYLAYER
 70
0
 71
3
 72
15
 73
11
 74
0
 42
0.0000001
 43
0.0000001
 44
0.0000000001
 40
0.0
 40
0.0
 40
0.0
 40
0.0
 40
0.1443369788
 40
0.286573568
 40
0.424639986
 40
0.5567051421
 40
0.6811788427
 40
0.7968680281
 40
0.9031309135
 40
1.0
 40
1.0
 40
1.0
 40
1.0
 10
56.4012559607
 20
86.7520324217
 30
0.0
 10
56.4494257212
 20
86.7520324217
 30
0.0
 10
56.5451080244
 20
86.7482782098
 30
0.0
 10
56.6859726054
 20
86.7314704801
 30
0.0
 10
56.8209640736
 20
86.7038356115
 30
0.0
 10
56.9472923046
 20
86.6659550071
 30
0.0
 10
57.0623762914
 20
86.6185866537
 30
0.0
 10
57.1639002614
 20
86.5626617892
 30
0.0
 10
57.249773408
 20
86.4992710958
 30
0.0
 10
57.2975510765
 20
86.4505867278
 30
0.0
 10
57.3177710997
 20
86.425362417
 30
0.0
  0
SPLINE
  5
375
100
AcDbEntity
  8
0
100
AcDbSpline
 62
7
  6
BYLAYER
 70
0
 71
3
 72
15
 73
11
 74
0
 42
0.0000001
 43
0.0000001
 44
0.0000000001
 40
0.0
 40
0.0
 40
0.0
 40
0.0
 40
0.0968690865
 40
0.2031319719
 40
0.3188211573
 40
0.4432948579
 40
0.575360014
 40
0.713426432
 40
0.8556630212
 40
1.0
 40
1.0
 40
1.0
 40
1.0
 10
57.3177710997
 20
86.8447590636
 30
0.0
 10
57.2975510765
 20
86.8699833744
 30
0.0
 10
57.249773408
 20
86.9186677425
 30
0.0
 10
57.1639002614
 20
86.9820584359
 30
0.0
 10
57.0623762914
 20
87.0379833003
 30
0.0
 10
56.9472923046
 20
87.0853516538
 30
0.0
 10
56.8209640736
 20
87.1232322582
 30
0.0
 10
56.6859726054
 20
87.1508671267
 30
0.0
 10
56.5451080244
 20
87.1676748565
 30
0.0
 10
56.4494257212
 20
87.1714290684
 30
0.0
 10
56.4012559607
 20
87.1714290684
 30
0.0
  0
SPLINE
  5
376
100
AcDbEntity
  8
0
100
AcDbSpline
 62
7
  6
BYLAYER
 70
0
 71
3
 72
15
 73
11
 74
0
 42
0.0000001
 43
0.0000001
 44
0.0000000001
 40
0.0
 40
0.0
 40
0.0
 40
0.0
 40
0.1443369788
 40
0.286573568
 40
0.424639986
 40
0.5567051421
 40
0.6811788427
 40
0.7968680281
 40
0.9031309135
 40
1.0
 40
1.0
 40
1.0
 40
1.0
 10
56.4012559607
 20
87.1714290684
 30
0.0
 10
56.3530862002
 20
87.1714290684
 30
0.0
 10
56.257403897
 20
87.1676748565
 30
0.0
 10
56.116539316
 20
87.1508671267
 30
0.0
 10
55.9815478478
 20
87.1232322582
 30
0.0
 10
55.8552196169
 20
87.0853516538
 30
0.0
 10
55.74013563
 20
87.0379833003
 30
0.0
 10
55.63861166
 20
86.9820584359
 30
0.0
 10
55.5527385134
 20
86.9186677425
 30
0.0
 10
55.5049608449
 20
86.8699833744
 30
0.0
 10
55.4847408217
 20
86.8447590636
 30
0.0
  0
SPLINE
  5
377
100
AcDbEntity
  8
0
100
AcDbSpline
 62
7
  6
BYLAYER
 70
0
 71
3
 72
12
 73
8
 74
0
 42
0.0000001
 43
0.0000001
 44
0.0000000001
 40
0.0
 40
0.0
 40
0.0
 40
0.0
 40
0.2854413263
 40
0.5492660195
 40
0.6718801653
 40
0.7879245097
 40
1.0
 40
1.0
 40
1.0
 40
1.0
 10
41.8012559613
 20
64.4939679902
 30
0.0
 10
41.8565845006
 20
64.5071150174
 30
0.0
 10
41.9617787391
 20
64.5383134017
 30
0.0
 10
42.0845927432
 20
64.5927642604
 30
0.0
 10
42.1707432017
 20
64.6440111963
 30
0.0
 10
42.243680016
 20
64.6964699236
 30
0.0
 10
42.291344009
 20
64.7422170856
 30
0.0
 10
42.3177710997
 20
64.7751846615
 30
0.0
  0
SPLINE
  5
378
100
AcDbEntity
  8
0
100
AcDbSpline
 62
7
  6
BYLAYER
 70
0
 71
3
 72
12
 73
8
 74
0
 42
0.0000001
 43
0.0000001
 44
0.0000000001
 40
0.0
 40
0.0
 40
0.0
 40
0.0
 40
0.2120754903
 40
0.3281198347
 40
0.4507339805
 40
0.7145586737
 40
1.0
 40
1.0
 40
1.0
 40
1.0
 10
40.4847408229
 20
64.7751846616
 30
0.0
 10
40.5111679136
 20
64.7422170856
 30
0.0
 10
40.5588319065
 20
64.6964699237
 30
0.0
 10
40.6317687209
 20
64.6440111963
 30
0.0
 10
40.7179191794
 20
64.5927642604
 30
0.0
 10
40.8407331835
 20
64.5383134017
 30
0.0
 10
40.945927422
 20
64.5071150174
 30
0.0
 10
41.0012559613
 20
64.4939679902
 30
0.0
  0
SPLINE
  5
379
100
AcDbEntity
  8
0
100
AcDbSpline
 62
7
  6
BYLAYER
 70
0
 71
3
 72
15
 73
11
 74
0
 42
0.0000001
 43
0.0000001
 44
0.0000000001
 40
0.0
 40
0.0
 40
0.0
 40
0.0
 40
0.0968690865
 40
0.2031319719
 40
0.3188211573
 40
0.4432948579
 40
0.575360014
 40
0.713426432
 40
0.8556630212
 40
1.0
 40
1.0
 40
1.0
 40
1.0
 10
40.4847408217
 20
64.7913480212
 30
0.0
 10
40.5049608449
 20
64.816572332
 30
0.0
 10
40.5527385134
 20
64.8652567
 30
0.0
 10
40.63861166
 20
64.9286473934
 30
0.0
 10
40.74013563
 20
64.9845722579
 30
0.0
 10
40.8552196169
 20
65.0319406113
 30
0.0
 10
40.9815478478
 20
65.0698212157
 30
0.0
 10
41.116539316
 20
65.0974560843
 30
0.0
 10
41.257403897
 20
65.114263814
 30
0.0
 10
41.3530862002
 20
65.1180180259
 30
0.0
 10
41.4012559607
 20
65.1180180259
 30
0.0
  0
SPLINE
  5
37A
100
AcDbEntity
  8
0
100
AcDbSpline
 62
7
  6
BYLAYER
 70
0
 71
3
 72
15
 73
11
 74
0
 42
0.0000001
 43
0.0000001
 44
0.0000000001
 40
0.0
 40
0.0
 40
0.0
 40
0.0
 40
0.1443369788
 40
0.286573568
 40
0.424639986
 40
0.5567051421
 40
0.6811788427
 40
0.7968680281
 40
0.9031309135
 40
1.0
 40
1.0
 40
1.0
 40
1.0
 10
41.4012559607
 20
65.1180180259
 30
0.0
 10
41.4494257212
 20
65.1180180259
 30
0.0
 10
41.5451080244
 20
65.114263814
 30
0.0
 10
41.6859726054
 20
65.0974560843
 30
0.0
 10
41.8209640736
 20
65.0698212157
 30
0.0
 10
41.9472923046
 20
65.0319406113
 30
0.0
 10
42.0623762914
 20
64.9845722579
 30
0.0
 10
42.1639002614
 20
64.9286473934
 30
0.0
 10
42.249773408
 20
64.8652567
 30
0.0
 10
42.2975510765
 20
64.816572332
 30
0.0
 10
42.3177710997
 20
64.7913480212
 30
0.0
  0
SPLINE
  5
37B
100
AcDbEntity
  8
0
100
AcDbSpline
 62
7
  6
BYLAYER
 70
0
 71
3
 72
15
 73
11
 74
0
 42
0.0000001
 43
0.0000001
 44
0.0000000001
 40
0.0
 40
0.0
 40
0.0
 40
0.0
 40
0.0968690865
 40
0.2031319719
 40
0.3188211573
 40
0.4432948579
 40
0.575360014
 40
0.713426432
 40
0.8556630212
 40
1.0
 40
1.0
 40
1.0
 40
1.0
 10
42.3177710997
 20
65.2107446678
 30
0.0
 10
42.2975510765
 20
65.2359689786
 30
0.0
 10
42.249773408
 20
65.2846533467
 30
0.0
 10
42.1639002614
 20
65.3480440401
 30
0.0
 10
42.0623762914
 20
65.4039689045
 30
0.0
 10
41.9472923046
 20
65.451337258
 30
0.0
 10
41.8209640736
 20
65.4892178624
 30
0.0
 10
41.6859726054
 20
65.5168527309
 30
0.0
 10
41.5451080244
 20
65.5336604607
 30
0.0
 10
41.4494257212
 20
65.5374146725
 30
0.0
 10
41.4012559607
 20
65.5374146725
 30
0.0
  0
SPLINE
  5
37C
100
AcDbEntity
  8
0
100
AcDbSpline
 62
7
  6
BYLAYER
 70
0
 71
3
 72
15
 73
11
 74
0
 42
0.0000001
 43
0.0000001
 44
0.0000000001
 40
0.0
 40
0.0
 40
0.0
 40
0.0
 40
0.1443369788
 40
0.286573568
 40
0.424639986
 40
0.5567051421
 40
0.6811788427
 40
0.7968680281
 40
0.9031309135
 40
1.0
 40
1.0
 40
1.0
 40
1.0
 10
41.4012559607
 20
65.5374146725
 30
0.0
 10
41.3530862002
 20
65.5374146725
 30
0.0
 10
41.257403897
 20
65.5336604607
 30
0.0
 10
41.116539316
 20
65.5168527309
 30
0.0
 10
40.9815478478
 20
65.4892178624
 30
0.0
 10
40.8552196169
 20
65.451337258
 30
0.0
 10
40.74013563
 20
65.4039689045
 30
0.0
 10
40.63861166
 20
65.3480440401
 30
0.0
 10
40.5527385134
 20
65.2846533467
 30
0.0
 10
40.5049608449
 20
65.2359689786
 30
0.0
 10
40.4847408217
 20
65.2107446678
 30
0.0
  0
SPLINE
  5
37D
100
AcDbEntity
  8
0
100
AcDbSpline
 62
7
  6
BYLAYER
 70
0
 71
3
 72
12
 73
8
 74
0
 42
0.0000001
 43
0.0000001
 44
0.0000000001
 40
0.0
 40
0.0
 40
0.0
 40
0.0
 40
0.2854413263
 40
0.5492660195
 40
0.6718801653
 40
0.7879245097
 40
1.0
 40
1.0
 40
1.0
 40
1.0
 10
46.8012559613
 20
64.4939679902
 30
0.0
 10
46.8565845006
 20
64.5071150174
 30
0.0
 10
46.9617787391
 20
64.5383134017
 30
0.0
 10
47.0845927432
 20
64.5927642604
 30
0.0
 10
47.1707432017
 20
64.6440111963
 30
0.0
 10
47.243680016
 20
64.6964699236
 30
0.0
 10
47.291344009
 20
64.7422170856
 30
0.0
 10
47.3177710997
 20
64.7751846615
 30
0.0
  0
SPLINE
  5
37E
100
AcDbEntity
  8
0
100
AcDbSpline
 62
7
  6
BYLAYER
 70
0
 71
3
 72
12
 73
8
 74
0
 42
0.0000001
 43
0.0000001
 44
0.0000000001
 40
0.0
 40
0.0
 40
0.0
 40
0.0
 40
0.2120754903
 40
0.3281198347
 40
0.4507339805
 40
0.7145586737
 40
1.0
 40
1.0
 40
1.0
 40
1.0
 10
45.4847408229
 20
64.7751846616
 30
0.0
 10
45.5111679136
 20
64.7422170856
 30
0.0
 10
45.5588319065
 20
64.6964699237
 30
0.0
 10
45.6317687209
 20
64.6440111963
 30
0.0
 10
45.7179191794
 20
64.5927642604
 30
0.0
 10
45.8407331835
 20
64.5383134017
 30
0.0
 10
45.945927422
 20
64.5071150174
 30
0.0
 10
46.0012559613
 20
64.4939679902
 30
0.0
  0
SPLINE
  5
37F
100
AcDbEntity
  8
0
100
AcDbSpline
 62
7
  6
BYLAYER
 70
0
 71
3
 72
15
 73
11
 74
0
 42
0.0000001
 43
0.0000001
 44
0.0000000001
 40
0.0
 40
0.0
 40
0.0
 40
0.0
 40
0.0968690865
 40
0.2031319719
 40
0.3188211573
 40
0.4432948579
 40
0.575360014
 40
0.713426432
 40
0.8556630212
 40
1.0
 40
1.0
 40
1.0
 40
1.0
 10
45.4847408217
 20
64.7913480212
 30
0.0
 10
45.5049608449
 20
64.816572332
 30
0.0
 10
45.5527385134
 20
64.8652567
 30
0.0
 10
45.63861166
 20
64.9286473934
 30
0.0
 10
45.74013563
 20
64.9845722579
 30
0.0
 10
45.8552196169
 20
65.0319406113
 30
0.0
 10
45.9815478478
 20
65.0698212157
 30
0.0
 10
46.116539316
 20
65.0974560843
 30
0.0
 10
46.257403897
 20
65.114263814
 30
0.0
 10
46.3530862002
 20
65.1180180259
 30
0.0
 10
46.4012559607
 20
65.1180180259
 30
0.0
  0
SPLINE
  5
380
100
AcDbEntity
  8
0
100
AcDbSpline
 62
7
  6
BYLAYER
 70
0
 71
3
 72
15
 73
11
 74
0
 42
0.0000001
 43
0.0000001
 44
0.0000000001
 40
0.0
 40
0.0
 40
0.0
 40
0.0
 40
0.1443369788
 40
0.286573568
 40
0.424639986
 40
0.5567051421
 40
0.6811788427
 40
0.7968680281
 40
0.9031309135
 40
1.0
 40
1.0
 40
1.0
 40
1.0
 10
46.4012559607
 20
65.1180180259
 30
0.0
 10
46.4494257212
 20
65.1180180259
 30
0.0
 10
46.5451080244
 20
65.114263814
 30
0.0
 10
46.6859726054
 20
65.0974560843
 30
0.0
 10
46.8209640736
 20
65.0698212157
 30
0.0
 10
46.9472923046
 20
65.0319406113
 30
0.0
 10
47.0623762914
 20
64.9845722579
 30
0.0
 10
47.1639002614
 20
64.9286473934
 30
0.0
 10
47.249773408
 20
64.8652567
 30
0.0
 10
47.2975510765
 20
64.816572332
 30
0.0
 10
47.3177710997
 20
64.7913480212
 30
0.0
  0
SPLINE
  5
381
100
AcDbEntity
  8
0
100
AcDbSpline
 62
7
  6
BYLAYER
 70
0
 71
3
 72
15
 73
11
 74
0
 42
0.0000001
 43
0.0000001
 44
0.0000000001
 40
0.0
 40
0.0
 40
0.0
 40
0.0
 40
0.0968690865
 40
0.2031319719
 40
0.3188211573
 40
0.4432948579
 40
0.575360014
 40
0.713426432
 40
0.8556630212
 40
1.0
 40
1.0
 40
1.0
 40
1.0
 10
47.3177710997
 20
65.2107446678
 30
0.0
 10
47.2975510765
 20
65.2359689786
 30
0.0
 10
47.249773408
 20
65.2846533467
 30
0.0
 10
47.1639002614
 20
65.3480440401
 30
0.0
 10
47.0623762914
 20
65.4039689045
 30
0.0
 10
46.9472923046
 20
65.451337258
 30
0.0
 10
46.8209640736
 20
65.4892178624
 30
0.0
 10
46.6859726054
 20
65.5168527309
 30
0.0
 10
46.5451080244
 20
65.5336604607
 30
0.0
 10
46.4494257212
 20
65.5374146725
 30
0.0
 10
46.4012559607
 20
65.5374146725
 30
0.0
  0
SPLINE
  5
382
100
AcDbEntity
  8
0
100
AcDbSpline
 62
7
  6
BYLAYER
 70
0
 71
3
 72
15
 73
11
 74
0
 42
0.0000001
 43
0.0000001
 44
0.0000000001
 40
0.0
 40
0.0
 40
0.0
 40
0.0
 40
0.1443369788
 40
0.286573568
 40
0.424639986
 40
0.5567051421
 40
0.6811788427
 40
0.7968680281
 40
0.9031309135
 40
1.0
 40
1.0
 40
1.0
 40
1.0
 10
46.4012559607
 20
65.5374146725
 30
0.0
 10
46.3530862002
 20
65.5374146725
 30
0.0
 10
46.257403897
 20
65.5336604607
 30
0.0
 10
46.116539316
 20
65.5168527309
 30
0.0
 10
45.9815478478
 20
65.4892178624
 30
0.0
 10
45.8552196169
 20
65.451337258
 30
0.0
 10
45.74013563
 20
65.4039689045
 30
0.0
 10
45.63861166
 20
65.3480440401
 30
0.0
 10
45.5527385134
 20
65.2846533467
 30
0.0
 10
45.5049608449
 20
65.2359689786
 30
0.0
 10
45.4847408217
 20
65.2107446678
 30
0.0
  0
SPLINE
  5
383
100
AcDbEntity
  8
0
100
AcDbSpline
 62
7
  6
BYLAYER
 70
0
 71
3
 72
12
 73
8
 74
0
 42
0.0000001
 43
0.0000001
 44
0.0000000001
 40
0.0
 40
0.0
 40
0.0
 40
0.0
 40
0.2854413263
 40
0.5492660195
 40
0.6718801653
 40
0.7879245097
 40
1.0
 40
1.0
 40
1.0
 40
1.0
 10
51.8012559613
 20
64.4939679902
 30
0.0
 10
51.8565845006
 20
64.5071150174
 30
0.0
 10
51.9617787391
 20
64.5383134017
 30
0.0
 10
52.0845927432
 20
64.5927642604
 30
0.0
 10
52.1707432017
 20
64.6440111963
 30
0.0
 10
52.243680016
 20
64.6964699236
 30
0.0
 10
52.291344009
 20
64.7422170856
 30
0.0
 10
52.3177710997
 20
64.7751846615
 30
0.0
  0
SPLINE
  5
384
100
AcDbEntity
  8
0
100
AcDbSpline
 62
7
  6
BYLAYER
 70
0
 71
3
 72
12
 73
8
 74
0
 42
0.0000001
 43
0.0000001
 44
0.0000000001
 40
0.0
 40
0.0
 40
0.0
 40
0.0
 40
0.2120754903
 40
0.3281198347
 40
0.4507339805
 40
0.7145586737
 40
1.0
 40
1.0
 40
1.0
 40
1.0
 10
50.4847408229
 20
64.7751846616
 30
0.0
 10
50.5111679136
 20
64.7422170856
 30
0.0
 10
50.5588319065
 20
64.6964699237
 30
0.0
 10
50.6317687209
 20
64.6440111963
 30
0.0
 10
50.7179191794
 20
64.5927642604
 30
0.0
 10
50.8407331835
 20
64.5383134017
 30
0.0
 10
50.945927422
 20
64.5071150174
 30
0.0
 10
51.0012559613
 20
64.4939679902
 30
0.0
  0
SPLINE
  5
385
100
AcDbEntity
  8
0
100
AcDbSpline
 62
7
  6
BYLAYER
 70
0
 71
3
 72
15
 73
11
 74
0
 42
0.0000001
 43
0.0000001
 44
0.0000000001
 40
0.0
 40
0.0
 40
0.0
 40
0.0
 40
0.0968690865
 40
0.2031319719
 40
0.3188211573
 40
0.4432948579
 40
0.575360014
 40
0.713426432
 40
0.8556630212
 40
1.0
 40
1.0
 40
1.0
 40
1.0
 10
50.4847408217
 20
64.7913480212
 30
0.0
 10
50.5049608449
 20
64.816572332
 30
0.0
 10
50.5527385134
 20
64.8652567
 30
0.0
 10
50.63861166
 20
64.9286473934
 30
0.0
 10
50.74013563
 20
64.9845722579
 30
0.0
 10
50.8552196169
 20
65.0319406113
 30
0.0
 10
50.9815478478
 20
65.0698212157
 30
0.0
 10
51.116539316
 20
65.0974560843
 30
0.0
 10
51.257403897
 20
65.114263814
 30
0.0
 10
51.3530862002
 20
65.1180180259
 30
0.0
 10
51.4012559607
 20
65.1180180259
 30
0.0
  0
SPLINE
  5
386
100
AcDbEntity
  8
0
100
AcDbSpline
 62
7
  6
BYLAYER
 70
0
 71
3
 72
15
 73
11
 74
0
 42
0.0000001
 43
0.0000001
 44
0.0000000001
 40
0.0
 40
0.0
 40
0.0
 40
0.0
 40
0.1443369788
 40
0.286573568
 40
0.424639986
 40
0.5567051421
 40
0.6811788427
 40
0.7968680281
 40
0.9031309135
 40
1.0
 40
1.0
 40
1.0
 40
1.0
 10
51.4012559607
 20
65.1180180259
 30
0.0
 10
51.4494257212
 20
65.1180180259
 30
0.0
 10
51.5451080244
 20
65.114263814
 30
0.0
 10
51.6859726054
 20
65.0974560843
 30
0.0
 10
51.8209640736
 20
65.0698212157
 30
0.0
 10
51.9472923046
 20
65.0319406113
 30
0.0
 10
52.0623762914
 20
64.9845722579
 30
0.0
 10
52.1639002614
 20
64.9286473934
 30
0.0
 10
52.249773408
 20
64.8652567
 30
0.0
 10
52.2975510765
 20
64.816572332
 30
0.0
 10
52.3177710997
 20
64.7913480212
 30
0.0
  0
SPLINE
  5
387
100
AcDbEntity
  8
0
100
AcDbSpline
 62
7
  6
BYLAYER
 70
0
 71
3
 72
15
 73
11
 74
0
 42
0.0000001
 43
0.0000001
 44
0.0000000001
 40
0.0
 40
0.0
 40
0.0
 40
0.0
 40
0.0968690865
 40
0.2031319719
 40
0.3188211573
 40
0.4432948579
 40
0.575360014
 40
0.713426432
 40
0.8556630212
 40
1.0
 40
1.0
 40
1.0
 40
1.0
 10
52.3177710997
 20
65.2107446678
 30
0.0
 10
52.2975510765
 20
65.2359689786
 30
0.0
 10
52.249773408
 20
65.2846533467
 30
0.0
 10
52.1639002614
 20
65.3480440401
 30
0.0
 10
52.0623762914
 20
65.4039689045
 30
0.0
 10
51.9472923046
 20
65.451337258
 30
0.0
 10
51.8209640736
 20
65.4892178624
 30
0.0
 10
51.6859726054
 20
65.5168527309
 30
0.0
 10
51.5451080244
 20
65.5336604607
 30
0.0
 10
51.4494257212
 20
65.5374146725
 30
0.0
 10
51.4012559607
 20
65.5374146725
 30
0.0
  0
SPLINE
  5
388
100
AcDbEntity
  8
0
100
AcDbSpline
 62
7
  6
BYLAYER
 70
0
 71
3
 72
15
 73
11
 74
0
 42
0.0000001
 43
0.0000001
 44
0.0000000001
 40
0.0
 40
0.0
 40
0.0
 40
0.0
 40
0.1443369788
 40
0.286573568
 40
0.424639986
 40
0.5567051421
 40
0.6811788427
 40
0.7968680281
 40
0.9031309135
 40
1.0
 40
1.0
 40
1.0
 40
1.0
 10
51.4012559607
 20
65.5374146725
 30
0.0
 10
51.3530862002
 20
65.5374146725
 30
0.0
 10
51.257403897
 20
65.5336604607
 30
0.0
 10
51.116539316
 20
65.5168527309
 30
0.0
 10
50.9815478478
 20
65.4892178624
 30
0.0
 10
50.8552196169
 20
65.451337258
 30
0.0
 10
50.74013563
 20
65.4039689045
 30
0.0
 10
50.63861166
 20
65.3480440401
 30
0.0
 10
50.5527385134
 20
65.2846533467
 30
0.0
 10
50.5049608449
 20
65.2359689786
 30
0.0
 10
50.4847408217
 20
65.2107446678
 30
0.0
  0
SPLINE
  5
389
100
AcDbEntity
  8
0
100
AcDbSpline
 62
7
  6
BYLAYER
 70
0
 71
3
 72
12
 73
8
 74
0
 42
0.0000001
 43
0.0000001
 44
0.0000000001
 40
0.0
 40
0.0
 40
0.0
 40
0.0
 40
0.2854413263
 40
0.5492660195
 40
0.6718801653
 40
0.7879245097
 40
1.0
 40
1.0
 40
1.0
 40
1.0
 10
56.8012559613
 20
64.4939679902
 30
0.0
 10
56.8565845006
 20
64.5071150174
 30
0.0
 10
56.9617787391
 20
64.5383134017
 30
0.0
 10
57.0845927432
 20
64.5927642604
 30
0.0
 10
57.1707432017
 20
64.6440111963
 30
0.0
 10
57.243680016
 20
64.6964699236
 30
0.0
 10
57.291344009
 20
64.7422170856
 30
0.0
 10
57.3177710997
 20
64.7751846615
 30
0.0
  0
SPLINE
  5
38A
100
AcDbEntity
  8
0
100
AcDbSpline
 62
7
  6
BYLAYER
 70
0
 71
3
 72
12
 73
8
 74
0
 42
0.0000001
 43
0.0000001
 44
0.0000000001
 40
0.0
 40
0.0
 40
0.0
 40
0.0
 40
0.2120754903
 40
0.3281198347
 40
0.4507339805
 40
0.7145586737
 40
1.0
 40
1.0
 40
1.0
 40
1.0
 10
55.4847408229
 20
64.7751846616
 30
0.0
 10
55.5111679136
 20
64.7422170856
 30
0.0
 10
55.5588319065
 20
64.6964699237
 30
0.0
 10
55.6317687209
 20
64.6440111963
 30
0.0
 10
55.7179191794
 20
64.5927642604
 30
0.0
 10
55.8407331835
 20
64.5383134017
 30
0.0
 10
55.945927422
 20
64.5071150174
 30
0.0
 10
56.0012559613
 20
64.4939679902
 30
0.0
  0
SPLINE
  5
38B
100
AcDbEntity
  8
0
100
AcDbSpline
 62
7
  6
BYLAYER
 70
0
 71
3
 72
15
 73
11
 74
0
 42
0.0000001
 43
0.0000001
 44
0.0000000001
 40
0.0
 40
0.0
 40
0.0
 40
0.0
 40
0.0968690865
 40
0.2031319719
 40
0.3188211573
 40
0.4432948579
 40
0.575360014
 40
0.713426432
 40
0.8556630212
 40
1.0
 40
1.0
 40
1.0
 40
1.0
 10
55.4847408217
 20
64.7913480212
 30
0.0
 10
55.5049608449
 20
64.816572332
 30
0.0
 10
55.5527385134
 20
64.8652567
 30
0.0
 10
55.63861166
 20
64.9286473934
 30
0.0
 10
55.74013563
 20
64.9845722579
 30
0.0
 10
55.8552196169
 20
65.0319406113
 30
0.0
 10
55.9815478478
 20
65.0698212157
 30
0.0
 10
56.116539316
 20
65.0974560843
 30
0.0
 10
56.257403897
 20
65.114263814
 30
0.0
 10
56.3530862002
 20
65.1180180259
 30
0.0
 10
56.4012559607
 20
65.1180180259
 30
0.0
  0
SPLINE
  5
38C
100
AcDbEntity
  8
0
100
AcDbSpline
 62
7
  6
BYLAYER
 70
0
 71
3
 72
15
 73
11
 74
0
 42
0.0000001
 43
0.0000001
 44
0.0000000001
 40
0.0
 40
0.0
 40
0.0
 40
0.0
 40
0.1443369788
 40
0.286573568
 40
0.424639986
 40
0.5567051421
 40
0.6811788427
 40
0.7968680281
 40
0.9031309135
 40
1.0
 40
1.0
 40
1.0
 40
1.0
 10
56.4012559607
 20
65.1180180259
 30
0.0
 10
56.4494257212
 20
65.1180180259
 30
0.0
 10
56.5451080244
 20
65.114263814
 30
0.0
 10
56.6859726054
 20
65.0974560843
 30
0.0
 10
56.8209640736
 20
65.0698212157
 30
0.0
 10
56.9472923046
 20
65.0319406113
 30
0.0
 10
57.0623762914
 20
64.9845722579
 30
0.0
 10
57.1639002614
 20
64.9286473934
 30
0.0
 10
57.249773408
 20
64.8652567
 30
0.0
 10
57.2975510765
 20
64.816572332
 30
0.0
 10
57.3177710997
 20
64.7913480212
 30
0.0
  0
SPLINE
  5
38D
100
AcDbEntity
  8
0
100
AcDbSpline
 62
7
  6
BYLAYER
 70
0
 71
3
 72
15
 73
11
 74
0
 42
0.0000001
 43
0.0000001
 44
0.0000000001
 40
0.0
 40
0.0
 40
0.0
 40
0.0
 40
0.0968690865
 40
0.2031319719
 40
0.3188211573
 40
0.4432948579
 40
0.575360014
 40
0.713426432
 40
0.8556630212
 40
1.0
 40
1.0
 40
1.0
 40
1.0
 10
57.3177710997
 20
65.2107446678
 30
0.0
 10
57.2975510765
 20
65.2359689786
 30
0.0
 10
57.249773408
 20
65.2846533467
 30
0.0
 10
57.1639002614
 20
65.3480440401
 30
0.0
 10
57.0623762914
 20
65.4039689045
 30
0.0
 10
56.9472923046
 20
65.451337258
 30
0.0
 10
56.8209640736
 20
65.4892178624
 30
0.0
 10
56.6859726054
 20
65.5168527309
 30
0.0
 10
56.5451080244
 20
65.5336604607
 30
0.0
 10
56.4494257212
 20
65.5374146725
 30
0.0
 10
56.4012559607
 20
65.5374146725
 30
0.0
  0
SPLINE
  5
38E
100
AcDbEntity
  8
0
100
AcDbSpline
 62
7
  6
BYLAYER
 70
0
 71
3
 72
15
 73
11
 74
0
 42
0.0000001
 43
0.0000001
 44
0.0000000001
 40
0.0
 40
0.0
 40
0.0
 40
0.0
 40
0.1443369788
 40
0.286573568
 40
0.424639986
 40
0.5567051421
 40
0.6811788427
 40
0.7968680281
 40
0.9031309135
 40
1.0
 40
1.0
 40
1.0
 40
1.0
 10
56.4012559607
 20
65.5374146725
 30
0.0
 10
56.3530862002
 20
65.5374146725
 30
0.0
 10
56.257403897
 20
65.5336604607
 30
0.0
 10
56.116539316
 20
65.5168527309
 30
0.0
 10
55.9815478478
 20
65.4892178624
 30
0.0
 10
55.8552196169
 20
65.451337258
 30
0.0
 10
55.74013563
 20
65.4039689045
 30
0.0
 10
55.63861166
 20
65.3480440401
 30
0.0
 10
55.5527385134
 20
65.2846533467
 30
0.0
 10
55.5049608449
 20
65.2359689786
 30
0.0
 10
55.4847408217
 20
65.2107446678
 30
0.0
  0
SPLINE
  5
38F
100
AcDbEntity
  8
0
100
AcDbSpline
 62
7
  6
BYLAYER
 70
0
 71
3
 72
15
 73
11
 74
0
 42
0.0000001
 43
0.0000001
 44
0.0000000001
 40
0.0
 40
0.0
 40
0.0
 40
0.0
 40
0.1140516063
 40
0.2298756653
 40
0.3489061267
 40
0.4719991681
 40
0.5993451845
 40
0.7304968567
 40
0.8644972772
 40
1.0
 40
1.0
 40
1.0
 40
1.0
 10
48.4512430055
 20
98.256261335
 30
0.0
 10
48.4512369741
 20
98.3688491632
 30
0.0
 10
48.4243189259
 20
98.5966404419
 30
0.0
 10
48.3053274518
 20
98.9228752747
 30
0.0
 10
48.1129456342
 20
99.2225374902
 30
0.0
 10
47.8552494281
 20
99.4840648053
 30
0.0
 10
47.5425114985
 20
99.6979416637
 30
0.0
 10
47.1867539902
 20
99.856465131
 30
0.0
 10
46.8015918145
 20
99.9539057119
 30
0.0
 10
46.5350195954
 20
99.9757876103
 30
0.0
 10
46.4012559616
 20
99.9757876103
 30
0.0
  0
SPLINE
  5
390
100
AcDbEntity
  8
0
100
AcDbSpline
 62
7
  6
BYLAYER
 70
0
 71
3
 72
15
 73
11
 74
0
 42
0.0000001
 43
0.0000001
 44
0.0000000001
 40
0.0
 40
0.0
 40
0.0
 40
0.0
 40
0.1140516063
 40
0.2298756653
 40
0.3489061267
 40
0.4719991681
 40
0.5993451845
 40
0.7304968567
 40
0.8644972772
 40
1.0
 40
1.0
 40
1.0
 40
1.0
 10
43.4512430055
 20
98.256261335
 30
0.0
 10
43.4512369741
 20
98.3688491632
 30
0.0
 10
43.4243189259
 20
98.5966404419
 30
0.0
 10
43.3053274518
 20
98.9228752747
 30
0.0
 10
43.1129456342
 20
99.2225374902
 30
0.0
 10
42.8552494281
 20
99.4840648053
 30
0.0
 10
42.5425114985
 20
99.6979416637
 30
0.0
 10
42.1867539902
 20
99.856465131
 30
0.0
 10
41.8015918145
 20
99.9539057119
 30
0.0
 10
41.5350195954
 20
99.9757876103
 30
0.0
 10
41.4012559616
 20
99.9757876103
 30
0.0
  0
SPLINE
  5
391
100
AcDbEntity
  8
0
100
AcDbSpline
 62
7
  6
BYLAYER
 70
0
 71
3
 72
15
 73
11
 74
0
 42
0.0000001
 43
0.0000001
 44
0.0000000001
 40
0.0
 40
0.0
 40
0.0
 40
0.0
 40
0.1355005648
 40
0.2695019305
 40
0.4006516754
 40
0.5279975091
 40
0.651091551
 40
0.7701238438
 40
0.8859487628
 40
1.0
 40
1.0
 40
1.0
 40
1.0
 10
51.4012559616
 20
99.9757876103
 30
0.0
 10
51.267494574
 20
99.9757876103
 30
0.0
 10
51.0009240979
 20
99.9539045173
 30
0.0
 10
50.6157641137
 20
99.8564687006
 30
0.0
 10
50.2600091107
 20
99.6979435111
 30
0.0
 10
49.9472699922
 20
99.4840709363
 30
0.0
 10
49.6895729669
 20
99.2225412618
 30
0.0
 10
49.4971870604
 20
98.9228770808
 30
0.0
 10
49.3781989145
 20
98.5966401483
 30
0.0
 10
49.3512713349
 20
98.368848729
 30
0.0
 10
49.3512711636
 20
98.2562613626
 30
0.0
  0
SPLINE
  5
392
100
AcDbEntity
  8
0
100
AcDbSpline
 62
7
  6
BYLAYER
 70
0
 71
3
 72
15
 73
11
 74
0
 42
0.0000001
 43
0.0000001
 44
0.0000000001
 40
0.0
 40
0.0
 40
0.0
 40
0.0
 40
0.1355005648
 40
0.2695019305
 40
0.4006516754
 40
0.5279975091
 40
0.651091551
 40
0.7701238438
 40
0.8859487628
 40
1.0
 40
1.0
 40
1.0
 40
1.0
 10
56.4012559616
 20
99.9757876103
 30
0.0
 10
56.267494574
 20
99.9757876103
 30
0.0
 10
56.0009240979
 20
99.9539045173
 30
0.0
 10
55.6157641137
 20
99.8564687006
 30
0.0
 10
55.2600091107
 20
99.6979435111
 30
0.0
 10
54.9472699922
 20
99.4840709363
 30
0.0
 10
54.6895729669
 20
99.2225412618
 30
0.0
 10
54.4971870604
 20
98.9228770808
 30
0.0
 10
54.3781989145
 20
98.5966401483
 30
0.0
 10
54.3512713349
 20
98.368848729
 30
0.0
 10
54.3512711636
 20
98.2562613626
 30
0.0
  0
SPLINE
  5
393
100
AcDbEntity
  8
0
100
AcDbSpline
 62
7
  6
BYLAYER
 70
0
 71
3
 72
15
 73
11
 74
0
 42
0.0000001
 43
0.0000001
 44
0.0000000001
 40
0.0
 40
0.0
 40
0.0
 40
0.0
 40
0.1355005648
 40
0.2695019305
 40
0.4006516754
 40
0.5279975091
 40
0.651091551
 40
0.7701238438
 40
0.8859487628
 40
1.0
 40
1.0
 40
1.0
 40
1.0
 10
41.4012559616
 20
99.9757876103
 30
0.0
 10
41.267494574
 20
99.9757876103
 30
0.0
 10
41.0009240979
 20
99.9539045173
 30
0.0
 10
40.6157641137
 20
99.8564687006
 30
0.0
 10
40.2600091107
 20
99.6979435111
 30
0.0
 10
39.9472699922
 20
99.4840709363
 30
0.0
 10
39.6895729669
 20
99.2225412618
 30
0.0
 10
39.4971870604
 20
98.9228770808
 30
0.0
 10
39.3781989145
 20
98.5966401483
 30
0.0
 10
39.3512713349
 20
98.368848729
 30
0.0
 10
39.3512711636
 20
98.2562613626
 30
0.0
  0
SPLINE
  5
394
100
AcDbEntity
  8
0
100
AcDbSpline
 62
7
  6
BYLAYER
 70
0
 71
3
 72
15
 73
11
 74
0
 42
0.0000001
 43
0.0000001
 44
0.0000000001
 40
0.0
 40
0.0
 40
0.0
 40
0.0
 40
0.1355005648
 40
0.2695019305
 40
0.4006516754
 40
0.5279975091
 40
0.651091551
 40
0.7701238438
 40
0.8859487628
 40
1.0
 40
1.0
 40
1.0
 40
1.0
 10
46.4012559616
 20
99.9757876103
 30
0.0
 10
46.267494574
 20
99.9757876103
 30
0.0
 10
46.0009240979
 20
99.9539045173
 30
0.0
 10
45.6157641137
 20
99.8564687006
 30
0.0
 10
45.2600091107
 20
99.6979435111
 30
0.0
 10
44.9472699922
 20
99.4840709363
 30
0.0
 10
44.6895729669
 20
99.2225412618
 30
0.0
 10
44.4971870604
 20
98.9228770808
 30
0.0
 10
44.3781989145
 20
98.5966401483
 30
0.0
 10
44.3512713349
 20
98.368848729
 30
0.0
 10
44.3512711636
 20
98.2562613626
 30
0.0
  0
SPLINE
  5
395
100
AcDbEntity
  8
0
100
AcDbSpline
 62
7
  6
BYLAYER
 70
0
 71
3
 72
15
 73
11
 74
0
 42
0.0000001
 43
0.0000001
 44
0.0000000001
 40
0.0
 40
0.0
 40
0.0
 40
0.0
 40
0.1140516063
 40
0.2298756653
 40
0.3489061267
 40
0.4719991681
 40
0.5993451845
 40
0.7304968567
 40
0.8644972772
 40
1.0
 40
1.0
 40
1.0
 40
1.0
 10
58.4512430055
 20
98.256261335
 30
0.0
 10
58.4512369741
 20
98.3688491632
 30
0.0
 10
58.4243189259
 20
98.5966404419
 30
0.0
 10
58.3053274518
 20
98.9228752747
 30
0.0
 10
58.1129456342
 20
99.2225374902
 30
0.0
 10
57.8552494281
 20
99.4840648053
 30
0.0
 10
57.5425114985
 20
99.6979416637
 30
0.0
 10
57.1867539902
 20
99.856465131
 30
0.0
 10
56.8015918145
 20
99.9539057119
 30
0.0
 10
56.5350195954
 20
99.9757876103
 30
0.0
 10
56.4012559616
 20
99.9757876103
 30
0.0
  0
SPLINE
  5
396
100
AcDbEntity
  8
0
100
AcDbSpline
 62
7
  6
BYLAYER
 70
0
 71
3
 72
15
 73
11
 74
0
 42
0.0000001
 43
0.0000001
 44
0.0000000001
 40
0.0
 40
0.0
 40
0.0
 40
0.0
 40
0.1140516063
 40
0.2298756653
 40
0.3489061267
 40
0.4719991681
 40
0.5993451845
 40
0.7304968567
 40
0.8644972772
 40
1.0
 40
1.0
 40
1.0
 40
1.0
 10
53.4512430055
 20
98.256261335
 30
0.0
 10
53.4512369741
 20
98.3688491632
 30
0.0
 10
53.4243189259
 20
98.5966404419
 30
0.0
 10
53.3053274518
 20
98.9228752747
 30
0.0
 10
53.1129456342
 20
99.2225374902
 30
0.0
 10
52.8552494281
 20
99.4840648053
 30
0.0
 10
52.5425114985
 20
99.6979416637
 30
0.0
 10
52.1867539902
 20
99.856465131
 30
0.0
 10
51.8015918145
 20
99.9539057119
 30
0.0
 10
51.5350195954
 20
99.9757876103
 30
0.0
 10
51.4012559616
 20
99.9757876103
 30
0.0
  0
SPLINE
  5
397
100
AcDbEntity
  8
0
100
AcDbSpline
 62
7
  6
BYLAYER
 70
0
 71
3
 72
15
 73
11
 74
0
 42
0.0000001
 43
0.0000001
 44
0.0000000001
 40
0.0
 40
0.0
 40
0.0
 40
0.0
 40
0.1356085649
 40
0.2686955965
 40
0.3985075562
 40
0.5247547698
 40
0.6474297397
 40
0.7669516117
 40
0.8841099349
 40
1.0
 40
1.0
 40
1.0
 40
1.0
 10
41.931835004
 20
96.5953265437
 30
0.0
 10
42.038937741
 20
96.6193983107
 30
0.0
 10
42.2481556156
 20
96.6819415923
 30
0.0
 10
42.5417850854
 20
96.8182058728
 30
0.0
 10
42.8054131218
 20
96.9929484678
 30
0.0
 10
43.0319402727
 20
97.2015635635
 30
0.0
 10
43.2152069485
 20
97.4387650837
 30
0.0
 10
43.3500832956
 20
97.6983671266
 30
0.0
 10
43.4326623816
 20
97.9732916965
 30
0.0
 10
43.4512480311
 20
98.1624488476
 30
0.0
 10
43.4512430055
 20
98.256261335
 30
0.0
  0
SPLINE
  5
398
100
AcDbEntity
  8
0
100
AcDbSpline
 62
7
  6
BYLAYER
 70
0
 71
3
 72
15
 73
11
 74
0
 42
0.0000001
 43
0.0000001
 44
0.0000000001
 40
0.0
 40
0.0
 40
0.0
 40
0.0
 40
0.1140503326
 40
0.2298734337
 40
0.348903673
 40
0.4719964824
 40
0.599342812
 40
0.7304937251
 40
0.864497937
 40
1.0
 40
1.0
 40
1.0
 40
1.0
 10
39.3512711636
 20
98.2562613626
 30
0.0
 10
39.3512709923
 20
98.1436749126
 30
0.0
 10
39.3781985699
 20
97.915886257
 30
0.0
 10
39.4971837165
 20
97.5896535017
 30
0.0
 10
39.6895652983
 20
97.2899927402
 30
0.0
 10
39.9472579819
 20
97.0284628213
 30
0.0
 10
40.2599958863
 20
96.8145878903
 30
0.0
 10
40.6157533216
 20
96.6560572247
 30
0.0
 10
41.0009184896
 20
96.5586194423
 30
0.0
 10
41.2674931228
 20
96.5367351076
 30
0.0
 10
41.4012559616
 20
96.5367351076
 30
0.0
  0
SPLINE
  5
399
100
AcDbEntity
  8
0
100
AcDbSpline
 62
7
  6
BYLAYER
 70
0
 71
3
 72
15
 73
11
 74
0
 42
0.0000001
 43
0.0000001
 44
0.0000000001
 40
0.0
 40
0.0
 40
0.0
 40
0.0
 40
0.1356085649
 40
0.2686955965
 40
0.3985075562
 40
0.5247547698
 40
0.6474297397
 40
0.7669516117
 40
0.8841099349
 40
1.0
 40
1.0
 40
1.0
 40
1.0
 10
46.931835004
 20
96.5953265437
 30
0.0
 10
47.038937741
 20
96.6193983107
 30
0.0
 10
47.2481556156
 20
96.6819415923
 30
0.0
 10
47.5417850854
 20
96.8182058728
 30
0.0
 10
47.8054131218
 20
96.9929484678
 30
0.0
 10
48.0319402727
 20
97.2015635635
 30
0.0
 10
48.2152069485
 20
97.4387650837
 30
0.0
 10
48.3500832956
 20
97.6983671266
 30
0.0
 10
48.4326623816
 20
97.9732916965
 30
0.0
 10
48.4512480311
 20
98.1624488476
 30
0.0
 10
48.4512430055
 20
98.256261335
 30
0.0
  0
SPLINE
  5
39A
100
AcDbEntity
  8
0
100
AcDbSpline
 62
7
  6
BYLAYER
 70
0
 71
3
 72
13
 73
9
 74
0
 42
0.0000001
 43
0.0000001
 44
0.0000000001
 40
0.0
 40
0.0
 40
0.0
 40
0.0
 40
0.1164802995
 40
0.2351430994
 40
0.3563496191
 40
0.4802845978
 40
0.7356810105
 40
1.0
 40
1.0
 40
1.0
 40
1.0
 10
48.3595686587
 20
98.8366779647
 30
0.0
 10
48.3339002536
 20
98.7671392104
 30
0.0
 10
48.2717262074
 20
98.6303632989
 30
0.0
 10
48.1495401291
 20
98.438524904
 30
0.0
 10
47.999628065
 20
98.2611850394
 30
0.0
 10
47.7638496896
 20
98.0458950874
 30
0.0
 10
47.4120571979
 20
97.828251775
 30
0.0
 10
47.095946571
 20
97.7211112882
 30
0.0
 10
46.931835004
 20
97.6842265594
 30
0.0
  0
SPLINE
  5
39B
100
AcDbEntity
  8
0
100
AcDbSpline
 62
7
  6
BYLAYER
 70
0
 71
3
 72
13
 73
9
 74
0
 42
0.0000001
 43
0.0000001
 44
0.0000000001
 40
0.0
 40
0.0
 40
0.0
 40
0.0
 40
0.1164802995
 40
0.2351430994
 40
0.3563496191
 40
0.4802845978
 40
0.7356810105
 40
1.0
 40
1.0
 40
1.0
 40
1.0
 10
43.3595686587
 20
98.8366779647
 30
0.0
 10
43.3339002536
 20
98.7671392104
 30
0.0
 10
43.2717262074
 20
98.6303632989
 30
0.0
 10
43.1495401291
 20
98.438524904
 30
0.0
 10
42.999628065
 20
98.2611850394
 30
0.0
 10
42.7638496896
 20
98.0458950874
 30
0.0
 10
42.4120571979
 20
97.828251775
 30
0.0
 10
42.095946571
 20
97.7211112882
 30
0.0
 10
41.931835004
 20
97.6842265594
 30
0.0
  0
SPLINE
  5
39C
100
AcDbEntity
  8
0
100
AcDbSpline
 62
7
  6
BYLAYER
 70
0
 71
3
 72
13
 73
9
 74
0
 42
0.0000001
 43
0.0000001
 44
0.0000000001
 40
0.0
 40
0.0
 40
0.0
 40
0.0
 40
0.1164802995
 40
0.2351430994
 40
0.3563496191
 40
0.4802845978
 40
0.7356810105
 40
1.0
 40
1.0
 40
1.0
 40
1.0
 10
58.3595686587
 20
98.8366779647
 30
0.0
 10
58.3339002536
 20
98.7671392104
 30
0.0
 10
58.2717262074
 20
98.6303632989
 30
0.0
 10
58.1495401291
 20
98.438524904
 30
0.0
 10
57.999628065
 20
98.2611850394
 30
0.0
 10
57.7638496896
 20
98.0458950874
 30
0.0
 10
57.4120571979
 20
97.828251775
 30
0.0
 10
57.095946571
 20
97.7211112882
 30
0.0
 10
56.931835004
 20
97.6842265594
 30
0.0
  0
SPLINE
  5
39D
100
AcDbEntity
  8
0
100
AcDbSpline
 62
7
  6
BYLAYER
 70
0
 71
3
 72
15
 73
11
 74
0
 42
0.0000001
 43
0.0000001
 44
0.0000000001
 40
0.0
 40
0.0
 40
0.0
 40
0.0
 40
0.1140503326
 40
0.2298734337
 40
0.348903673
 40
0.4719964824
 40
0.599342812
 40
0.7304937251
 40
0.864497937
 40
1.0
 40
1.0
 40
1.0
 40
1.0
 10
54.3512711636
 20
98.2562613626
 30
0.0
 10
54.3512709923
 20
98.1436749126
 30
0.0
 10
54.3781985699
 20
97.915886257
 30
0.0
 10
54.4971837165
 20
97.5896535017
 30
0.0
 10
54.6895652983
 20
97.2899927402
 30
0.0
 10
54.9472579819
 20
97.0284628213
 30
0.0
 10
55.2599958863
 20
96.8145878903
 30
0.0
 10
55.6157533216
 20
96.6560572247
 30
0.0
 10
56.0009184896
 20
96.5586194423
 30
0.0
 10
56.2674931228
 20
96.5367351076
 30
0.0
 10
56.4012559616
 20
96.5367351076
 30
0.0
  0
SPLINE
  5
39E
100
AcDbEntity
  8
0
100
AcDbSpline
 62
7
  6
BYLAYER
 70
0
 71
3
 72
9
 73
5
 74
0
 42
0.0000001
 43
0.0000001
 44
0.0000000001
 40
0.0
 40
0.0
 40
0.0
 40
0.0
 40
0.2490844591
 40
1.0
 40
1.0
 40
1.0
 40
1.0
 10
51.931835004
 20
97.6842265594
 30
0.0
 10
51.8885433329
 20
97.6744965838
 30
0.0
 10
51.7136764263
 20
97.6403102824
 30
0.0
 10
51.5350232139
 20
97.6256351233
 30
0.0
 10
51.4012559616
 20
97.6256351233
 30
0.0
  0
SPLINE
  5
39F
100
AcDbEntity
  8
0
100
AcDbSpline
 62
7
  6
BYLAYER
 70
0
 71
3
 72
13
 73
9
 74
0
 42
0.0000001
 43
0.0000001
 44
0.0000000001
 40
0.0
 40
0.0
 40
0.0
 40
0.0
 40
0.26413173
 40
0.5211413135
 40
0.6456605773
 40
0.7668866525
 40
0.8848751059
 40
1.0
 40
1.0
 40
1.0
 40
1.0
 10
51.4012559616
 20
97.6256351233
 30
0.0
 10
51.1908051304
 20
97.6256351233
 30
0.0
 10
50.7736419332
 20
97.6793436064
 30
0.0
 10
50.2921441068
 20
97.8794238524
 30
0.0
 10
49.9630748621
 20
98.1101376063
 30
0.0
 10
49.7528271334
 20
98.3113795824
 30
0.0
 10
49.5819921832
 20
98.5376718341
 30
0.0
 10
49.4962485301
 20
98.7036851206
 30
0.0
 10
49.4616061127
 20
98.7886193759
 30
0.0
  0
SPLINE
  5
3A0
100
AcDbEntity
  8
0
100
AcDbSpline
 62
7
  6
BYLAYER
 70
0
 71
3
 72
15
 73
11
 74
0
 42
0.0000001
 43
0.0000001
 44
0.0000000001
 40
0.0
 40
0.0
 40
0.0
 40
0.0
 40
0.1140503326
 40
0.2298734337
 40
0.348903673
 40
0.4719964824
 40
0.599342812
 40
0.7304937251
 40
0.864497937
 40
1.0
 40
1.0
 40
1.0
 40
1.0
 10
49.3512711636
 20
98.2562613626
 30
0.0
 10
49.3512709923
 20
98.1436749126
 30
0.0
 10
49.3781985699
 20
97.915886257
 30
0.0
 10
49.4971837165
 20
97.5896535017
 30
0.0
 10
49.6895652983
 20
97.2899927402
 30
0.0
 10
49.9472579819
 20
97.0284628213
 30
0.0
 10
50.2599958863
 20
96.8145878903
 30
0.0
 10
50.6157533216
 20
96.6560572247
 30
0.0
 10
51.0009184896
 20
96.5586194423
 30
0.0
 10
51.2674931228
 20
96.5367351076
 30
0.0
 10
51.4012559616
 20
96.5367351076
 30
0.0
  0
SPLINE
  5
3A1
100
AcDbEntity
  8
0
100
AcDbSpline
 62
7
  6
BYLAYER
 70
0
 71
3
 72
9
 73
5
 74
0
 42
0.0000001
 43
0.0000001
 44
0.0000000001
 40
0.0
 40
0.0
 40
0.0
 40
0.0
 40
0.2490844591
 40
1.0
 40
1.0
 40
1.0
 40
1.0
 10
56.931835004
 20
97.6842265594
 30
0.0
 10
56.8885433329
 20
97.6744965838
 30
0.0
 10
56.7136764263
 20
97.6403102824
 30
0.0
 10
56.5350232139
 20
97.6256351233
 30
0.0
 10
56.4012559616
 20
97.6256351233
 30
0.0
  0
SPLINE
  5
3A2
100
AcDbEntity
  8
0
100
AcDbSpline
 62
7
  6
BYLAYER
 70
0
 71
3
 72
13
 73
9
 74
0
 42
0.0000001
 43
0.0000001
 44
0.0000000001
 40
0.0
 40
0.0
 40
0.0
 40
0.0
 40
0.26413173
 40
0.5211413135
 40
0.6456605773
 40
0.7668866525
 40
0.8848751059
 40
1.0
 40
1.0
 40
1.0
 40
1.0
 10
56.4012559616
 20
97.6256351233
 30
0.0
 10
56.1908051304
 20
97.6256351233
 30
0.0
 10
55.7736419332
 20
97.6793436064
 30
0.0
 10
55.2921441068
 20
97.8794238524
 30
0.0
 10
54.9630748621
 20
98.1101376063
 30
0.0
 10
54.7528271334
 20
98.3113795824
 30
0.0
 10
54.5819921832
 20
98.5376718341
 30
0.0
 10
54.4962485301
 20
98.7036851206
 30
0.0
 10
54.4616061127
 20
98.7886193759
 30
0.0
  0
SPLINE
  5
3A3
100
AcDbEntity
  8
0
100
AcDbSpline
 62
7
  6
BYLAYER
 70
0
 71
3
 72
9
 73
5
 74
0
 42
0.0000001
 43
0.0000001
 44
0.0000000001
 40
0.0
 40
0.0
 40
0.0
 40
0.0
 40
0.2490844591
 40
1.0
 40
1.0
 40
1.0
 40
1.0
 10
41.931835004
 20
97.6842265594
 30
0.0
 10
41.8885433329
 20
97.6744965838
 30
0.0
 10
41.7136764263
 20
97.6403102824
 30
0.0
 10
41.5350232139
 20
97.6256351233
 30
0.0
 10
41.4012559616
 20
97.6256351233
 30
0.0
  0
SPLINE
  5
3A4
100
AcDbEntity
  8
0
100
AcDbSpline
 62
7
  6
BYLAYER
 70
0
 71
3
 72
13
 73
9
 74
0
 42
0.0000001
 43
0.0000001
 44
0.0000000001
 40
0.0
 40
0.0
 40
0.0
 40
0.0
 40
0.26413173
 40
0.5211413135
 40
0.6456605773
 40
0.7668866525
 40
0.8848751059
 40
1.0
 40
1.0
 40
1.0
 40
1.0
 10
41.4012559616
 20
97.6256351233
 30
0.0
 10
41.1908051304
 20
97.6256351233
 30
0.0
 10
40.7736419332
 20
97.6793436064
 30
0.0
 10
40.2921441068
 20
97.8794238524
 30
0.0
 10
39.9630748621
 20
98.1101376063
 30
0.0
 10
39.7528271334
 20
98.3113795824
 30
0.0
 10
39.5819921832
 20
98.5376718341
 30
0.0
 10
39.4962485301
 20
98.7036851206
 30
0.0
 10
39.4616061127
 20
98.7886193759
 30
0.0
  0
SPLINE
  5
3A5
100
AcDbEntity
  8
0
100
AcDbSpline
 62
7
  6
BYLAYER
 70
0
 71
3
 72
13
 73
9
 74
0
 42
0.0000001
 43
0.0000001
 44
0.0000000001
 40
0.0
 40
0.0
 40
0.0
 40
0.0
 40
0.1164802995
 40
0.2351430994
 40
0.3563496191
 40
0.4802845978
 40
0.7356810105
 40
1.0
 40
1.0
 40
1.0
 40
1.0
 10
53.3595686587
 20
98.8366779647
 30
0.0
 10
53.3339002536
 20
98.7671392104
 30
0.0
 10
53.2717262074
 20
98.6303632989
 30
0.0
 10
53.1495401291
 20
98.438524904
 30
0.0
 10
52.999628065
 20
98.2611850394
 30
0.0
 10
52.7638496896
 20
98.0458950874
 30
0.0
 10
52.4120571979
 20
97.828251775
 30
0.0
 10
52.095946571
 20
97.7211112882
 30
0.0
 10
51.931835004
 20
97.6842265594
 30
0.0
  0
SPLINE
  5
3A6
100
AcDbEntity
  8
0
100
AcDbSpline
 62
7
  6
BYLAYER
 70
0
 71
3
 72
9
 73
5
 74
0
 42
0.0000001
 43
0.0000001
 44
0.0000000001
 40
0.0
 40
0.0
 40
0.0
 40
0.0
 40
0.2490844591
 40
1.0
 40
1.0
 40
1.0
 40
1.0
 10
46.931835004
 20
97.6842265594
 30
0.0
 10
46.8885433329
 20
97.6744965838
 30
0.0
 10
46.7136764263
 20
97.6403102824
 30
0.0
 10
46.5350232139
 20
97.6256351233
 30
0.0
 10
46.4012559616
 20
97.6256351233
 30
0.0
  0
SPLINE
  5
3A7
100
AcDbEntity
  8
0
100
AcDbSpline
 62
7
  6
BYLAYER
 70
0
 71
3
 72
13
 73
9
 74
0
 42
0.0000001
 43
0.0000001
 44
0.0000000001
 40
0.0
 40
0.0
 40
0.0
 40
0.0
 40
0.26413173
 40
0.5211413135
 40
0.6456605773
 40
0.7668866525
 40
0.8848751059
 40
1.0
 40
1.0
 40
1.0
 40
1.0
 10
46.4012559616
 20
97.6256351233
 30
0.0
 10
46.1908051304
 20
97.6256351233
 30
0.0
 10
45.7736419332
 20
97.6793436064
 30
0.0
 10
45.2921441068
 20
97.8794238524
 30
0.0
 10
44.9630748621
 20
98.1101376063
 30
0.0
 10
44.7528271334
 20
98.3113795824
 30
0.0
 10
44.5819921832
 20
98.5376718341
 30
0.0
 10
44.4962485301
 20
98.7036851206
 30
0.0
 10
44.4616061127
 20
98.7886193759
 30
0.0
  0
SPLINE
  5
3A8
100
AcDbEntity
  8
0
100
AcDbSpline
 62
7
  6
BYLAYER
 70
0
 71
3
 72
15
 73
11
 74
0
 42
0.0000001
 43
0.0000001
 44
0.0000000001
 40
0.0
 40
0.0
 40
0.0
 40
0.0
 40
0.1356085649
 40
0.2686955965
 40
0.3985075562
 40
0.5247547698
 40
0.6474297397
 40
0.7669516117
 40
0.8841099349
 40
1.0
 40
1.0
 40
1.0
 40
1.0
 10
51.931835004
 20
96.5953265437
 30
0.0
 10
52.038937741
 20
96.6193983107
 30
0.0
 10
52.2481556156
 20
96.6819415923
 30
0.0
 10
52.5417850854
 20
96.8182058728
 30
0.0
 10
52.8054131218
 20
96.9929484678
 30
0.0
 10
53.0319402727
 20
97.2015635635
 30
0.0
 10
53.2152069485
 20
97.4387650837
 30
0.0
 10
53.3500832956
 20
97.6983671265
 30
0.0
 10
53.4326623816
 20
97.9732916965
 30
0.0
 10
53.4512480311
 20
98.1624488476
 30
0.0
 10
53.4512430055
 20
98.256261335
 30
0.0
  0
SPLINE
  5
3A9
100
AcDbEntity
  8
0
100
AcDbSpline
 62
7
  6
BYLAYER
 70
0
 71
3
 72
15
 73
11
 74
0
 42
0.0000001
 43
0.0000001
 44
0.0000000001
 40
0.0
 40
0.0
 40
0.0
 40
0.0
 40
0.1140503326
 40
0.2298734337
 40
0.348903673
 40
0.4719964824
 40
0.599342812
 40
0.7304937251
 40
0.864497937
 40
1.0
 40
1.0
 40
1.0
 40
1.0
 10
44.3512711636
 20
98.2562613626
 30
0.0
 10
44.3512709923
 20
98.1436749126
 30
0.0
 10
44.3781985699
 20
97.915886257
 30
0.0
 10
44.4971837165
 20
97.5896535017
 30
0.0
 10
44.6895652983
 20
97.2899927402
 30
0.0
 10
44.9472579819
 20
97.0284628213
 30
0.0
 10
45.2599958863
 20
96.8145878903
 30
0.0
 10
45.6157533216
 20
96.6560572247
 30
0.0
 10
46.0009184896
 20
96.5586194423
 30
0.0
 10
46.2674931228
 20
96.5367351076
 30
0.0
 10
46.4012559616
 20
96.5367351076
 30
0.0
  0
SPLINE
  5
3AA
100
AcDbEntity
  8
0
100
AcDbSpline
 62
7
  6
BYLAYER
 70
0
 71
3
 72
15
 73
11
 74
0
 42
0.0000001
 43
0.0000001
 44
0.0000000001
 40
0.0
 40
0.0
 40
0.0
 40
0.0
 40
0.1356085649
 40
0.2686955965
 40
0.3985075562
 40
0.5247547698
 40
0.6474297397
 40
0.7669516117
 40
0.8841099349
 40
1.0
 40
1.0
 40
1.0
 40
1.0
 10
56.931835004
 20
96.5953265437
 30
0.0
 10
57.038937741
 20
96.6193983107
 30
0.0
 10
57.2481556156
 20
96.6819415923
 30
0.0
 10
57.5417850854
 20
96.8182058728
 30
0.0
 10
57.8054131218
 20
96.9929484678
 30
0.0
 10
58.0319402727
 20
97.2015635635
 30
0.0
 10
58.2152069485
 20
97.4387650837
 30
0.0
 10
58.3500832956
 20
97.6983671266
 30
0.0
 10
58.4326623816
 20
97.9732916965
 30
0.0
 10
58.4512480311
 20
98.1624488476
 30
0.0
 10
58.4512430055
 20
98.256261335
 30
0.0
  0
SPLINE
  5
3AB
100
AcDbEntity
  8
0
100
AcDbSpline
 62
7
  6
BYLAYER
 70
0
 71
3
 72
15
 73
11
 74
0
 42
0.0000001
 43
0.0000001
 44
0.0000000001
 40
0.0
 40
0.0
 40
0.0
 40
0.0
 40
0.1140516063
 40
0.2298756653
 40
0.3489061267
 40
0.4719991681
 40
0.5993451845
 40
0.7304968567
 40
0.8644972772
 40
1.0
 40
1.0
 40
1.0
 40
1.0
 10
48.4512430055
 20
76.6557999346
 30
0.0
 10
48.4512369741
 20
76.7683877628
 30
0.0
 10
48.4243189259
 20
76.9961790415
 30
0.0
 10
48.3053274518
 20
77.3224138743
 30
0.0
 10
48.1129456342
 20
77.6220760898
 30
0.0
 10
47.8552494281
 20
77.8836034049
 30
0.0
 10
47.5425114985
 20
78.0974802633
 30
0.0
 10
47.1867539902
 20
78.2560037306
 30
0.0
 10
46.8015918145
 20
78.3534443115
 30
0.0
 10
46.5350195954
 20
78.3753262099
 30
0.0
 10
46.4012559616
 20
78.3753262099
 30
0.0
  0
SPLINE
  5
3AC
100
AcDbEntity
  8
0
100
AcDbSpline
 62
7
  6
BYLAYER
 70
0
 71
3
 72
15
 73
11
 74
0
 42
0.0000001
 43
0.0000001
 44
0.0000000001
 40
0.0
 40
0.0
 40
0.0
 40
0.0
 40
0.1140516063
 40
0.2298756653
 40
0.3489061267
 40
0.4719991681
 40
0.5993451845
 40
0.7304968567
 40
0.8644972772
 40
1.0
 40
1.0
 40
1.0
 40
1.0
 10
43.4512430055
 20
76.6557999346
 30
0.0
 10
43.4512369741
 20
76.7683877628
 30
0.0
 10
43.4243189259
 20
76.9961790415
 30
0.0
 10
43.3053274518
 20
77.3224138743
 30
0.0
 10
43.1129456342
 20
77.6220760898
 30
0.0
 10
42.8552494281
 20
77.8836034049
 30
0.0
 10
42.5425114985
 20
78.0974802633
 30
0.0
 10
42.1867539902
 20
78.2560037306
 30
0.0
 10
41.8015918145
 20
78.3534443115
 30
0.0
 10
41.5350195954
 20
78.3753262099
 30
0.0
 10
41.4012559616
 20
78.3753262099
 30
0.0
  0
SPLINE
  5
3AD
100
AcDbEntity
  8
0
100
AcDbSpline
 62
7
  6
BYLAYER
 70
0
 71
3
 72
15
 73
11
 74
0
 42
0.0000001
 43
0.0000001
 44
0.0000000001
 40
0.0
 40
0.0
 40
0.0
 40
0.0
 40
0.1355005648
 40
0.2695019305
 40
0.4006516754
 40
0.5279975091
 40
0.651091551
 40
0.7701238438
 40
0.8859487628
 40
1.0
 40
1.0
 40
1.0
 40
1.0
 10
51.4012559616
 20
78.3753262099
 30
0.0
 10
51.267494574
 20
78.3753262099
 30
0.0
 10
51.0009240979
 20
78.3534431169
 30
0.0
 10
50.6157641137
 20
78.2560073002
 30
0.0
 10
50.2600091107
 20
78.0974821107
 30
0.0
 10
49.9472699922
 20
77.8836095358
 30
0.0
 10
49.6895729669
 20
77.6220798614
 30
0.0
 10
49.4971870604
 20
77.3224156804
 30
0.0
 10
49.3781989145
 20
76.9961787479
 30
0.0
 10
49.3512713349
 20
76.7683873286
 30
0.0
 10
49.3512711636
 20
76.6557999622
 30
0.0
  0
SPLINE
  5
3AE
100
AcDbEntity
  8
0
100
AcDbSpline
 62
7
  6
BYLAYER
 70
0
 71
3
 72
15
 73
11
 74
0
 42
0.0000001
 43
0.0000001
 44
0.0000000001
 40
0.0
 40
0.0
 40
0.0
 40
0.0
 40
0.1355005648
 40
0.2695019305
 40
0.4006516754
 40
0.5279975091
 40
0.651091551
 40
0.7701238438
 40
0.8859487628
 40
1.0
 40
1.0
 40
1.0
 40
1.0
 10
56.4012559616
 20
78.3753262099
 30
0.0
 10
56.267494574
 20
78.3753262099
 30
0.0
 10
56.0009240979
 20
78.3534431169
 30
0.0
 10
55.6157641137
 20
78.2560073002
 30
0.0
 10
55.2600091107
 20
78.0974821107
 30
0.0
 10
54.9472699922
 20
77.8836095358
 30
0.0
 10
54.6895729669
 20
77.6220798614
 30
0.0
 10
54.4971870604
 20
77.3224156804
 30
0.0
 10
54.3781989145
 20
76.9961787479
 30
0.0
 10
54.3512713349
 20
76.7683873286
 30
0.0
 10
54.3512711636
 20
76.6557999622
 30
0.0
  0
SPLINE
  5
3AF
100
AcDbEntity
  8
0
100
AcDbSpline
 62
7
  6
BYLAYER
 70
0
 71
3
 72
15
 73
11
 74
0
 42
0.0000001
 43
0.0000001
 44
0.0000000001
 40
0.0
 40
0.0
 40
0.0
 40
0.0
 40
0.1355005648
 40
0.2695019305
 40
0.4006516754
 40
0.5279975091
 40
0.651091551
 40
0.7701238438
 40
0.8859487628
 40
1.0
 40
1.0
 40
1.0
 40
1.0
 10
41.4012559616
 20
78.3753262099
 30
0.0
 10
41.267494574
 20
78.3753262099
 30
0.0
 10
41.0009240979
 20
78.3534431169
 30
0.0
 10
40.6157641137
 20
78.2560073002
 30
0.0
 10
40.2600091107
 20
78.0974821107
 30
0.0
 10
39.9472699922
 20
77.8836095358
 30
0.0
 10
39.6895729669
 20
77.6220798614
 30
0.0
 10
39.4971870604
 20
77.3224156804
 30
0.0
 10
39.3781989145
 20
76.9961787479
 30
0.0
 10
39.3512713349
 20
76.7683873286
 30
0.0
 10
39.3512711636
 20
76.6557999622
 30
0.0
  0
SPLINE
  5
3B0
100
AcDbEntity
  8
0
100
AcDbSpline
 62
7
  6
BYLAYER
 70
0
 71
3
 72
15
 73
11
 74
0
 42
0.0000001
 43
0.0000001
 44
0.0000000001
 40
0.0
 40
0.0
 40
0.0
 40
0.0
 40
0.1355005648
 40
0.2695019305
 40
0.4006516754
 40
0.5279975091
 40
0.651091551
 40
0.7701238438
 40
0.8859487628
 40
1.0
 40
1.0
 40
1.0
 40
1.0
 10
46.4012559616
 20
78.3753262099
 30
0.0
 10
46.267494574
 20
78.3753262099
 30
0.0
 10
46.0009240979
 20
78.3534431169
 30
0.0
 10
45.6157641137
 20
78.2560073002
 30
0.0
 10
45.2600091107
 20
78.0974821107
 30
0.0
 10
44.9472699922
 20
77.8836095358
 30
0.0
 10
44.6895729669
 20
77.6220798614
 30
0.0
 10
44.4971870604
 20
77.3224156804
 30
0.0
 10
44.3781989145
 20
76.9961787479
 30
0.0
 10
44.3512713349
 20
76.7683873286
 30
0.0
 10
44.3512711636
 20
76.6557999622
 30
0.0
  0
SPLINE
  5
3B1
100
AcDbEntity
  8
0
100
AcDbSpline
 62
7
  6
BYLAYER
 70
0
 71
3
 72
15
 73
11
 74
0
 42
0.0000001
 43
0.0000001
 44
0.0000000001
 40
0.0
 40
0.0
 40
0.0
 40
0.0
 40
0.1140516063
 40
0.2298756653
 40
0.3489061267
 40
0.4719991681
 40
0.5993451845
 40
0.7304968567
 40
0.8644972772
 40
1.0
 40
1.0
 40
1.0
 40
1.0
 10
58.4512430055
 20
76.6557999346
 30
0.0
 10
58.4512369741
 20
76.7683877628
 30
0.0
 10
58.4243189259
 20
76.9961790415
 30
0.0
 10
58.3053274518
 20
77.3224138743
 30
0.0
 10
58.1129456342
 20
77.6220760898
 30
0.0
 10
57.8552494281
 20
77.8836034049
 30
0.0
 10
57.5425114985
 20
78.0974802633
 30
0.0
 10
57.1867539902
 20
78.2560037306
 30
0.0
 10
56.8015918145
 20
78.3534443115
 30
0.0
 10
56.5350195954
 20
78.3753262099
 30
0.0
 10
56.4012559616
 20
78.3753262099
 30
0.0
  0
SPLINE
  5
3B2
100
AcDbEntity
  8
0
100
AcDbSpline
 62
7
  6
BYLAYER
 70
0
 71
3
 72
15
 73
11
 74
0
 42
0.0000001
 43
0.0000001
 44
0.0000000001
 40
0.0
 40
0.0
 40
0.0
 40
0.0
 40
0.1140516063
 40
0.2298756653
 40
0.3489061267
 40
0.4719991681
 40
0.5993451845
 40
0.7304968567
 40
0.8644972772
 40
1.0
 40
1.0
 40
1.0
 40
1.0
 10
53.4512430055
 20
76.6557999346
 30
0.0
 10
53.4512369741
 20
76.7683877628
 30
0.0
 10
53.4243189259
 20
76.9961790415
 30
0.0
 10
53.3053274518
 20
77.3224138743
 30
0.0
 10
53.1129456342
 20
77.6220760898
 30
0.0
 10
52.8552494281
 20
77.8836034049
 30
0.0
 10
52.5425114985
 20
78.0974802633
 30
0.0
 10
52.1867539902
 20
78.2560037306
 30
0.0
 10
51.8015918145
 20
78.3534443115
 30
0.0
 10
51.5350195954
 20
78.3753262099
 30
0.0
 10
51.4012559616
 20
78.3753262099
 30
0.0
  0
SPLINE
  5
3B3
100
AcDbEntity
  8
0
100
AcDbSpline
 62
7
  6
BYLAYER
 70
0
 71
3
 72
15
 73
11
 74
0
 42
0.0000001
 43
0.0000001
 44
0.0000000001
 40
0.0
 40
0.0
 40
0.0
 40
0.0
 40
0.1356085649
 40
0.2686955965
 40
0.3985075562
 40
0.5247547698
 40
0.6474297397
 40
0.7669516117
 40
0.8841099349
 40
1.0
 40
1.0
 40
1.0
 40
1.0
 10
41.931835004
 20
74.9948651433
 30
0.0
 10
42.038937741
 20
75.0189369103
 30
0.0
 10
42.2481556156
 20
75.0814801919
 30
0.0
 10
42.5417850854
 20
75.2177444724
 30
0.0
 10
42.8054131218
 20
75.3924870674
 30
0.0
 10
43.0319402727
 20
75.6011021631
 30
0.0
 10
43.2152069485
 20
75.8383036833
 30
0.0
 10
43.3500832956
 20
76.0979057261
 30
0.0
 10
43.4326623816
 20
76.3728302961
 30
0.0
 10
43.4512480311
 20
76.5619874472
 30
0.0
 10
43.4512430055
 20
76.6557999346
 30
0.0
  0
SPLINE
  5
3B4
100
AcDbEntity
  8
0
100
AcDbSpline
 62
7
  6
BYLAYER
 70
0
 71
3
 72
15
 73
11
 74
0
 42
0.0000001
 43
0.0000001
 44
0.0000000001
 40
0.0
 40
0.0
 40
0.0
 40
0.0
 40
0.1140503326
 40
0.2298734337
 40
0.348903673
 40
0.4719964824
 40
0.599342812
 40
0.7304937251
 40
0.864497937
 40
1.0
 40
1.0
 40
1.0
 40
1.0
 10
39.3512711636
 20
76.6557999622
 30
0.0
 10
39.3512709923
 20
76.5432135122
 30
0.0
 10
39.3781985699
 20
76.3154248566
 30
0.0
 10
39.4971837165
 20
75.9891921012
 30
0.0
 10
39.6895652983
 20
75.6895313398
 30
0.0
 10
39.9472579819
 20
75.4280014209
 30
0.0
 10
40.2599958863
 20
75.2141264899
 30
0.0
 10
40.6157533216
 20
75.0555958243
 30
0.0
 10
41.0009184896
 20
74.9581580419
 30
0.0
 10
41.2674931228
 20
74.9362737072
 30
0.0
 10
41.4012559616
 20
74.9362737072
 30
0.0
  0
SPLINE
  5
3B5
100
AcDbEntity
  8
0
100
AcDbSpline
 62
7
  6
BYLAYER
 70
0
 71
3
 72
15
 73
11
 74
0
 42
0.0000001
 43
0.0000001
 44
0.0000000001
 40
0.0
 40
0.0
 40
0.0
 40
0.0
 40
0.1356085649
 40
0.2686955965
 40
0.3985075562
 40
0.5247547698
 40
0.6474297397
 40
0.7669516117
 40
0.8841099349
 40
1.0
 40
1.0
 40
1.0
 40
1.0
 10
46.931835004
 20
74.9948651433
 30
0.0
 10
47.038937741
 20
75.0189369103
 30
0.0
 10
47.2481556156
 20
75.0814801919
 30
0.0
 10
47.5417850854
 20
75.2177444724
 30
0.0
 10
47.8054131218
 20
75.3924870674
 30
0.0
 10
48.0319402727
 20
75.6011021631
 30
0.0
 10
48.2152069485
 20
75.8383036833
 30
0.0
 10
48.3500832956
 20
76.0979057261
 30
0.0
 10
48.4326623816
 20
76.3728302961
 30
0.0
 10
48.4512480311
 20
76.5619874472
 30
0.0
 10
48.4512430055
 20
76.6557999346
 30
0.0
  0
SPLINE
  5
3B6
100
AcDbEntity
  8
0
100
AcDbSpline
 62
7
  6
BYLAYER
 70
0
 71
3
 72
13
 73
9
 74
0
 42
0.0000001
 43
0.0000001
 44
0.0000000001
 40
0.0
 40
0.0
 40
0.0
 40
0.0
 40
0.1164802995
 40
0.2351430994
 40
0.3563496191
 40
0.4802845978
 40
0.7356810105
 40
1.0
 40
1.0
 40
1.0
 40
1.0
 10
48.3595686587
 20
77.2362165643
 30
0.0
 10
48.3339002536
 20
77.16667781
 30
0.0
 10
48.2717262074
 20
77.0299018985
 30
0.0
 10
48.1495401291
 20
76.8380635036
 30
0.0
 10
47.999628065
 20
76.660723639
 30
0.0
 10
47.7638496896
 20
76.445433687
 30
0.0
 10
47.4120571979
 20
76.2277903745
 30
0.0
 10
47.095946571
 20
76.1206498878
 30
0.0
 10
46.931835004
 20
76.083765159
 30
0.0
  0
SPLINE
  5
3B7
100
AcDbEntity
  8
0
100
AcDbSpline
 62
7
  6
BYLAYER
 70
0
 71
3
 72
13
 73
9
 74
0
 42
0.0000001
 43
0.0000001
 44
0.0000000001
 40
0.0
 40
0.0
 40
0.0
 40
0.0
 40
0.1164802995
 40
0.2351430994
 40
0.3563496191
 40
0.4802845978
 40
0.7356810105
 40
1.0
 40
1.0
 40
1.0
 40
1.0
 10
43.3595686587
 20
77.2362165643
 30
0.0
 10
43.3339002536
 20
77.16667781
 30
0.0
 10
43.2717262074
 20
77.0299018985
 30
0.0
 10
43.1495401291
 20
76.8380635036
 30
0.0
 10
42.999628065
 20
76.660723639
 30
0.0
 10
42.7638496896
 20
76.445433687
 30
0.0
 10
42.4120571979
 20
76.2277903745
 30
0.0
 10
42.095946571
 20
76.1206498878
 30
0.0
 10
41.931835004
 20
76.083765159
 30
0.0
  0
SPLINE
  5
3B8
100
AcDbEntity
  8
0
100
AcDbSpline
 62
7
  6
BYLAYER
 70
0
 71
3
 72
13
 73
9
 74
0
 42
0.0000001
 43
0.0000001
 44
0.0000000001
 40
0.0
 40
0.0
 40
0.0
 40
0.0
 40
0.1164802995
 40
0.2351430994
 40
0.3563496191
 40
0.4802845978
 40
0.7356810105
 40
1.0
 40
1.0
 40
1.0
 40
1.0
 10
58.3595686587
 20
77.2362165643
 30
0.0
 10
58.3339002536
 20
77.16667781
 30
0.0
 10
58.2717262074
 20
77.0299018985
 30
0.0
 10
58.1495401291
 20
76.8380635036
 30
0.0
 10
57.999628065
 20
76.660723639
 30
0.0
 10
57.7638496896
 20
76.445433687
 30
0.0
 10
57.4120571979
 20
76.2277903745
 30
0.0
 10
57.095946571
 20
76.1206498878
 30
0.0
 10
56.931835004
 20
76.083765159
 30
0.0
  0
SPLINE
  5
3B9
100
AcDbEntity
  8
0
100
AcDbSpline
 62
7
  6
BYLAYER
 70
0
 71
3
 72
15
 73
11
 74
0
 42
0.0000001
 43
0.0000001
 44
0.0000000001
 40
0.0
 40
0.0
 40
0.0
 40
0.0
 40
0.1140503326
 40
0.2298734337
 40
0.348903673
 40
0.4719964824
 40
0.599342812
 40
0.7304937251
 40
0.864497937
 40
1.0
 40
1.0
 40
1.0
 40
1.0
 10
54.3512711636
 20
76.6557999622
 30
0.0
 10
54.3512709923
 20
76.5432135122
 30
0.0
 10
54.3781985699
 20
76.3154248566
 30
0.0
 10
54.4971837165
 20
75.9891921012
 30
0.0
 10
54.6895652983
 20
75.6895313398
 30
0.0
 10
54.9472579819
 20
75.4280014209
 30
0.0
 10
55.2599958863
 20
75.2141264899
 30
0.0
 10
55.6157533216
 20
75.0555958243
 30
0.0
 10
56.0009184896
 20
74.9581580419
 30
0.0
 10
56.2674931228
 20
74.9362737072
 30
0.0
 10
56.4012559616
 20
74.9362737072
 30
0.0
  0
SPLINE
  5
3BA
100
AcDbEntity
  8
0
100
AcDbSpline
 62
7
  6
BYLAYER
 70
0
 71
3
 72
9
 73
5
 74
0
 42
0.0000001
 43
0.0000001
 44
0.0000000001
 40
0.0
 40
0.0
 40
0.0
 40
0.0
 40
0.2490844591
 40
1.0
 40
1.0
 40
1.0
 40
1.0
 10
51.931835004
 20
76.083765159
 30
0.0
 10
51.8885433329
 20
76.0740351834
 30
0.0
 10
51.7136764263
 20
76.0398488819
 30
0.0
 10
51.5350232139
 20
76.0251737229
 30
0.0
 10
51.4012559616
 20
76.0251737229
 30
0.0
  0
SPLINE
  5
3BB
100
AcDbEntity
  8
0
100
AcDbSpline
 62
7
  6
BYLAYER
 70
0
 71
3
 72
13
 73
9
 74
0
 42
0.0000001
 43
0.0000001
 44
0.0000000001
 40
0.0
 40
0.0
 40
0.0
 40
0.0
 40
0.26413173
 40
0.5211413135
 40
0.6456605773
 40
0.7668866525
 40
0.8848751059
 40
1.0
 40
1.0
 40
1.0
 40
1.0
 10
51.4012559616
 20
76.0251737229
 30
0.0
 10
51.1908051304
 20
76.0251737229
 30
0.0
 10
50.7736419332
 20
76.078882206
 30
0.0
 10
50.2921441068
 20
76.278962452
 30
0.0
 10
49.9630748621
 20
76.5096762059
 30
0.0
 10
49.7528271334
 20
76.710918182
 30
0.0
 10
49.5819921832
 20
76.9372104337
 30
0.0
 10
49.4962485301
 20
77.1032237202
 30
0.0
 10
49.4616061127
 20
77.1881579754
 30
0.0
  0
SPLINE
  5
3BC
100
AcDbEntity
  8
0
100
AcDbSpline
 62
7
  6
BYLAYER
 70
0
 71
3
 72
15
 73
11
 74
0
 42
0.0000001
 43
0.0000001
 44
0.0000000001
 40
0.0
 40
0.0
 40
0.0
 40
0.0
 40
0.1140503326
 40
0.2298734337
 40
0.348903673
 40
0.4719964824
 40
0.599342812
 40
0.7304937251
 40
0.864497937
 40
1.0
 40
1.0
 40
1.0
 40
1.0
 10
49.3512711636
 20
76.6557999622
 30
0.0
 10
49.3512709923
 20
76.5432135122
 30
0.0
 10
49.3781985699
 20
76.3154248566
 30
0.0
 10
49.4971837165
 20
75.9891921012
 30
0.0
 10
49.6895652983
 20
75.6895313398
 30
0.0
 10
49.9472579819
 20
75.4280014209
 30
0.0
 10
50.2599958863
 20
75.2141264899
 30
0.0
 10
50.6157533216
 20
75.0555958243
 30
0.0
 10
51.0009184896
 20
74.9581580419
 30
0.0
 10
51.2674931228
 20
74.9362737072
 30
0.0
 10
51.4012559616
 20
74.9362737072
 30
0.0
  0
SPLINE
  5
3BD
100
AcDbEntity
  8
0
100
AcDbSpline
 62
7
  6
BYLAYER
 70
0
 71
3
 72
9
 73
5
 74
0
 42
0.0000001
 43
0.0000001
 44
0.0000000001
 40
0.0
 40
0.0
 40
0.0
 40
0.0
 40
0.2490844591
 40
1.0
 40
1.0
 40
1.0
 40
1.0
 10
56.931835004
 20
76.083765159
 30
0.0
 10
56.8885433329
 20
76.0740351834
 30
0.0
 10
56.7136764263
 20
76.0398488819
 30
0.0
 10
56.5350232139
 20
76.0251737229
 30
0.0
 10
56.4012559616
 20
76.0251737229
 30
0.0
  0
SPLINE
  5
3BE
100
AcDbEntity
  8
0
100
AcDbSpline
 62
7
  6
BYLAYER
 70
0
 71
3
 72
13
 73
9
 74
0
 42
0.0000001
 43
0.0000001
 44
0.0000000001
 40
0.0
 40
0.0
 40
0.0
 40
0.0
 40
0.26413173
 40
0.5211413135
 40
0.6456605773
 40
0.7668866525
 40
0.8848751059
 40
1.0
 40
1.0
 40
1.0
 40
1.0
 10
56.4012559616
 20
76.0251737229
 30
0.0
 10
56.1908051304
 20
76.0251737229
 30
0.0
 10
55.7736419332
 20
76.078882206
 30
0.0
 10
55.2921441068
 20
76.278962452
 30
0.0
 10
54.9630748621
 20
76.5096762059
 30
0.0
 10
54.7528271334
 20
76.710918182
 30
0.0
 10
54.5819921832
 20
76.9372104337
 30
0.0
 10
54.4962485301
 20
77.1032237202
 30
0.0
 10
54.4616061127
 20
77.1881579754
 30
0.0
  0
SPLINE
  5
3BF
100
AcDbEntity
  8
0
100
AcDbSpline
 62
7
  6
BYLAYER
 70
0
 71
3
 72
9
 73
5
 74
0
 42
0.0000001
 43
0.0000001
 44
0.0000000001
 40
0.0
 40
0.0
 40
0.0
 40
0.0
 40
0.2490844591
 40
1.0
 40
1.0
 40
1.0
 40
1.0
 10
41.931835004
 20
76.083765159
 30
0.0
 10
41.8885433329
 20
76.0740351834
 30
0.0
 10
41.7136764263
 20
76.0398488819
 30
0.0
 10
41.5350232139
 20
76.0251737229
 30
0.0
 10
41.4012559616
 20
76.0251737229
 30
0.0
  0
SPLINE
  5
3C0
100
AcDbEntity
  8
0
100
AcDbSpline
 62
7
  6
BYLAYER
 70
0
 71
3
 72
13
 73
9
 74
0
 42
0.0000001
 43
0.0000001
 44
0.0000000001
 40
0.0
 40
0.0
 40
0.0
 40
0.0
 40
0.26413173
 40
0.5211413135
 40
0.6456605773
 40
0.7668866525
 40
0.8848751059
 40
1.0
 40
1.0
 40
1.0
 40
1.0
 10
41.4012559616
 20
76.0251737229
 30
0.0
 10
41.1908051304
 20
76.0251737229
 30
0.0
 10
40.7736419332
 20
76.078882206
 30
0.0
 10
40.2921441068
 20
76.278962452
 30
0.0
 10
39.9630748621
 20
76.5096762059
 30
0.0
 10
39.7528271334
 20
76.710918182
 30
0.0
 10
39.5819921832
 20
76.9372104337
 30
0.0
 10
39.4962485301
 20
77.1032237202
 30
0.0
 10
39.4616061127
 20
77.1881579754
 30
0.0
  0
SPLINE
  5
3C1
100
AcDbEntity
  8
0
100
AcDbSpline
 62
7
  6
BYLAYER
 70
0
 71
3
 72
13
 73
9
 74
0
 42
0.0000001
 43
0.0000001
 44
0.0000000001
 40
0.0
 40
0.0
 40
0.0
 40
0.0
 40
0.1164802995
 40
0.2351430994
 40
0.3563496191
 40
0.4802845978
 40
0.7356810105
 40
1.0
 40
1.0
 40
1.0
 40
1.0
 10
53.3595686587
 20
77.2362165643
 30
0.0
 10
53.3339002536
 20
77.16667781
 30
0.0
 10
53.2717262074
 20
77.0299018985
 30
0.0
 10
53.1495401291
 20
76.8380635036
 30
0.0
 10
52.999628065
 20
76.660723639
 30
0.0
 10
52.7638496896
 20
76.445433687
 30
0.0
 10
52.4120571979
 20
76.2277903745
 30
0.0
 10
52.095946571
 20
76.1206498878
 30
0.0
 10
51.931835004
 20
76.083765159
 30
0.0
  0
SPLINE
  5
3C2
100
AcDbEntity
  8
0
100
AcDbSpline
 62
7
  6
BYLAYER
 70
0
 71
3
 72
9
 73
5
 74
0
 42
0.0000001
 43
0.0000001
 44
0.0000000001
 40
0.0
 40
0.0
 40
0.0
 40
0.0
 40
0.2490844591
 40
1.0
 40
1.0
 40
1.0
 40
1.0
 10
46.931835004
 20
76.083765159
 30
0.0
 10
46.8885433329
 20
76.0740351834
 30
0.0
 10
46.7136764263
 20
76.0398488819
 30
0.0
 10
46.5350232139
 20
76.0251737229
 30
0.0
 10
46.4012559616
 20
76.0251737229
 30
0.0
  0
SPLINE
  5
3C3
100
AcDbEntity
  8
0
100
AcDbSpline
 62
7
  6
BYLAYER
 70
0
 71
3
 72
13
 73
9
 74
0
 42
0.0000001
 43
0.0000001
 44
0.0000000001
 40
0.0
 40
0.0
 40
0.0
 40
0.0
 40
0.26413173
 40
0.5211413135
 40
0.6456605773
 40
0.7668866525
 40
0.8848751059
 40
1.0
 40
1.0
 40
1.0
 40
1.0
 10
46.4012559616
 20
76.0251737229
 30
0.0
 10
46.1908051304
 20
76.0251737229
 30
0.0
 10
45.7736419332
 20
76.078882206
 30
0.0
 10
45.2921441068
 20
76.278962452
 30
0.0
 10
44.9630748621
 20
76.5096762059
 30
0.0
 10
44.7528271334
 20
76.710918182
 30
0.0
 10
44.5819921832
 20
76.9372104337
 30
0.0
 10
44.4962485301
 20
77.1032237202
 30
0.0
 10
44.4616061127
 20
77.1881579754
 30
0.0
  0
SPLINE
  5
3C4
100
AcDbEntity
  8
0
100
AcDbSpline
 62
7
  6
BYLAYER
 70
0
 71
3
 72
15
 73
11
 74
0
 42
0.0000001
 43
0.0000001
 44
0.0000000001
 40
0.0
 40
0.0
 40
0.0
 40
0.0
 40
0.1356085649
 40
0.2686955965
 40
0.3985075562
 40
0.5247547698
 40
0.6474297397
 40
0.7669516117
 40
0.8841099349
 40
1.0
 40
1.0
 40
1.0
 40
1.0
 10
51.931835004
 20
74.9948651433
 30
0.0
 10
52.038937741
 20
75.0189369103
 30
0.0
 10
52.2481556156
 20
75.0814801919
 30
0.0
 10
52.5417850854
 20
75.2177444724
 30
0.0
 10
52.8054131218
 20
75.3924870674
 30
0.0
 10
53.0319402727
 20
75.6011021631
 30
0.0
 10
53.2152069485
 20
75.8383036833
 30
0.0
 10
53.3500832956
 20
76.0979057261
 30
0.0
 10
53.4326623816
 20
76.3728302961
 30
0.0
 10
53.4512480311
 20
76.5619874472
 30
0.0
 10
53.4512430055
 20
76.6557999346
 30
0.0
  0
SPLINE
  5
3C5
100
AcDbEntity
  8
0
100
AcDbSpline
 62
7
  6
BYLAYER
 70
0
 71
3
 72
15
 73
11
 74
0
 42
0.0000001
 43
0.0000001
 44
0.0000000001
 40
0.0
 40
0.0
 40
0.0
 40
0.0
 40
0.1140503326
 40
0.2298734337
 40
0.348903673
 40
0.4719964824
 40
0.599342812
 40
0.7304937251
 40
0.864497937
 40
1.0
 40
1.0
 40
1.0
 40
1.0
 10
44.3512711636
 20
76.6557999622
 30
0.0
 10
44.3512709923
 20
76.5432135122
 30
0.0
 10
44.3781985699
 20
76.3154248566
 30
0.0
 10
44.4971837165
 20
75.9891921012
 30
0.0
 10
44.6895652983
 20
75.6895313398
 30
0.0
 10
44.9472579819
 20
75.4280014209
 30
0.0
 10
45.2599958863
 20
75.2141264899
 30
0.0
 10
45.6157533216
 20
75.0555958243
 30
0.0
 10
46.0009184896
 20
74.9581580419
 30
0.0
 10
46.2674931228
 20
74.9362737072
 30
0.0
 10
46.4012559616
 20
74.9362737072
 30
0.0
  0
SPLINE
  5
3C6
100
AcDbEntity
  8
0
100
AcDbSpline
 62
7
  6
BYLAYER
 70
0
 71
3
 72
15
 73
11
 74
0
 42
0.0000001
 43
0.0000001
 44
0.0000000001
 40
0.0
 40
0.0
 40
0.0
 40
0.0
 40
0.1356085649
 40
0.2686955965
 40
0.3985075562
 40
0.5247547698
 40
0.6474297397
 40
0.7669516117
 40
0.8841099349
 40
1.0
 40
1.0
 40
1.0
 40
1.0
 10
56.931835004
 20
74.9948651433
 30
0.0
 10
57.038937741
 20
75.0189369103
 30
0.0
 10
57.2481556156
 20
75.0814801919
 30
0.0
 10
57.5417850854
 20
75.2177444724
 30
0.0
 10
57.8054131218
 20
75.3924870674
 30
0.0
 10
58.0319402727
 20
75.6011021631
 30
0.0
 10
58.2152069485
 20
75.8383036833
 30
0.0
 10
58.3500832956
 20
76.0979057261
 30
0.0
 10
58.4326623816
 20
76.3728302961
 30
0.0
 10
58.4512480311
 20
76.5619874472
 30
0.0
 10
58.4512430055
 20
76.6557999346
 30
0.0
  0
SPLINE
  5
3C7
100
AcDbEntity
  8
0
100
AcDbSpline
 62
7
  6
BYLAYER
 70
0
 71
3
 72
15
 73
11
 74
0
 42
0.0000001
 43
0.0000001
 44
0.0000000001
 40
0.0
 40
0.0
 40
0.0
 40
0.0
 40
0.1140516063
 40
0.2298756653
 40
0.3489061267
 40
0.4719991681
 40
0.5993451845
 40
0.7304968567
 40
0.8644972772
 40
1.0
 40
1.0
 40
1.0
 40
1.0
 10
48.4512430055
 20
55.0217855388
 30
0.0
 10
48.4512369741
 20
55.134373367
 30
0.0
 10
48.4243189259
 20
55.3621646457
 30
0.0
 10
48.3053274518
 20
55.6883994785
 30
0.0
 10
48.1129456342
 20
55.988061694
 30
0.0
 10
47.8552494281
 20
56.2495890091
 30
0.0
 10
47.5425114985
 20
56.4634658674
 30
0.0
 10
47.1867539902
 20
56.6219893348
 30
0.0
 10
46.8015918145
 20
56.7194299157
 30
0.0
 10
46.5350195954
 20
56.741311814
 30
0.0
 10
46.4012559616
 20
56.741311814
 30
0.0
  0
SPLINE
  5
3C8
100
AcDbEntity
  8
0
100
AcDbSpline
 62
7
  6
BYLAYER
 70
0
 71
3
 72
15
 73
11
 74
0
 42
0.0000001
 43
0.0000001
 44
0.0000000001
 40
0.0
 40
0.0
 40
0.0
 40
0.0
 40
0.1140516063
 40
0.2298756653
 40
0.3489061267
 40
0.4719991681
 40
0.5993451845
 40
0.7304968567
 40
0.8644972772
 40
1.0
 40
1.0
 40
1.0
 40
1.0
 10
43.4512430055
 20
55.0217855388
 30
0.0
 10
43.4512369741
 20
55.134373367
 30
0.0
 10
43.4243189259
 20
55.3621646457
 30
0.0
 10
43.3053274518
 20
55.6883994785
 30
0.0
 10
43.1129456342
 20
55.988061694
 30
0.0
 10
42.8552494281
 20
56.2495890091
 30
0.0
 10
42.5425114985
 20
56.4634658674
 30
0.0
 10
42.1867539902
 20
56.6219893348
 30
0.0
 10
41.8015918145
 20
56.7194299157
 30
0.0
 10
41.5350195954
 20
56.741311814
 30
0.0
 10
41.4012559616
 20
56.741311814
 30
0.0
  0
SPLINE
  5
3C9
100
AcDbEntity
  8
0
100
AcDbSpline
 62
7
  6
BYLAYER
 70
0
 71
3
 72
15
 73
11
 74
0
 42
0.0000001
 43
0.0000001
 44
0.0000000001
 40
0.0
 40
0.0
 40
0.0
 40
0.0
 40
0.1355005648
 40
0.2695019305
 40
0.4006516754
 40
0.5279975091
 40
0.651091551
 40
0.7701238438
 40
0.8859487628
 40
1.0
 40
1.0
 40
1.0
 40
1.0
 10
51.4012559616
 20
56.741311814
 30
0.0
 10
51.267494574
 20
56.741311814
 30
0.0
 10
51.0009240979
 20
56.7194287211
 30
0.0
 10
50.6157641137
 20
56.6219929044
 30
0.0
 10
50.2600091107
 20
56.4634677149
 30
0.0
 10
49.9472699922
 20
56.24959514
 30
0.0
 10
49.6895729669
 20
55.9880654656
 30
0.0
 10
49.4971870604
 20
55.6884012846
 30
0.0
 10
49.3781989145
 20
55.3621643521
 30
0.0
 10
49.3512713349
 20
55.1343729328
 30
0.0
 10
49.3512711636
 20
55.0217855664
 30
0.0
  0
SPLINE
  5
3CA
100
AcDbEntity
  8
0
100
AcDbSpline
 62
7
  6
BYLAYER
 70
0
 71
3
 72
15
 73
11
 74
0
 42
0.0000001
 43
0.0000001
 44
0.0000000001
 40
0.0
 40
0.0
 40
0.0
 40
0.0
 40
0.1355005648
 40
0.2695019305
 40
0.4006516754
 40
0.5279975091
 40
0.651091551
 40
0.7701238438
 40
0.8859487628
 40
1.0
 40
1.0
 40
1.0
 40
1.0
 10
56.4012559616
 20
56.741311814
 30
0.0
 10
56.267494574
 20
56.741311814
 30
0.0
 10
56.0009240979
 20
56.7194287211
 30
0.0
 10
55.6157641137
 20
56.6219929044
 30
0.0
 10
55.2600091107
 20
56.4634677149
 30
0.0
 10
54.9472699922
 20
56.24959514
 30
0.0
 10
54.6895729669
 20
55.9880654656
 30
0.0
 10
54.4971870604
 20
55.6884012846
 30
0.0
 10
54.3781989145
 20
55.3621643521
 30
0.0
 10
54.3512713349
 20
55.1343729328
 30
0.0
 10
54.3512711636
 20
55.0217855664
 30
0.0
  0
SPLINE
  5
3CB
100
AcDbEntity
  8
0
100
AcDbSpline
 62
7
  6
BYLAYER
 70
0
 71
3
 72
15
 73
11
 74
0
 42
0.0000001
 43
0.0000001
 44
0.0000000001
 40
0.0
 40
0.0
 40
0.0
 40
0.0
 40
0.1355005648
 40
0.2695019305
 40
0.4006516754
 40
0.5279975091
 40
0.651091551
 40
0.7701238438
 40
0.8859487628
 40
1.0
 40
1.0
 40
1.0
 40
1.0
 10
41.4012559616
 20
56.741311814
 30
0.0
 10
41.267494574
 20
56.741311814
 30
0.0
 10
41.0009240979
 20
56.7194287211
 30
0.0
 10
40.6157641137
 20
56.6219929044
 30
0.0
 10
40.2600091107
 20
56.4634677149
 30
0.0
 10
39.9472699922
 20
56.24959514
 30
0.0
 10
39.6895729669
 20
55.9880654656
 30
0.0
 10
39.4971870604
 20
55.6884012846
 30
0.0
 10
39.3781989145
 20
55.3621643521
 30
0.0
 10
39.3512713349
 20
55.1343729328
 30
0.0
 10
39.3512711636
 20
55.0217855664
 30
0.0
  0
SPLINE
  5
3CC
100
AcDbEntity
  8
0
100
AcDbSpline
 62
7
  6
BYLAYER
 70
0
 71
3
 72
15
 73
11
 74
0
 42
0.0000001
 43
0.0000001
 44
0.0000000001
 40
0.0
 40
0.0
 40
0.0
 40
0.0
 40
0.1355005648
 40
0.2695019305
 40
0.4006516754
 40
0.5279975091
 40
0.651091551
 40
0.7701238438
 40
0.8859487628
 40
1.0
 40
1.0
 40
1.0
 40
1.0
 10
46.4012559616
 20
56.741311814
 30
0.0
 10
46.267494574
 20
56.741311814
 30
0.0
 10
46.0009240979
 20
56.7194287211
 30
0.0
 10
45.6157641137
 20
56.6219929044
 30
0.0
 10
45.2600091107
 20
56.4634677149
 30
0.0
 10
44.9472699922
 20
56.24959514
 30
0.0
 10
44.6895729669
 20
55.9880654656
 30
0.0
 10
44.4971870604
 20
55.6884012846
 30
0.0
 10
44.3781989145
 20
55.3621643521
 30
0.0
 10
44.3512713349
 20
55.1343729328
 30
0.0
 10
44.3512711636
 20
55.0217855664
 30
0.0
  0
SPLINE
  5
3CD
100
AcDbEntity
  8
0
100
AcDbSpline
 62
7
  6
BYLAYER
 70
0
 71
3
 72
15
 73
11
 74
0
 42
0.0000001
 43
0.0000001
 44
0.0000000001
 40
0.0
 40
0.0
 40
0.0
 40
0.0
 40
0.1140516063
 40
0.2298756653
 40
0.3489061267
 40
0.4719991681
 40
0.5993451845
 40
0.7304968567
 40
0.8644972772
 40
1.0
 40
1.0
 40
1.0
 40
1.0
 10
58.4512430055
 20
55.0217855388
 30
0.0
 10
58.4512369741
 20
55.134373367
 30
0.0
 10
58.4243189259
 20
55.3621646457
 30
0.0
 10
58.3053274518
 20
55.6883994785
 30
0.0
 10
58.1129456342
 20
55.988061694
 30
0.0
 10
57.8552494281
 20
56.2495890091
 30
0.0
 10
57.5425114985
 20
56.4634658674
 30
0.0
 10
57.1867539902
 20
56.6219893348
 30
0.0
 10
56.8015918145
 20
56.7194299157
 30
0.0
 10
56.5350195954
 20
56.741311814
 30
0.0
 10
56.4012559616
 20
56.741311814
 30
0.0
  0
SPLINE
  5
3CE
100
AcDbEntity
  8
0
100
AcDbSpline
 62
7
  6
BYLAYER
 70
0
 71
3
 72
15
 73
11
 74
0
 42
0.0000001
 43
0.0000001
 44
0.0000000001
 40
0.0
 40
0.0
 40
0.0
 40
0.0
 40
0.1140516063
 40
0.2298756653
 40
0.3489061267
 40
0.4719991681
 40
0.5993451845
 40
0.7304968567
 40
0.8644972772
 40
1.0
 40
1.0
 40
1.0
 40
1.0
 10
53.4512430055
 20
55.0217855388
 30
0.0
 10
53.4512369741
 20
55.134373367
 30
0.0
 10
53.4243189259
 20
55.3621646457
 30
0.0
 10
53.3053274518
 20
55.6883994785
 30
0.0
 10
53.1129456342
 20
55.988061694
 30
0.0
 10
52.8552494281
 20
56.2495890091
 30
0.0
 10
52.5425114985
 20
56.4634658674
 30
0.0
 10
52.1867539902
 20
56.6219893348
 30
0.0
 10
51.8015918145
 20
56.7194299157
 30
0.0
 10
51.5350195954
 20
56.741311814
 30
0.0
 10
51.4012559616
 20
56.741311814
 30
0.0
  0
SPLINE
  5
3CF
100
AcDbEntity
  8
0
100
AcDbSpline
 62
7
  6
BYLAYER
 70
0
 71
3
 72
15
 73
11
 74
0
 42
0.0000001
 43
0.0000001
 44
0.0000000001
 40
0.0
 40
0.0
 40
0.0
 40
0.0
 40
0.1356085649
 40
0.2686955965
 40
0.3985075562
 40
0.5247547698
 40
0.6474297397
 40
0.7669516117
 40
0.8841099349
 40
1.0
 40
1.0
 40
1.0
 40
1.0
 10
41.931835004
 20
53.3608507475
 30
0.0
 10
42.038937741
 20
53.3849225145
 30
0.0
 10
42.2481556156
 20
53.4474657961
 30
0.0
 10
42.5417850854
 20
53.5837300766
 30
0.0
 10
42.8054131218
 20
53.7584726716
 30
0.0
 10
43.0319402727
 20
53.9670877673
 30
0.0
 10
43.2152069485
 20
54.2042892875
 30
0.0
 10
43.3500832956
 20
54.4638913303
 30
0.0
 10
43.4326623816
 20
54.7388159002
 30
0.0
 10
43.4512480311
 20
54.9279730514
 30
0.0
 10
43.4512430055
 20
55.0217855388
 30
0.0
  0
SPLINE
  5
3D0
100
AcDbEntity
  8
0
100
AcDbSpline
 62
7
  6
BYLAYER
 70
0
 71
3
 72
15
 73
11
 74
0
 42
0.0000001
 43
0.0000001
 44
0.0000000001
 40
0.0
 40
0.0
 40
0.0
 40
0.0
 40
0.1140503326
 40
0.2298734337
 40
0.348903673
 40
0.4719964824
 40
0.599342812
 40
0.7304937251
 40
0.864497937
 40
1.0
 40
1.0
 40
1.0
 40
1.0
 10
39.3512711636
 20
55.0217855664
 30
0.0
 10
39.3512709923
 20
54.9091991164
 30
0.0
 10
39.3781985699
 20
54.6814104608
 30
0.0
 10
39.4971837165
 20
54.3551777054
 30
0.0
 10
39.6895652983
 20
54.055516944
 30
0.0
 10
39.9472579819
 20
53.7939870251
 30
0.0
 10
40.2599958863
 20
53.5801120941
 30
0.0
 10
40.6157533216
 20
53.4215814285
 30
0.0
 10
41.0009184896
 20
53.3241436461
 30
0.0
 10
41.2674931228
 20
53.3022593114
 30
0.0
 10
41.4012559616
 20
53.3022593114
 30
0.0
  0
SPLINE
  5
3D1
100
AcDbEntity
  8
0
100
AcDbSpline
 62
7
  6
BYLAYER
 70
0
 71
3
 72
15
 73
11
 74
0
 42
0.0000001
 43
0.0000001
 44
0.0000000001
 40
0.0
 40
0.0
 40
0.0
 40
0.0
 40
0.1356085649
 40
0.2686955965
 40
0.3985075562
 40
0.5247547698
 40
0.6474297397
 40
0.7669516117
 40
0.8841099349
 40
1.0
 40
1.0
 40
1.0
 40
1.0
 10
46.931835004
 20
53.3608507475
 30
0.0
 10
47.038937741
 20
53.3849225145
 30
0.0
 10
47.2481556156
 20
53.4474657961
 30
0.0
 10
47.5417850854
 20
53.5837300766
 30
0.0
 10
47.8054131218
 20
53.7584726716
 30
0.0
 10
48.0319402727
 20
53.9670877673
 30
0.0
 10
48.2152069485
 20
54.2042892875
 30
0.0
 10
48.3500832956
 20
54.4638913303
 30
0.0
 10
48.4326623816
 20
54.7388159002
 30
0.0
 10
48.4512480311
 20
54.9279730514
 30
0.0
 10
48.4512430055
 20
55.0217855388
 30
0.0
  0
SPLINE
  5
3D2
100
AcDbEntity
  8
0
100
AcDbSpline
 62
7
  6
BYLAYER
 70
0
 71
3
 72
13
 73
9
 74
0
 42
0.0000001
 43
0.0000001
 44
0.0000000001
 40
0.0
 40
0.0
 40
0.0
 40
0.0
 40
0.1164802995
 40
0.2351430994
 40
0.3563496191
 40
0.4802845978
 40
0.7356810105
 40
1.0
 40
1.0
 40
1.0
 40
1.0
 10
48.3595686587
 20
55.6022021685
 30
0.0
 10
48.3339002536
 20
55.5326634142
 30
0.0
 10
48.2717262074
 20
55.3958875027
 30
0.0
 10
48.1495401291
 20
55.2040491078
 30
0.0
 10
47.999628065
 20
55.0267092432
 30
0.0
 10
47.7638496896
 20
54.8114192912
 30
0.0
 10
47.4120571979
 20
54.5937759787
 30
0.0
 10
47.095946571
 20
54.486635492
 30
0.0
 10
46.931835004
 20
54.4497507632
 30
0.0
  0
SPLINE
  5
3D3
100
AcDbEntity
  8
0
100
AcDbSpline
 62
7
  6
BYLAYER
 70
0
 71
3
 72
13
 73
9
 74
0
 42
0.0000001
 43
0.0000001
 44
0.0000000001
 40
0.0
 40
0.0
 40
0.0
 40
0.0
 40
0.1164802995
 40
0.2351430994
 40
0.3563496191
 40
0.4802845978
 40
0.7356810105
 40
1.0
 40
1.0
 40
1.0
 40
1.0
 10
43.3595686587
 20
55.6022021685
 30
0.0
 10
43.3339002536
 20
55.5326634142
 30
0.0
 10
43.2717262074
 20
55.3958875027
 30
0.0
 10
43.1495401291
 20
55.2040491078
 30
0.0
 10
42.999628065
 20
55.0267092432
 30
0.0
 10
42.7638496896
 20
54.8114192912
 30
0.0
 10
42.4120571979
 20
54.5937759787
 30
0.0
 10
42.095946571
 20
54.486635492
 30
0.0
 10
41.931835004
 20
54.4497507632
 30
0.0
  0
SPLINE
  5
3D4
100
AcDbEntity
  8
0
100
AcDbSpline
 62
7
  6
BYLAYER
 70
0
 71
3
 72
13
 73
9
 74
0
 42
0.0000001
 43
0.0000001
 44
0.0000000001
 40
0.0
 40
0.0
 40
0.0
 40
0.0
 40
0.1164802995
 40
0.2351430994
 40
0.3563496191
 40
0.4802845978
 40
0.7356810105
 40
1.0
 40
1.0
 40
1.0
 40
1.0
 10
58.3595686587
 20
55.6022021685
 30
0.0
 10
58.3339002536
 20
55.5326634142
 30
0.0
 10
58.2717262074
 20
55.3958875027
 30
0.0
 10
58.1495401291
 20
55.2040491078
 30
0.0
 10
57.999628065
 20
55.0267092432
 30
0.0
 10
57.7638496896
 20
54.8114192912
 30
0.0
 10
57.4120571979
 20
54.5937759787
 30
0.0
 10
57.095946571
 20
54.486635492
 30
0.0
 10
56.931835004
 20
54.4497507632
 30
0.0
  0
SPLINE
  5
3D5
100
AcDbEntity
  8
0
100
AcDbSpline
 62
7
  6
BYLAYER
 70
0
 71
3
 72
15
 73
11
 74
0
 42
0.0000001
 43
0.0000001
 44
0.0000000001
 40
0.0
 40
0.0
 40
0.0
 40
0.0
 40
0.1140503326
 40
0.2298734337
 40
0.348903673
 40
0.4719964824
 40
0.599342812
 40
0.7304937251
 40
0.864497937
 40
1.0
 40
1.0
 40
1.0
 40
1.0
 10
54.3512711636
 20
55.0217855664
 30
0.0
 10
54.3512709923
 20
54.9091991164
 30
0.0
 10
54.3781985699
 20
54.6814104608
 30
0.0
 10
54.4971837165
 20
54.3551777054
 30
0.0
 10
54.6895652983
 20
54.055516944
 30
0.0
 10
54.9472579819
 20
53.7939870251
 30
0.0
 10
55.2599958863
 20
53.5801120941
 30
0.0
 10
55.6157533216
 20
53.4215814285
 30
0.0
 10
56.0009184896
 20
53.3241436461
 30
0.0
 10
56.2674931228
 20
53.3022593114
 30
0.0
 10
56.4012559616
 20
53.3022593114
 30
0.0
  0
SPLINE
  5
3D6
100
AcDbEntity
  8
0
100
AcDbSpline
 62
7
  6
BYLAYER
 70
0
 71
3
 72
9
 73
5
 74
0
 42
0.0000001
 43
0.0000001
 44
0.0000000001
 40
0.0
 40
0.0
 40
0.0
 40
0.0
 40
0.2490844591
 40
1.0
 40
1.0
 40
1.0
 40
1.0
 10
51.931835004
 20
54.4497507632
 30
0.0
 10
51.8885433329
 20
54.4400207876
 30
0.0
 10
51.7136764263
 20
54.4058344861
 30
0.0
 10
51.5350232139
 20
54.3911593271
 30
0.0
 10
51.4012559616
 20
54.3911593271
 30
0.0
  0
SPLINE
  5
3D7
100
AcDbEntity
  8
0
100
AcDbSpline
 62
7
  6
BYLAYER
 70
0
 71
3
 72
13
 73
9
 74
0
 42
0.0000001
 43
0.0000001
 44
0.0000000001
 40
0.0
 40
0.0
 40
0.0
 40
0.0
 40
0.26413173
 40
0.5211413135
 40
0.6456605773
 40
0.7668866525
 40
0.8848751059
 40
1.0
 40
1.0
 40
1.0
 40
1.0
 10
51.4012559616
 20
54.3911593271
 30
0.0
 10
51.1908051304
 20
54.3911593271
 30
0.0
 10
50.7736419332
 20
54.4448678102
 30
0.0
 10
50.2921441068
 20
54.6449480562
 30
0.0
 10
49.9630748621
 20
54.8756618101
 30
0.0
 10
49.7528271334
 20
55.0769037862
 30
0.0
 10
49.5819921832
 20
55.3031960379
 30
0.0
 10
49.4962485301
 20
55.4692093244
 30
0.0
 10
49.4616061127
 20
55.5541435796
 30
0.0
  0
SPLINE
  5
3D8
100
AcDbEntity
  8
0
100
AcDbSpline
 62
7
  6
BYLAYER
 70
0
 71
3
 72
15
 73
11
 74
0
 42
0.0000001
 43
0.0000001
 44
0.0000000001
 40
0.0
 40
0.0
 40
0.0
 40
0.0
 40
0.1140503326
 40
0.2298734337
 40
0.348903673
 40
0.4719964824
 40
0.599342812
 40
0.7304937251
 40
0.864497937
 40
1.0
 40
1.0
 40
1.0
 40
1.0
 10
49.3512711636
 20
55.0217855664
 30
0.0
 10
49.3512709923
 20
54.9091991164
 30
0.0
 10
49.3781985699
 20
54.6814104608
 30
0.0
 10
49.4971837165
 20
54.3551777054
 30
0.0
 10
49.6895652983
 20
54.055516944
 30
0.0
 10
49.9472579819
 20
53.7939870251
 30
0.0
 10
50.2599958863
 20
53.5801120941
 30
0.0
 10
50.6157533216
 20
53.4215814285
 30
0.0
 10
51.0009184896
 20
53.3241436461
 30
0.0
 10
51.2674931228
 20
53.3022593114
 30
0.0
 10
51.4012559616
 20
53.3022593114
 30
0.0
  0
SPLINE
  5
3D9
100
AcDbEntity
  8
0
100
AcDbSpline
 62
7
  6
BYLAYER
 70
0
 71
3
 72
9
 73
5
 74
0
 42
0.0000001
 43
0.0000001
 44
0.0000000001
 40
0.0
 40
0.0
 40
0.0
 40
0.0
 40
0.2490844591
 40
1.0
 40
1.0
 40
1.0
 40
1.0
 10
56.931835004
 20
54.4497507632
 30
0.0
 10
56.8885433329
 20
54.4400207876
 30
0.0
 10
56.7136764263
 20
54.4058344861
 30
0.0
 10
56.5350232139
 20
54.3911593271
 30
0.0
 10
56.4012559616
 20
54.3911593271
 30
0.0
  0
SPLINE
  5
3DA
100
AcDbEntity
  8
0
100
AcDbSpline
 62
7
  6
BYLAYER
 70
0
 71
3
 72
13
 73
9
 74
0
 42
0.0000001
 43
0.0000001
 44
0.0000000001
 40
0.0
 40
0.0
 40
0.0
 40
0.0
 40
0.26413173
 40
0.5211413135
 40
0.6456605773
 40
0.7668866525
 40
0.8848751059
 40
1.0
 40
1.0
 40
1.0
 40
1.0
 10
56.4012559616
 20
54.3911593271
 30
0.0
 10
56.1908051304
 20
54.3911593271
 30
0.0
 10
55.7736419332
 20
54.4448678102
 30
0.0
 10
55.2921441068
 20
54.6449480562
 30
0.0
 10
54.9630748621
 20
54.8756618101
 30
0.0
 10
54.7528271334
 20
55.0769037862
 30
0.0
 10
54.5819921832
 20
55.3031960379
 30
0.0
 10
54.4962485301
 20
55.4692093244
 30
0.0
 10
54.4616061127
 20
55.5541435796
 30
0.0
  0
SPLINE
  5
3DB
100
AcDbEntity
  8
0
100
AcDbSpline
 62
7
  6
BYLAYER
 70
0
 71
3
 72
9
 73
5
 74
0
 42
0.0000001
 43
0.0000001
 44
0.0000000001
 40
0.0
 40
0.0
 40
0.0
 40
0.0
 40
0.2490844591
 40
1.0
 40
1.0
 40
1.0
 40
1.0
 10
41.931835004
 20
54.4497507632
 30
0.0
 10
41.8885433329
 20
54.4400207876
 30
0.0
 10
41.7136764263
 20
54.4058344861
 30
0.0
 10
41.5350232139
 20
54.3911593271
 30
0.0
 10
41.4012559616
 20
54.3911593271
 30
0.0
  0
SPLINE
  5
3DC
100
AcDbEntity
  8
0
100
AcDbSpline
 62
7
  6
BYLAYER
 70
0
 71
3
 72
13
 73
9
 74
0
 42
0.0000001
 43
0.0000001
 44
0.0000000001
 40
0.0
 40
0.0
 40
0.0
 40
0.0
 40
0.26413173
 40
0.5211413135
 40
0.6456605773
 40
0.7668866525
 40
0.8848751059
 40
1.0
 40
1.0
 40
1.0
 40
1.0
 10
41.4012559616
 20
54.3911593271
 30
0.0
 10
41.1908051304
 20
54.3911593271
 30
0.0
 10
40.7736419332
 20
54.4448678102
 30
0.0
 10
40.2921441068
 20
54.6449480562
 30
0.0
 10
39.9630748621
 20
54.8756618101
 30
0.0
 10
39.7528271334
 20
55.0769037862
 30
0.0
 10
39.5819921832
 20
55.3031960379
 30
0.0
 10
39.4962485301
 20
55.4692093244
 30
0.0
 10
39.4616061127
 20
55.5541435796
 30
0.0
  0
SPLINE
  5
3DD
100
AcDbEntity
  8
0
100
AcDbSpline
 62
7
  6
BYLAYER
 70
0
 71
3
 72
13
 73
9
 74
0
 42
0.0000001
 43
0.0000001
 44
0.0000000001
 40
0.0
 40
0.0
 40
0.0
 40
0.0
 40
0.1164802995
 40
0.2351430994
 40
0.3563496191
 40
0.4802845978
 40
0.7356810105
 40
1.0
 40
1.0
 40
1.0
 40
1.0
 10
53.3595686587
 20
55.6022021685
 30
0.0
 10
53.3339002536
 20
55.5326634142
 30
0.0
 10
53.2717262074
 20
55.3958875027
 30
0.0
 10
53.1495401291
 20
55.2040491078
 30
0.0
 10
52.999628065
 20
55.0267092432
 30
0.0
 10
52.7638496896
 20
54.8114192912
 30
0.0
 10
52.4120571979
 20
54.5937759787
 30
0.0
 10
52.095946571
 20
54.486635492
 30
0.0
 10
51.931835004
 20
54.4497507632
 30
0.0
  0
SPLINE
  5
3DE
100
AcDbEntity
  8
0
100
AcDbSpline
 62
7
  6
BYLAYER
 70
0
 71
3
 72
9
 73
5
 74
0
 42
0.0000001
 43
0.0000001
 44
0.0000000001
 40
0.0
 40
0.0
 40
0.0
 40
0.0
 40
0.2490844591
 40
1.0
 40
1.0
 40
1.0
 40
1.0
 10
46.931835004
 20
54.4497507632
 30
0.0
 10
46.8885433329
 20
54.4400207876
 30
0.0
 10
46.7136764263
 20
54.4058344861
 30
0.0
 10
46.5350232139
 20
54.3911593271
 30
0.0
 10
46.4012559616
 20
54.3911593271
 30
0.0
  0
SPLINE
  5
3DF
100
AcDbEntity
  8
0
100
AcDbSpline
 62
7
  6
BYLAYER
 70
0
 71
3
 72
13
 73
9
 74
0
 42
0.0000001
 43
0.0000001
 44
0.0000000001
 40
0.0
 40
0.0
 40
0.0
 40
0.0
 40
0.26413173
 40
0.5211413135
 40
0.6456605773
 40
0.7668866525
 40
0.8848751059
 40
1.0
 40
1.0
 40
1.0
 40
1.0
 10
46.4012559616
 20
54.3911593271
 30
0.0
 10
46.1908051304
 20
54.3911593271
 30
0.0
 10
45.7736419332
 20
54.4448678102
 30
0.0
 10
45.2921441068
 20
54.6449480562
 30
0.0
 10
44.9630748621
 20
54.8756618101
 30
0.0
 10
44.7528271334
 20
55.0769037862
 30
0.0
 10
44.5819921832
 20
55.3031960379
 30
0.0
 10
44.4962485301
 20
55.4692093244
 30
0.0
 10
44.4616061127
 20
55.5541435796
 30
0.0
  0
SPLINE
  5
3E0
100
AcDbEntity
  8
0
100
AcDbSpline
 62
7
  6
BYLAYER
 70
0
 71
3
 72
15
 73
11
 74
0
 42
0.0000001
 43
0.0000001
 44
0.0000000001
 40
0.0
 40
0.0
 40
0.0
 40
0.0
 40
0.1356085649
 40
0.2686955965
 40
0.3985075562
 40
0.5247547698
 40
0.6474297397
 40
0.7669516117
 40
0.8841099349
 40
1.0
 40
1.0
 40
1.0
 40
1.0
 10
51.931835004
 20
53.3608507475
 30
0.0
 10
52.038937741
 20
53.3849225145
 30
0.0
 10
52.2481556156
 20
53.4474657961
 30
0.0
 10
52.5417850854
 20
53.5837300766
 30
0.0
 10
52.8054131218
 20
53.7584726716
 30
0.0
 10
53.0319402727
 20
53.9670877673
 30
0.0
 10
53.2152069485
 20
54.2042892875
 30
0.0
 10
53.3500832956
 20
54.4638913303
 30
0.0
 10
53.4326623816
 20
54.7388159002
 30
0.0
 10
53.4512480311
 20
54.9279730514
 30
0.0
 10
53.4512430055
 20
55.0217855388
 30
0.0
  0
SPLINE
  5
3E1
100
AcDbEntity
  8
0
100
AcDbSpline
 62
7
  6
BYLAYER
 70
0
 71
3
 72
15
 73
11
 74
0
 42
0.0000001
 43
0.0000001
 44
0.0000000001
 40
0.0
 40
0.0
 40
0.0
 40
0.0
 40
0.1140503326
 40
0.2298734337
 40
0.348903673
 40
0.4719964824
 40
0.599342812
 40
0.7304937251
 40
0.864497937
 40
1.0
 40
1.0
 40
1.0
 40
1.0
 10
44.3512711636
 20
55.0217855664
 30
0.0
 10
44.3512709923
 20
54.9091991164
 30
0.0
 10
44.3781985699
 20
54.6814104608
 30
0.0
 10
44.4971837165
 20
54.3551777054
 30
0.0
 10
44.6895652983
 20
54.055516944
 30
0.0
 10
44.9472579819
 20
53.7939870251
 30
0.0
 10
45.2599958863
 20
53.5801120941
 30
0.0
 10
45.6157533216
 20
53.4215814285
 30
0.0
 10
46.0009184896
 20
53.3241436461
 30
0.0
 10
46.2674931228
 20
53.3022593114
 30
0.0
 10
46.4012559616
 20
53.3022593114
 30
0.0
  0
SPLINE
  5
3E2
100
AcDbEntity
  8
0
100
AcDbSpline
 62
7
  6
BYLAYER
 70
0
 71
3
 72
15
 73
11
 74
0
 42
0.0000001
 43
0.0000001
 44
0.0000000001
 40
0.0
 40
0.0
 40
0.0
 40
0.0
 40
0.1356085649
 40
0.2686955965
 40
0.3985075562
 40
0.5247547698
 40
0.6474297397
 40
0.7669516117
 40
0.8841099349
 40
1.0
 40
1.0
 40
1.0
 40
1.0
 10
56.931835004
 20
53.3608507475
 30
0.0
 10
57.038937741
 20
53.3849225145
 30
0.0
 10
57.2481556156
 20
53.4474657961
 30
0.0
 10
57.5417850854
 20
53.5837300766
 30
0.0
 10
57.8054131218
 20
53.7584726716
 30
0.0
 10
58.0319402727
 20
53.9670877673
 30
0.0
 10
58.2152069485
 20
54.2042892875
 30
0.0
 10
58.3500832956
 20
54.4638913303
 30
0.0
 10
58.4326623816
 20
54.7388159002
 30
0.0
 10
58.4512480311
 20
54.9279730514
 30
0.0
 10
58.4512430055
 20
55.0217855388
 30
0.0
  0
ENDSEC
  0
SECTION
  2
OBJECTS
  0
DICTIONARY
  5
C
100
AcDbDictionary
280
0
281
1
  3
ACAD_GROUP
350
D
  3
ACAD_MLINESTYLE
350
17
  3
ACAD_LAYOUT
350
1A
  3
ACAD_PLOTSETTINGS
350
19
  3
ACAD_PLOTSTYLENAME
350
E
  0
DICTIONARY
  5
D
102
{ACAD_REACTORS
330
C
102
}
100
AcDbDictionary
280
0
281
1
  0
ACDBDICTIONARYWDFLT
  5
E
102
{ACAD_REACTORS
330
C
102
}
100
AcDbDictionary
281
1
  3
Normal
350
F
100
AcDbDictionaryWithDefault
340
F
  0
DICTIONARY
  5
17
102
{ACAD_REACTORS
330
C
102
}
100
AcDbDictionary
280
0
281
1
  3
Standard
350
18
  0
DICTIONARY
  5
19
102
{ACAD_REACTORS
330
C
102
}
100
AcDbDictionary
281
1
  0
DICTIONARY
  5
1A
102
{ACAD_REACTORS
330
C
102
}
100
AcDbDictionary
281
1
  3
Model
350
3E3
  3
Layout1
350
3E4
  0
ACDBPLACEHOLDER
  5
F
102
{ACAD_REACTORS
330
E
102
}
  0
MLINESTYLE
  5
18
102
{ACAD_REACTORS
330
17
102
}
100
AcDbMlineStyle
  2
STANDARD
 70
0
  3

 62
256
 51
90.0
 52
90.0
 71
2
 49
0.5
 62
256
  6
BYLAYER
 49
-0.5
 62
256
  6
BYLAYER
  0
LAYOUT
  5
3E3
102
{ACAD_REACTORS
330
1A
102
}
100
AcDbPlotSettings
  1

  2
none_device
  4

  6

 40
0.0
 41
0.0
 42
0.0
 43
0.0
 44
210.0
 45
297.0
 46
0.0
 47
0.0
 48
0.0
 49
0.0
140
0.0
141
0.0
142
1.0
143
1.0
 70
1024
 72
1
 73
0
 74
0
  7

 75
0
147
1.0
148
0.0
149
0.0
100
AcDbLayout
  1
Model
 70
0
 71
0
 10
0.0
 20
0.0
 11
210.0
 21
297.0
 12
0.0
 22
0.0
 32
0.0
 14
0.0
 24
0.0
 34
0.0
 15
0.0
 25
0.0
 35
0.0
146
0.0
 13
0.0
 23
0.0
 33
0.0
 16
1.0
 26
0.0
 36
0.0
 17
0.0
 27
1.0
 37
0.0
 76
0
330
210
345
0
346
0
  0
LAYOUT
  5
3E4
102
{ACAD_REACTORS
330
1A
102
}
100
AcDbPlotSettings
  1

  2
none_device
  4

  6

 40
0.0
 41
0.0
 42
0.0
 43
0.0
 44
210.0
 45
297.0
 46
0.0
 47
0.0
 48
0.0
 49
0.0
140
0.0
141
0.0
142
1.0
143
1.0
 70
0
 72
1
 73
0
 74
0
  7

 75
0
147
1.0
148
0.0
149
0.0
100
AcDbLayout
  1
Layout1
 70
0
 71
1
 10
0.0
 20
0.0
 11
210.0
 21
297.0
 12
0.0
 22
0.0
 32
0.0
 14
0.0
 24
0.0
 34
0.0
 15
0.0
 25
0.0
 35
0.0
146
0.0
 13
0.0
 23
0.0
 33
0.0
 16
1.0
 26
0.0
 36
0.0
 17
0.0
 27
1.0
 37
0.0
 76
0
330
211
345
0
346
0
  0
ENDSEC
  0
EOF
