999
DXF file: C:\Users\sesa63760\Dev\_Creo\CAD\MCADPD0005444_3D-CAD\drw0001_1.dxf
999
Pro/ENGINEER 2019471 by Parametric Technology Corporation
  0
SECTION
  2
HEADER
  9
$ACADVER
  1
AC1024
  9
$DWGCODEPAGE
  3
ANSI_1252
  9
$EXTMAX
 10
226.7103185528
 20
320.6331648104
 30
0.0
  9
$EXTMIN
 10
0.0
 20
0.0
 30
0.0
  9
$LIMMIN
 10
0.0
 20
0.0
  9
$LIMMAX
 10
226.7103185528
 20
320.6331648104
  9
$VIEWCTR
 10
113.3551592764
 20
160.3165824052
  9
$VIEWSIZE
 40
320.6331648104
  9
$CLAYER
  8
0
  9
$LTSCALE
 40
20.9005322247
  9
$CELTYPE
  6
BYLAYER
  9
$DIMSCALE
 40
1.0
  9
$DIMASZ
 40
2.6989323637
  9
$DIMEXO
 40
1.0
  9
$DIMDLI
 40
14.4403677189
  9
$DIMEXE
 40
1.0
  9
$DIMCEN
 40
3.4200870913
  9
$DIMLFAC
 40
1.0
  9
$DIMBLK
  1
_FILLED
  9
$DIMALT
 70
0
  9
$DIMALTF
 40
0.0393700787
  9
$DIMTXT
 40
3.7785053092
  9
$DIMTOL
 70
1
  9
$DIMLIM
 70
0
  9
$DIMTFAC
 40
1.0
  9
$DIMTP
 40
0.01
  9
$DIMTM
 40
0.01
  9
$DIMGAP
 40
0.625
  9
$DIMDSEP
 70
46
  9
$AUNITS
 70
0
  9
$PDMODE
 70
3
  9
$PDSIZE
 40
0.3125
  9
$HANDSEED
  5
2EA
  9
$TILEMODE
 70
1
  9
$MEASUREMENT
 70
1
  9
$INSUNITS
 70
4
  0
ENDSEC
  0
SECTION
  2
CLASSES
  0
CLASS
  1
ACDBDICTIONARYWDFLT
  2
AcDbDictionaryWithDefault
  3
AutoCAD 2000
 90
0
 91
1
280
0
281
0
  0
CLASS
  1
ACDBPLACEHOLDER
  2
AcDbPlaceHolder
  3
AutoCAD 2000
 90
0
 91
1
280
0
281
0
  0
CLASS
  1
LAYOUT
  2
AcDbLayout
  3
AutoCAD 2000
 90
0
 91
0
280
0
281
0
  0
ENDSEC
  0
SECTION
  2
TABLES
  0
TABLE
  2
VPORT
  5
8
100
AcDbSymbolTable
 70
2
  0
VPORT
  5
1F4
100
AcDbSymbolTableRecord
100
AcDbViewportTableRecord
  2
*ACTIVE
 70
0
 10
0.0
 20
0.0
 11
1.0
 21
1.0
 12
113.3551592764
 22
160.3165824052
 13
0.0
 23
0.0
 14
1.0
 24
1.0
 15
0.0
 25
0.0
 16
0.0
 26
0.0
 36
1.0
 17
0.0
 27
0.0
 37
0.0
 40
320.6331648104
 41
0.7070707071
 42
50.0
 43
0.0
 44
0.0
 50
0.0
 51
0.0
 71
0
 72
100
 73
1
 74
1
 75
0
 76
0
 77
0
 78
0
  0
ENDTAB
  0
TABLE
  2
LTYPE
  5
5
100
AcDbSymbolTable
 70
6
  0
LTYPE
  5
14
100
AcDbSymbolTableRecord
100
AcDbLinetypeTableRecord
  2
BYBLOCK
 70
0
  3

 72
65
 73
0
 40
0.0
  0
LTYPE
  5
15
100
AcDbSymbolTableRecord
100
AcDbLinetypeTableRecord
  2
BYLAYER
 70
0
  3

 72
65
 73
0
 40
0.0
  0
LTYPE
  5
16
100
AcDbSymbolTableRecord
100
AcDbLinetypeTableRecord
  2
CONTINUOUS
 70
64
  3
Solid line
 72
65
 73
0
 40
0.0
  0
LTYPE
  5
1F5
100
AcDbSymbolTableRecord
100
AcDbLinetypeTableRecord
  2
CENTER
 70
64
  3
____ _ ____ _ ____ _ ____ _ ____ _ ____ _ ____
 72
65
 73
4
 40
0.6
 49
0.375
 74
0
 49
-0.075
 74
0
 49
0.075
 74
0
 49
-0.075
 74
0
  0
LTYPE
  5
1F6
100
AcDbSymbolTableRecord
100
AcDbLinetypeTableRecord
  2
HIDDEN
 70
64
  3
- - - - - - - - - - - - - - - - - - - -
 72
65
 73
2
 40
0.2
 49
0.1
 74
0
 49
-0.1
 74
0
  0
LTYPE
  5
1F7
100
AcDbSymbolTableRecord
100
AcDbLinetypeTableRecord
  2
PHANTOM
 70
64
  3
_____ _ _ _____ _ _ _____ _ _ _____
 72
65
 73
6
 40
0.8
 49
0.45
 74
0
 49
-0.05
 74
0
 49
0.1
 74
0
 49
-0.05
 74
0
 49
0.1
 74
0
 49
-0.05
 74
0
  0
LTYPE
  5
1F8
100
AcDbSymbolTableRecord
100
AcDbLinetypeTableRecord
  2
DOT
 70
64
  3
. . . . . . . . . . . . . . . . . . . .
 72
65
 73
2
 40
0.2
 49
0.1
 74
0
 49
-0.1
 74
0
  0
LTYPE
  5
1F9
100
AcDbSymbolTableRecord
100
AcDbLinetypeTableRecord
  2
DASHED
 70
64
  3
- - - - - - - - - - - - - - - - - - - -
 72
65
 73
2
 40
0.2
 49
0.1
 74
0
 49
-0.1
 74
0
  0
ENDTAB
  0
TABLE
  2
LAYER
  5
2
100
AcDbSymbolTable
 70
36
  0
LAYER
  5
10
100
AcDbSymbolTableRecord
100
AcDbLayerTableRecord
  2
0
 70
0
 62
7
  6
CONTINUOUS
370
-3
390
F
  0
LAYER
  5
1FA
100
AcDbSymbolTableRecord
100
AcDbLayerTableRecord
  2
DEFAULT_1
 70
0
 62
7
  6
CENTER
370
-3
390
F
  0
LAYER
  5
1FB
100
AcDbSymbolTableRecord
100
AcDbLayerTableRecord
  2
DEFAULT_2
 70
0
 62
7
  6
HIDDEN
370
-3
390
F
  0
LAYER
  5
1FC
100
AcDbSymbolTableRecord
100
AcDbLayerTableRecord
  2
DEFAULT_3
 70
0
 62
7
  6
PHANTOM
370
-3
390
F
  0
LAYER
  5
1FD
100
AcDbSymbolTableRecord
100
AcDbLayerTableRecord
  2
00_COMPONENTS
 70
0
 62
7
  6
CONTINUOUS
370
-3
390
F
  0
LAYER
  5
1FE
100
AcDbSymbolTableRecord
100
AcDbLayerTableRecord
  2
01_1_DEFAULT_DATUMS
 70
0
 62
7
  6
CONTINUOUS
370
-3
390
F
  0
LAYER
  5
1FF
100
AcDbSymbolTableRecord
100
AcDbLayerTableRecord
  2
01_PLANES
 70
0
 62
7
  6
CONTINUOUS
370
-3
390
F
  0
LAYER
  5
200
100
AcDbSymbolTableRecord
100
AcDbLayerTableRecord
  2
02_COORD_SYS
 70
0
 62
7
  6
CONTINUOUS
370
-3
390
F
  0
LAYER
  5
201
100
AcDbSymbolTableRecord
100
AcDbLayerTableRecord
  2
03_AXES
 70
0
 62
7
  6
CONTINUOUS
370
-3
390
F
  0
LAYER
  5
202
100
AcDbSymbolTableRecord
100
AcDbLayerTableRecord
  2
04_POINTS
 70
0
 62
7
  6
CONTINUOUS
370
-3
390
F
  0
LAYER
  5
203
100
AcDbSymbolTableRecord
100
AcDbLayerTableRecord
  2
05_CURVES
 70
0
 62
7
  6
CONTINUOUS
370
-3
390
F
  0
LAYER
  5
204
100
AcDbSymbolTableRecord
100
AcDbLayerTableRecord
  2
06_SURFS
 70
0
 62
7
  6
CONTINUOUS
370
-3
390
F
  0
LAYER
  5
205
100
AcDbSymbolTableRecord
100
AcDbLayerTableRecord
  2
07_COSMETICS
 70
0
 62
7
  6
CONTINUOUS
370
-3
390
F
  0
LAYER
  5
206
100
AcDbSymbolTableRecord
100
AcDbLayerTableRecord
  2
10_NOTES
 70
0
 62
7
  6
CONTINUOUS
370
-3
390
F
  0
LAYER
  5
207
100
AcDbSymbolTableRecord
100
AcDbLayerTableRecord
  2
11_NOTES_PUB
 70
0
 62
7
  6
CONTINUOUS
370
-3
390
F
  0
LAYER
  5
208
100
AcDbSymbolTableRecord
100
AcDbLayerTableRecord
  2
13_REF_GTOL
 70
0
 62
7
  6
CONTINUOUS
370
-3
390
F
  0
LAYER
  5
209
100
AcDbSymbolTableRecord
100
AcDbLayerTableRecord
  2
16_MISC
 70
0
 62
7
  6
CONTINUOUS
370
-3
390
F
  0
LAYER
  5
20A
100
AcDbSymbolTableRecord
100
AcDbLayerTableRecord
  2
17_NO_PRINT
 70
0
 62
7
  6
CONTINUOUS
370
-3
390
F
  0
LAYER
  5
20B
100
AcDbSymbolTableRecord
100
AcDbLayerTableRecord
  2
18_DATUM_CAMS_JOINTS
 70
0
 62
7
  6
CONTINUOUS
370
-3
390
F
  0
LAYER
  5
20C
100
AcDbSymbolTableRecord
100
AcDbLayerTableRecord
  2
19_DATUM_FUNCTIONAL
 70
0
 62
7
  6
CONTINUOUS
370
-3
390
F
  0
LAYER
  5
20D
100
AcDbSymbolTableRecord
100
AcDbLayerTableRecord
  2
20_DATUM_KINEMATIC_SCHEME
 70
0
 62
7
  6
CONTINUOUS
370
-3
390
F
  0
ENDTAB
  0
TABLE
  2
STYLE
  5
3
100
AcDbSymbolTable
 70
1
  0
STYLE
  5
11
100
AcDbSymbolTableRecord
100
AcDbTextStyleTableRecord
  2
STANDARD
 70
0
 40
0.0
 41
1.0
 50
0.0
 71
0
 42
0.2
  3
ARIAL.TTF
  4

  0
STYLE
  5
20E
100
AcDbSymbolTableRecord
100
AcDbTextStyleTableRecord
  2
TEXTSTYLE_1
 70
0
 40
0.0
 41
0.8
 50
0.0
 71
0
 42
0.2
  3
gdt
  4

  0
ENDTAB
  0
TABLE
  2
VIEW
  5
6
100
AcDbSymbolTable
 70
0
  0
ENDTAB
  0
TABLE
  2
UCS
  5
7
100
AcDbSymbolTable
 70
0
  0
ENDTAB
  0
TABLE
  2
APPID
  5
9
100
AcDbSymbolTable
 70
1
  0
APPID
  5
20F
100
AcDbSymbolTableRecord
100
AcDbRegAppTableRecord
  2
ACAD
 70
0
  0
ENDTAB
  0
TABLE
  2
BLOCK_RECORD
  5
1
100
AcDbSymbolTable
 70
0
  0
BLOCK_RECORD
  5
210
100
AcDbSymbolTableRecord
100
AcDbBlockTableRecord
  2
*Model_Space
  0
BLOCK_RECORD
  5
211
100
AcDbSymbolTableRecord
100
AcDbBlockTableRecord
  2
*Paper_Space
  0
BLOCK_RECORD
  5
212
100
AcDbSymbolTableRecord
100
AcDbBlockTableRecord
  2
_FILLED
  0
ENDTAB
  0
TABLE
  2
DIMSTYLE
  5
A
100
AcDbSymbolTable
 70
1
100
AcDbDimStyleTable
 71
0
  0
DIMSTYLE
105
213
100
AcDbSymbolTableRecord
100
AcDbDimStyleTableRecord
  2
STANDARD
 70
0
  3

  4

 40
1.0
 41
2.6989323637
 42
1.0
 43
0.38
 44
1.0
 45
0.0
 46
0.0
 47
0.01
 48
0.01
140
3.7785053092
141
0.09
142
0.0
143
25.4
144
1.0
145
0.0
146
1.0
147
0.625
 71
1
 72
0
 73
0
 74
0
 75
0
 76
0
 77
1
 78
8
 79
2
170
0
171
1
172
0
173
0
174
0
175
0
176
0
177
0
178
0
270
2
179
2
271
2
272
2
273
2
274
2
275
0
280
0
281
0
282
0
283
1
284
8
285
0
286
0
287
3
288
0
340
11
278
46
341
212
342
212
343
212
344
212
  0
ENDTAB
  0
ENDSEC
  0
SECTION
  2
BLOCKS
  0
BLOCK
  5
20
100
AcDbEntity
  8
0
100
AcDbBlockBegin
  2
*Model_Space
 70
0
 10
0.0
 20
0.0
 30
0.0
  3
*Model_Space
  1

  0
ENDBLK
  5
21
100
AcDbEntity
  8
0
100
AcDbBlockEnd
  0
BLOCK
  5
1C
100
AcDbEntity
  8
0
100
AcDbBlockBegin
  2
*Paper_Space
 70
0
 10
0.0
 20
0.0
 30
0.0
  3
*Paper_Space
  1

  0
ENDBLK
  5
1D
100
AcDbEntity
  8
0
100
AcDbBlockEnd
  0
BLOCK
  5
214
100
AcDbEntity
  8
0
100
AcDbBlockBegin
  2
_FILLED
 70
64
 10
0.0
 20
0.0
  3
_FILLED
  1

  0
SOLID
  5
215
100
AcDbEntity
  8
0
  6
BYBLOCK
 62
0
100
AcDbTrace
 10
0.0
 20
0.0
 11
-1.0
 21
0.25
 12
-1.0
 22
-0.25
 13
-1.0
 23
-0.25
  0
ENDBLK
  5
216
100
AcDbEntity
  8
0
  6
BYBLOCK
 62
0
100
AcDbBlockEnd
  0
ENDSEC
  0
SECTION
  2
ENTITIES
  0
LINE
  5
217
100
AcDbEntity
  8
0
100
AcDbLine
 62
7
  6
BYLAYER
 10
27.3010153676
 20
106.9448589034
 11
26.3010112042
 21
108.6769073071
  0
LINE
  5
218
100
AcDbEntity
  8
0
100
AcDbLine
 62
7
  6
BYLAYER
 10
27.3010153676
 20
106.9448589034
 11
30.5436636672
 21
105.0727364793
  0
LINE
  5
219
100
AcDbEntity
  8
0
100
AcDbLine
 62
7
  6
BYLAYER
 10
26.3010053163
 20
112.4211955092
 11
26.3010112042
 21
108.6769073071
  0
LINE
  5
21A
100
AcDbEntity
  8
0
100
AcDbLine
 62
7
  6
BYLAYER
 10
29.1294501048
 20
105.889235497
 11
29.1294501048
 21
109.1552451655
  0
LINE
  5
21B
100
AcDbEntity
  8
0
100
AcDbLine
 62
7
  6
BYLAYER
 10
30.5436636672
 20
105.0727364793
 11
30.5436636672
 21
109.971750982
  0
LINE
  5
21C
100
AcDbEntity
  8
0
100
AcDbLine
 62
7
  6
BYLAYER
 10
29.1294501048
 20
109.1552451655
 11
26.3010112042
 21
110.7882081836
  0
LINE
  5
21D
100
AcDbEntity
  8
0
100
AcDbLine
 62
7
  6
BYLAYER
 10
30.5436636672
 20
109.971750982
 11
26.3010053163
 21
112.4211955092
  0
LINE
  5
21E
100
AcDbEntity
  8
0
100
AcDbLine
 62
7
  6
BYLAYER
 10
37.7913236251
 20
107.9916867133
 11
38.8519522201
 21
107.3793149998
  0
LINE
  5
21F
100
AcDbEntity
  8
0
100
AcDbLine
 62
7
  6
BYLAYER
 10
41.3270089605
 20
110.5772634813
 11
42.4674073134
 21
108.4818094675
  0
LINE
  5
220
100
AcDbEntity
  8
0
100
AcDbLine
 62
7
  6
BYLAYER
 10
44.7907282559
 20
108.5869240554
 11
43.4483293041
 21
111.0535492172
  0
LINE
  5
221
100
AcDbEntity
  8
0
100
AcDbLine
 62
7
  6
BYLAYER
 10
46.3817118896
 20
109.5054734016
 11
45.0393129378
 21
111.9720985634
  0
LINE
  5
222
100
AcDbEntity
  8
0
100
AcDbLine
 62
7
  6
BYLAYER
 10
32.452781957
 20
117.2383673699
 11
32.4527730783
 21
118.4630845609
  0
LINE
  5
223
100
AcDbEntity
  8
0
100
AcDbLine
 62
7
  6
BYLAYER
 10
39.9127895103
 20
115.3809860208
 11
35.6701311594
 21
117.8304305479
  0
LINE
  5
224
100
AcDbEntity
  8
0
100
AcDbLine
 62
7
  6
BYLAYER
 10
39.9127895103
 20
110.481971518
 11
39.9127895103
 21
115.3809860208
  0
LINE
  5
225
100
AcDbEntity
  8
0
100
AcDbLine
 62
7
  6
BYLAYER
 10
41.3270089605
 20
110.5772634813
 11
41.3270089605
 21
113.6527310395
  0
LINE
  5
226
100
AcDbEntity
  8
0
100
AcDbLine
 62
7
  6
BYLAYER
 10
43.4483293041
 20
111.0535492172
 11
43.4483293041
 21
113.1764555017
  0
LINE
  5
227
100
AcDbEntity
  8
0
100
AcDbLine
 62
7
  6
BYLAYER
 10
45.0393129378
 20
111.9720985634
 11
45.0393129378
 21
114.0950048479
  0
LINE
  5
228
100
AcDbEntity
  8
0
100
AcDbLine
 62
7
  6
BYLAYER
 10
43.4483293041
 20
113.1764555017
 11
41.3270089605
 21
113.6527310395
  0
LINE
  5
229
100
AcDbEntity
  8
0
100
AcDbLine
 62
7
  6
BYLAYER
 10
43.4483293041
 20
111.0535492172
 11
41.3270089605
 21
110.5772634813
  0
LINE
  5
22A
100
AcDbEntity
  8
0
100
AcDbLine
 62
7
  6
BYLAYER
 10
188.6953161361
 20
215.7137979327
 11
186.2204527058
 21
214.2849433942
  0
LINE
  5
22B
100
AcDbEntity
  8
0
100
AcDbLine
 62
7
  6
BYLAYER
 10
189.8924205191
 20
214.7104988346
 11
191.5137341346
 21
215.6465590994
  0
LINE
  5
22C
100
AcDbEntity
  8
0
100
AcDbLine
 62
7
  6
BYLAYER
 10
192.1168551429
 20
215.0769532763
 11
190.3490955499
 21
214.0563428916
  0
LINE
  5
22D
100
AcDbEntity
  8
0
100
AcDbLine
 62
7
  6
BYLAYER
 10
35.9181199822
 20
123.5246582101
 11
34.3271363485
 21
122.6061088639
  0
LINE
  5
22E
100
AcDbEntity
  8
0
100
AcDbLine
 62
7
  6
BYLAYER
 10
188.4704426329
 20
210.3878232615
 11
185.642027284
 21
208.7548466461
  0
LINE
  5
22F
100
AcDbEntity
  8
0
100
AcDbLine
 62
7
  6
BYLAYER
 10
190.3490955499
 20
211.216351293
 11
192.1168551429
 21
212.2369616777
  0
LINE
  5
230
100
AcDbEntity
  8
0
100
AcDbLine
 62
7
  6
BYLAYER
 10
149.9336879902
 20
186.2744781367
 11
150.0870442638
 21
186.3325428738
  0
LINE
  5
231
100
AcDbEntity
  8
0
100
AcDbLine
 62
7
  6
BYLAYER
 10
42.4674073134
 20
114.431396251
 11
41.3270089605
 21
113.6527310395
  0
LINE
  5
232
100
AcDbEntity
  8
0
100
AcDbLine
 62
7
  6
BYLAYER
 10
43.4483293041
 20
113.1764555017
 11
44.7907282559
 21
114.0930469376
  0
LINE
  5
233
100
AcDbEntity
  8
0
100
AcDbLine
 62
7
  6
BYLAYER
 10
45.0393129378
 20
114.0950048479
 11
46.3817118896
 21
115.0115962838
  0
LINE
  5
234
100
AcDbEntity
  8
0
100
AcDbLine
 62
7
  6
BYLAYER
 10
150.3977287473
 20
187.6738812528
 11
187.520680201
 21
209.1066993311
  0
LINE
  5
235
100
AcDbEntity
  8
0
100
AcDbLine
 62
7
  6
BYLAYER
 10
150.2991717076
 20
186.6177130442
 11
149.2690724726
 21
186.0229885236
  0
LINE
  5
236
100
AcDbEntity
  8
0
100
AcDbLine
 62
7
  6
BYLAYER
 10
40.3230302742
 20
123.1233371935
 11
51.3351910185
 21
129.4811732124
  0
LINE
  5
237
100
AcDbEntity
  8
0
100
AcDbLine
 62
7
  6
BYLAYER
 10
149.9336879902
 20
186.2744781367
 11
150.1615820828
 21
186.4060520671
  0
LINE
  5
238
100
AcDbEntity
  8
0
100
AcDbLine
 62
7
  6
BYLAYER
 10
194.6953098826
 20
211.8357913353
 11
196.4493525517
 21
212.8484822976
  0
LINE
  5
239
100
AcDbEntity
  8
0
100
AcDbLine
 62
7
  6
BYLAYER
 10
196.6697425471
 20
212.6698035977
 11
195.0484289316
 21
211.7337433329
  0
LINE
  5
23A
100
AcDbEntity
  8
0
100
AcDbLine
 62
7
  6
BYLAYER
 10
35.6701311594
 20
117.8304305479
 11
26.3010053163
 21
112.4211955092
  0
LINE
  5
23B
100
AcDbEntity
  8
0
100
AcDbLine
 62
7
  6
BYLAYER
 10
54.9237321781
 20
128.9464359254
 11
151.1402067889
 21
184.496711852
  0
LINE
  5
23C
100
AcDbEntity
  8
0
100
AcDbLine
 62
7
  6
BYLAYER
 10
191.7633385519
 20
206.657254804
 11
154.6403870982
 21
185.2244367257
  0
LINE
  5
23D
100
AcDbEntity
  8
0
100
AcDbLine
 62
7
  6
BYLAYER
 10
154.6403870982
 20
184.5697485866
 11
191.7633385519
 21
206.0025666649
  0
LINE
  5
23E
100
AcDbEntity
  8
0
100
AcDbLine
 62
7
  6
BYLAYER
 10
155.1044278553
 20
183.2892176193
 11
192.2273793091
 21
204.7220356975
  0
LINE
  5
23F
100
AcDbEntity
  8
0
100
AcDbLine
 62
7
  6
BYLAYER
 10
39.9127895103
 20
115.3809860208
 11
29.1294501048
 21
109.1552451655
  0
LINE
  5
240
100
AcDbEntity
  8
0
100
AcDbLine
 62
7
  6
BYLAYER
 10
57.8155464399
 20
125.7170858552
 11
155.3828587246
 21
182.0472636211
  0
LINE
  5
241
100
AcDbEntity
  8
0
100
AcDbLine
 62
7
  6
BYLAYER
 10
156.1960284935
 20
181.4553225019
 11
193.3189799472
 21
202.8881405802
  0
LINE
  5
242
100
AcDbEntity
  8
0
100
AcDbLine
 62
7
  6
BYLAYER
 10
193.5311128648
 20
202.0308161784
 11
156.4081614111
 21
180.5979981002
  0
LINE
  5
243
100
AcDbEntity
  8
0
100
AcDbLine
 62
7
  6
BYLAYER
 10
46.3817118896
 20
115.0115962838
 11
44.7907282559
 21
114.0930469376
  0
LINE
  5
244
100
AcDbEntity
  8
0
100
AcDbLine
 62
7
  6
BYLAYER
 10
45.0393129378
 20
114.0950048479
 11
43.4483293041
 21
113.1764555017
  0
LINE
  5
245
100
AcDbEntity
  8
0
100
AcDbLine
 62
7
  6
BYLAYER
 10
39.9127895103
 20
110.481971518
 11
30.5436636672
 21
105.0727364793
  0
LINE
  5
246
100
AcDbEntity
  8
0
100
AcDbLine
 62
7
  6
BYLAYER
 10
59.1543733603
 20
121.5910388213
 11
155.3828523096
 21
177.1482454146
  0
LINE
  5
247
100
AcDbEntity
  8
0
100
AcDbLine
 62
7
  6
BYLAYER
 10
45.0393129378
 20
111.9720985634
 11
43.4483293041
 21
111.0535492172
  0
LINE
  5
248
100
AcDbEntity
  8
0
100
AcDbLine
 62
7
  6
BYLAYER
 10
156.4081614111
 20
175.6989835974
 11
193.5311128648
 21
197.1318016757
  0
LINE
  5
249
100
AcDbEntity
  8
0
100
AcDbLine
 62
7
  6
BYLAYER
 10
155.1044278553
 20
174.5131518606
 11
154.9510715818
 21
174.4550871235
  0
LINE
  5
24A
100
AcDbEntity
  8
0
100
AcDbLine
 62
7
  6
BYLAYER
 10
156.196018586
 20
175.0865941147
 11
193.3189700397
 21
196.5194121929
  0
LINE
  5
24B
100
AcDbEntity
  8
0
100
AcDbLine
 62
7
  6
BYLAYER
 10
192.8919948266
 20
196.197459552
 11
155.7690433729
 21
174.7646414737
  0
LINE
  5
24C
100
AcDbEntity
  8
0
100
AcDbLine
 62
7
  6
BYLAYER
 10
45.510119901
 20
111.1070023115
 11
57.8351619188
 21
118.2228261625
  0
LINE
  5
24D
100
AcDbEntity
  8
0
100
AcDbLine
 62
7
  6
BYLAYER
 10
191.7633385519
 20
195.2012549618
 11
154.6403870982
 21
173.7684368836
  0
LINE
  5
24E
100
AcDbEntity
  8
0
100
AcDbLine
 62
7
  6
BYLAYER
 10
154.6403870982
 20
173.1137487445
 11
191.7633385519
 21
194.5465668227
  0
LINE
  5
24F
100
AcDbEntity
  8
0
100
AcDbLine
 62
7
  6
BYLAYER
 10
196.4704068178
 20
196.5313961232
 11
193.641991469
 21
194.8984195077
  0
LINE
  5
250
100
AcDbEntity
  8
0
100
AcDbLine
 62
7
  6
BYLAYER
 10
44.7907282559
 20
108.5869240554
 11
46.3817118896
 21
109.5054734016
  0
LINE
  5
251
100
AcDbEntity
  8
0
100
AcDbLine
 62
7
  6
BYLAYER
 10
44.9680794665
 20
107.8495750099
 11
43.3770958328
 21
106.9310256637
  0
LINE
  5
252
100
AcDbEntity
  8
0
100
AcDbLine
 62
7
  6
BYLAYER
 10
201.1952601751
 20
194.0631305291
 11
198.7203967448
 21
192.6342759906
  0
LINE
  5
253
100
AcDbEntity
  8
0
100
AcDbLine
 62
7
  6
BYLAYER
 10
159.731517043
 20
190.6816735083
 11
160.0850689148
 21
191.2940468225
  0
LINE
  5
254
100
AcDbEntity
  8
0
100
AcDbLine
 62
7
  6
BYLAYER
 10
166.8025554152
 20
194.764115047
 11
167.156107287
 21
195.3764883612
  0
LINE
  5
255
100
AcDbEntity
  8
0
100
AcDbLine
 62
7
  6
BYLAYER
 10
148.6299544344
 20
183.0474256305
 11
148.6299544344
 21
185.0886463999
  0
LINE
  5
256
100
AcDbEntity
  8
0
100
AcDbLine
 62
7
  6
BYLAYER
 10
149.6552635359
 20
185.3540248438
 11
149.6552635359
 21
183.6393845827
  0
LINE
  5
257
100
AcDbEntity
  8
0
100
AcDbLine
 62
7
  6
BYLAYER
 10
150.3977287473
 20
187.0191931137
 11
150.3977287473
 21
187.6738812528
  0
LINE
  5
258
100
AcDbEntity
  8
0
100
AcDbLine
 62
7
  6
BYLAYER
 10
173.8735937873
 20
198.8465565857
 11
174.2271456591
 21
199.4589298999
  0
LINE
  5
259
100
AcDbEntity
  8
0
100
AcDbLine
 62
7
  6
BYLAYER
 10
153.8979090566
 20
176.2909181453
 11
155.3828523096
 21
175.4336051535
  0
LINE
  5
25A
100
AcDbEntity
  8
0
100
AcDbLine
 62
7
  6
BYLAYER
 10
155.3121348382
 20
177.1074169072
 11
155.3828464217
 21
177.066592479
  0
LINE
  5
25B
100
AcDbEntity
  8
0
100
AcDbLine
 62
7
  6
BYLAYER
 10
151.0694770983
 20
184.5375258261
 11
151.0694770983
 21
184.4558762898
  0
LINE
  5
25C
100
AcDbEntity
  8
0
100
AcDbLine
 62
7
  6
BYLAYER
 10
154.6403870982
 20
185.2244367257
 11
154.6403870982
 21
184.5697485866
  0
LINE
  5
25D
100
AcDbEntity
  8
0
100
AcDbLine
 62
7
  6
BYLAYER
 10
154.6403870982
 20
173.7684368836
 11
154.6403870982
 21
173.1137487445
  0
LINE
  5
25E
100
AcDbEntity
  8
0
100
AcDbLine
 62
7
  6
BYLAYER
 10
155.3828523096
 20
175.4336051535
 11
155.3828523096
 21
182.0472747322
  0
LINE
  5
25F
100
AcDbEntity
  8
0
100
AcDbLine
 62
7
  6
BYLAYER
 10
156.4081614111
 20
180.5979981002
 11
156.4081614111
 21
175.6989835974
  0
LINE
  5
260
100
AcDbEntity
  8
0
100
AcDbLine
 62
7
  6
BYLAYER
 10
180.9446321595
 20
202.9289981244
 11
181.2981840312
 21
203.5413714386
  0
LINE
  5
261
100
AcDbEntity
  8
0
100
AcDbLine
 62
7
  6
BYLAYER
 10
196.5005496031
 20
212.8576550823
 11
196.449420003
 21
212.84852124
  0
LINE
  5
262
100
AcDbEntity
  8
0
100
AcDbLine
 62
7
  6
BYLAYER
 10
155.3828523096
 20
182.0472747322
 11
149.6552635359
 21
185.3540248438
  0
LINE
  5
263
100
AcDbEntity
  8
0
100
AcDbLine
 62
7
  6
BYLAYER
 10
191.4781850126
 20
216.2784221514
 11
191.7223308941
 21
216.3153745064
  0
LINE
  5
264
100
AcDbEntity
  8
0
100
AcDbLine
 62
7
  6
BYLAYER
 10
157.6809161142
 20
189.9060165545
 11
157.6883657379
 21
189.9017393862
  0
LINE
  5
265
100
AcDbEntity
  8
0
100
AcDbLine
 62
7
  6
BYLAYER
 10
164.7519544863
 20
193.9884580932
 11
164.75940411
 21
193.984180925
  0
LINE
  5
266
100
AcDbEntity
  8
0
100
AcDbLine
 62
7
  6
BYLAYER
 10
171.8229928585
 20
198.0708996319
 11
171.8304424821
 21
198.0666224637
  0
LINE
  5
267
100
AcDbEntity
  8
0
100
AcDbLine
 62
7
  6
BYLAYER
 10
178.8940312306
 20
202.1533411706
 11
178.9014808543
 21
202.1490640024
  0
LINE
  5
268
100
AcDbEntity
  8
0
100
AcDbLine
 62
7
  6
BYLAYER
 10
196.0059733511
 20
194.8863865827
 11
194.8135516001
 21
195.5748160273
  0
LINE
  5
269
100
AcDbEntity
  8
0
100
AcDbLine
 62
7
  6
BYLAYER
 10
190.3490955499
 20
214.0563428916
 11
190.3490955499
 21
211.216351293
  0
LINE
  5
26A
100
AcDbEntity
  8
0
100
AcDbLine
 62
7
  6
BYLAYER
 10
191.7633385519
 20
206.657254804
 11
191.7633385519
 21
206.0025666649
  0
LINE
  5
26B
100
AcDbEntity
  8
0
100
AcDbLine
 62
7
  6
BYLAYER
 10
191.7633385519
 20
195.2012549618
 11
191.7633385519
 21
194.5465668227
  0
LINE
  5
26C
100
AcDbEntity
  8
0
100
AcDbLine
 62
7
  6
BYLAYER
 10
192.1168551429
 20
212.2369616777
 11
192.116846311
 21
215.890563637
  0
LINE
  5
26D
100
AcDbEntity
  8
0
100
AcDbLine
 62
7
  6
BYLAYER
 10
193.5311128648
 20
202.0308161784
 11
193.5311128648
 21
197.1318016757
  0
LINE
  5
26E
100
AcDbEntity
  8
0
100
AcDbLine
 62
7
  6
BYLAYER
 10
194.5917539008
 20
208.7669067659
 11
194.5917539008
 21
211.6068983645
  0
LINE
  5
26F
100
AcDbEntity
  8
0
100
AcDbLine
 62
7
  6
BYLAYER
 10
196.0059733511
 20
192.7101100228
 11
196.0059733511
 21
194.8863865827
  0
LINE
  5
270
100
AcDbEntity
  8
0
100
AcDbLine
 62
7
  6
BYLAYER
 10
190.3490955499
 20
211.216351293
 11
194.5917539008
 21
208.7669067659
  0
LINE
  5
271
100
AcDbEntity
  8
0
100
AcDbLine
 62
7
  6
BYLAYER
 10
192.1168551429
 20
212.2369616777
 11
194.5917539008
 21
210.8081105385
  0
LINE
  5
272
100
AcDbEntity
  8
0
100
AcDbLine
 62
7
  6
BYLAYER
 10
198.5361429183
 20
212.4295006047
 11
198.5375652418
 21
212.4286690446
  0
ARC
  5
273
100
AcDbEntity
  8
0
100
AcDbCircle
 62
7
  6
BYLAYER
 10
28.3313538958
 20
9.2184173414
 40
106.1583672504
100
AcDbArc
 50
81.0805664006
 51
82.3477621119
  0
ARC
  5
274
100
AcDbEntity
  8
0
100
AcDbCircle
 62
7
  6
BYLAYER
 10
131.3075100234
 20
212.57507549
 40
60.2845226293
100
AcDbArc
 50
2.9204732899
 51
3.5219989887
  0
ARC
  5
275
100
AcDbEntity
  8
0
100
AcDbCircle
 62
7
  6
BYLAYER
 10
192.1006918472
 20
186.8934502663
 40
26.3343890582
100
AcDbArc
 50
75.8548594643
 51
80.3820258019
  0
ARC
  5
276
100
AcDbEntity
  8
0
100
AcDbCircle
 62
7
  6
BYLAYER
 10
191.7719386634
 20
187.0032246041
 40
26.1297047238
100
AcDbArc
 50
75.277651741
 51
79.1964772573
  0
ARC
  5
277
100
AcDbEntity
  8
0
100
AcDbCircle
 62
7
  6
BYLAYER
 10
146.0912261038
 20
176.6824066316
 40
11.1753191113
100
AcDbArc
 50
25.2833023594
 51
36.241970689
  0
ARC
  5
278
100
AcDbEntity
  8
0
100
AcDbCircle
 62
7
  6
BYLAYER
 10
183.2142006638
 20
198.1152384961
 40
11.1752923251
100
AcDbArc
 50
25.2840027537
 51
36.2419837187
  0
ARC
  5
279
100
AcDbEntity
  8
0
100
AcDbCircle
 62
7
  6
BYLAYER
 10
197.2029945334
 20
198.9354413365
 40
6.4825518741
100
AcDbArc
 50
336.1428952514
 51
341.2297296919
  0
ARC
  5
27A
100
AcDbEntity
  8
0
100
AcDbCircle
 62
7
  6
BYLAYER
 10
180.6300105021
 20
203.3067352649
 40
1.5627975812
100
AcDbArc
 50
287.5401985839
 51
289.6226593807
  0
ARC
  5
27B
100
AcDbEntity
  8
0
100
AcDbCircle
 62
7
  6
BYLAYER
 10
180.5825803295
 20
202.4359107618
 40
0.739984482
100
AcDbArc
 50
308.994229312
 51
310.8716576243
  0
ARC
  5
27C
100
AcDbEntity
  8
0
100
AcDbCircle
 62
7
  6
BYLAYER
 10
165.160537661
 20
194.2707325921
 40
0.4243148795
100
AcDbArc
 50
213.3093382391
 51
214.377909315
  0
SPLINE
  5
27D
100
AcDbEntity
  8
0
100
AcDbSpline
 62
7
  6
BYLAYER
 70
0
 71
3
 72
9
 73
5
 74
0
 42
0.0000001
 43
0.0000001
 44
0.0000000001
 40
0.0
 40
0.0
 40
0.0
 40
0.0
 40
0.2422104266
 40
1.0
 40
1.0
 40
1.0
 40
1.0
 10
37.7913236354
 20
107.9917042093
 30
0.0
 10
37.7083591632
 20
108.039605698
 30
0.0
 10
37.3698287895
 20
108.2442688673
 30
0.0
 10
37.0473788591
 20
108.475152945
 30
0.0
 10
36.8125007429
 20
108.6613432105
 30
0.0
  0
SPLINE
  5
27E
100
AcDbEntity
  8
0
100
AcDbSpline
 62
7
  6
BYLAYER
 70
0
 71
3
 72
9
 73
5
 74
0
 42
0.0000001
 43
0.0000001
 44
0.0000000001
 40
0.0
 40
0.0
 40
0.0
 40
0.0
 40
0.2576445954
 40
1.0
 40
1.0
 40
1.0
 40
1.0
 10
32.5383486492
 20
116.0897258111
 30
0.0
 10
32.5242530836
 20
116.1876834734
 30
0.0
 10
32.4758007381
 20
116.5687381271
 30
0.0
 10
32.4527839759
 20
116.9532133744
 30
0.0
 10
32.4527819101
 20
117.238367397
 30
0.0
  0
SPLINE
  5
27F
100
AcDbEntity
  8
0
100
AcDbSpline
 62
7
  6
BYLAYER
 70
0
 71
3
 72
20
 73
16
 74
0
 42
0.0000001
 43
0.0000001
 44
0.0000000001
 40
0.0
 40
0.0
 40
0.0
 40
0.0
 40
0.1447994588
 40
0.2933767336
 40
0.43977303
 40
0.5103970259
 40
0.5784091772
 40
0.6432726434
 40
0.7045743118
 40
0.7620612441
 40
0.8156834423
 40
0.8656405178
 40
0.9124255102
 40
0.9568473093
 40
1.0
 40
1.0
 40
1.0
 40
1.0
 10
46.3817118896
 20
115.0115962838
 30
0.0
 10
46.1804900491
 20
115.7065118123
 30
0.0
 10
45.6585979872
 20
117.0833114316
 30
0.0
 10
44.5929550967
 20
119.0122233883
 30
0.0
 10
43.489731404
 20
120.4772476846
 30
0.0
 10
42.5070235428
 20
121.5097148583
 30
0.0
 10
41.7473622925
 20
122.1873970981
 30
0.0
 10
40.9678636084
 20
122.7673280661
 30
0.0
 10
40.1799490761
 20
123.2408358099
 30
0.0
 10
39.3950917939
 20
123.6007238299
 30
0.0
 10
38.6245384561
 20
123.8413045476
 30
0.0
 10
37.8793015702
 20
123.9582873118
 30
0.0
 10
37.1701730462
 20
123.9485436428
 30
0.0
 10
36.5087603503
 20
123.8106542317
 30
0.0
 10
36.1048465547
 20
123.6324463778
 30
0.0
 10
35.9181232618
 20
123.5246525262
 30
0.0
  0
SPLINE
  5
280
100
AcDbEntity
  8
0
100
AcDbSpline
 62
7
  6
BYLAYER
 70
0
 71
3
 72
14
 73
10
 74
0
 42
0.0000001
 43
0.0000001
 44
0.0000000001
 40
0.0
 40
0.0
 40
0.0
 40
0.0
 40
0.2892801246
 40
0.4225383635
 40
0.5484941796
 40
0.6678938139
 40
0.7818683357
 40
0.8919522029
 40
1.0
 40
1.0
 40
1.0
 40
1.0
 10
32.4527730781
 20
118.4631460922
 30
0.0
 10
32.4527730781
 20
118.9218665558
 30
0.0
 10
32.5063304423
 20
119.5951916623
 30
0.0
 10
32.7133217723
 20
120.4414967089
 30
0.0
 10
32.9239384033
 20
121.0054270871
 30
0.0
 10
33.192333937
 20
121.5100969725
 30
0.0
 10
33.5165272832
 20
121.9504024978
 30
0.0
 10
33.8934898504
 20
122.3213543446
 30
0.0
 10
34.1787534854
 20
122.5204460377
 30
0.0
 10
34.3271374945
 20
122.6061068789
 30
0.0
  0
SPLINE
  5
281
100
AcDbEntity
  8
0
100
AcDbSpline
 62
7
  6
BYLAYER
 70
0
 71
3
 72
14
 73
10
 74
0
 42
0.0000001
 43
0.0000001
 44
0.0000000001
 40
0.0
 40
0.0
 40
0.0
 40
0.0
 40
0.108048668
 40
0.2181324746
 40
0.3321072126
 40
0.4515029758
 40
0.5774633381
 40
0.7107296019
 40
1.0
 40
1.0
 40
1.0
 40
1.0
 10
43.3770877878
 20
106.9310395975
 30
0.0
 10
43.228708049
 20
106.8453641181
 30
0.0
 10
42.9136646005
 20
106.6978363354
 30
0.0
 10
42.4039125305
 20
106.5568687804
 30
0.0
 10
41.8604986717
 20
106.4962913318
 30
0.0
 10
41.2892333597
 20
106.516149633
 30
0.0
 10
40.6955306159
 20
106.6157614886
 30
0.0
 10
39.8591045285
 20
106.8596751988
 30
0.0
 10
39.2492104484
 20
107.1499702017
 30
0.0
 10
38.8519522201
 20
107.3793208398
 30
0.0
  0
SPLINE
  5
282
100
AcDbEntity
  8
0
100
AcDbSpline
 62
7
  6
BYLAYER
 70
0
 71
3
 72
11
 73
7
 74
0
 42
0.0000001
 43
0.0000001
 44
0.0000000001
 40
0.0
 40
0.0
 40
0.0
 40
0.0
 40
0.2387696619
 40
0.4822786724
 40
0.7349145583
 40
1.0
 40
1.0
 40
1.0
 40
1.0
 10
44.9680700812
 20
107.8495912505
 30
0.0
 10
45.120588955
 20
107.9376560705
 30
0.0
 10
45.4135925721
 20
108.1431221914
 30
0.0
 10
45.7990202926
 20
108.5277797104
 30
0.0
 10
46.1283054563
 20
108.9853203102
 30
0.0
 10
46.3037155878
 20
109.326175096
 30
0.0
 10
46.3817118896
 20
109.5054734016
 30
0.0
  0
SPLINE
  5
283
100
AcDbEntity
  8
0
100
AcDbSpline
 62
7
  6
BYLAYER
 70
0
 71
3
 72
22
 73
18
 74
0
 42
0.0000001
 43
0.0000001
 44
0.0000000001
 40
0.0
 40
0.0
 40
0.0
 40
0.0
 40
0.0623993813
 40
0.1287616745
 40
0.1983730817
 40
0.2703709035
 40
0.4173898127
 40
0.4904363252
 40
0.5617443124
 40
0.6303619205
 40
0.695468495
 40
0.7564336809
 40
0.8128872556
 40
0.8648029117
 40
0.9125918528
 40
0.9571796841
 40
1.0
 40
1.0
 40
1.0
 40
1.0
 10
59.1813896821
 20
121.1984347831
 30
0.0
 10
59.1813896821
 20
121.4680851706
 30
0.0
 10
59.1448480988
 20
122.0248854879
 30
0.0
 10
58.9945397605
 20
122.8702799082
 30
0.0
 10
58.7501054919
 20
123.7366318733
 30
0.0
 10
58.3028137199
 20
124.9022666416
 30
0.0
 10
57.6985722672
 20
126.018740192
 30
0.0
 10
56.9635984025
 20
127.0425030797
 30
0.0
 10
56.3623605279
 20
127.7410606582
 30
0.0
 10
55.723185987
 20
128.3566391817
 30
0.0
 10
55.0594296223
 20
128.8762771154
 30
0.0
 10
54.3848993017
 20
129.2889434865
 30
0.0
 10
53.7132896783
 20
129.5857586798
 30
0.0
 10
53.0579703624
 20
129.7598667818
 30
0.0
 10
52.4318055608
 20
129.8059596577
 30
0.0
 10
51.8486991037
 20
129.7204966241
 30
0.0
 10
51.4954423664
 20
129.5736940968
 30
0.0
 10
51.3351968697
 20
129.4811631679
 30
0.0
  0
SPLINE
  5
284
100
AcDbEntity
  8
0
100
AcDbSpline
 62
7
  6
BYLAYER
 70
0
 71
3
 72
14
 73
10
 74
0
 42
0.0000001
 43
0.0000001
 44
0.0000000001
 40
0.0
 40
0.0
 40
0.0
 40
0.0
 40
0.1080477617
 40
0.218131518
 40
0.332105441
 40
0.4515054222
 40
0.577454942
 40
0.7107177189
 40
1.0
 40
1.0
 40
1.0
 40
1.0
 10
57.835153723
 20
118.2228402989
 30
0.0
 10
57.941721876
 20
118.2843747146
 30
0.0
 10
58.1466360974
 20
118.4273265449
 30
0.0
 10
58.4173485673
 20
118.6937930993
 30
0.0
 10
58.6502173338
 20
119.0100133258
 30
0.0
 10
58.8429722315
 20
119.3724848959
 30
0.0
 10
58.9942526486
 20
119.7775108263
 30
0.0
 10
59.1429241752
 20
120.3853541623
 30
0.0
 10
59.1813896821
 20
120.8689649284
 30
0.0
 10
59.1813896821
 20
121.1984347831
 30
0.0
  0
SPLINE
  5
285
100
AcDbEntity
  8
0
100
AcDbSpline
 62
7
  6
BYLAYER
 70
0
 71
3
 72
15
 73
11
 74
0
 42
0.0000001
 43
0.0000001
 44
0.0000000001
 40
0.0
 40
0.0
 40
0.0
 40
0.0
 40
0.116162158
 40
0.2281314989
 40
0.3396366831
 40
0.4545578325
 40
0.5761885862
 40
0.7069023703
 40
0.8480373162
 40
1.0
 40
1.0
 40
1.0
 40
1.0
 10
42.4674073134
 20
108.4818094675
 30
0.0
 10
42.3561358404
 20
108.3128455868
 30
0.0
 10
42.1041460629
 20
108.0011409884
 30
0.0
 10
41.6354268482
 20
107.6320211029
 30
0.0
 10
41.0954487519
 20
107.3827144466
 30
0.0
 10
40.4972440232
 20
107.2583512886
 30
0.0
 10
39.8536134619
 20
107.2595428709
 30
0.0
 10
39.1764989731
 20
107.38410611
 30
0.0
 10
38.4773882856
 20
107.6283110003
 30
0.0
 10
38.0205265446
 20
107.8593685206
 30
0.0
 10
37.7913236354
 20
107.9917042093
 30
0.0
  0
SPLINE
  5
286
100
AcDbEntity
  8
0
100
AcDbSpline
 62
7
  6
BYLAYER
 70
0
 71
3
 72
21
 73
17
 74
0
 42
0.0000001
 43
0.0000001
 44
0.0000000001
 40
0.0
 40
0.0
 40
0.0
 40
0.0
 40
0.1393460374
 40
0.2028504205
 40
0.2625000427
 40
0.3188556596
 40
0.3727532509
 40
0.4252771384
 40
0.4776627401
 40
0.5311617425
 40
0.5869006923
 40
0.6457752659
 40
0.7084084697
 40
0.7751537831
 40
0.8461186964
 40
1.0
 40
1.0
 40
1.0
 40
1.0
 10
32.45278191
 20
117.2384187296
 30
0.0
 10
32.45278191
 20
117.6660082733
 30
0.0
 10
32.5082604158
 20
118.2926011337
 30
0.0
 10
32.7270003735
 20
119.069803553
 30
0.0
 10
32.9485730265
 20
119.5763310189
 30
0.0
 10
33.2304772507
 20
120.0176895864
 30
0.0
 10
33.5699187472
 20
120.3878444571
 30
0.0
 10
33.9628304546
 20
120.6811045062
 30
0.0
 10
34.4036663641
 20
120.8929305031
 30
0.0
 10
34.8858460432
 20
121.0204393141
 30
0.0
 10
35.4024512477
 20
121.062497444
 30
0.0
 10
35.9467054831
 20
121.019499761
 30
0.0
 10
36.5120160213
 20
120.8927346409
 30
0.0
 10
37.0918526313
 20
120.6841579036
 30
0.0
 10
37.8966953711
 20
120.2902301211
 30
0.0
 10
38.4684585167
 20
119.8954231616
 30
0.0
 10
38.8358072255
 20
119.5987417038
 30
0.0
  0
SPLINE
  5
287
100
AcDbEntity
  8
0
100
AcDbSpline
 62
7
  6
BYLAYER
 70
0
 71
3
 72
11
 73
7
 74
0
 42
0.0000001
 43
0.0000001
 44
0.0000000001
 40
0.0
 40
0.0
 40
0.0
 40
0.0
 40
0.237930151
 40
0.4889821742
 40
0.745670608
 40
1.0
 40
1.0
 40
1.0
 40
1.0
 10
38.8358072255
 20
119.5987417038
 30
0.0
 10
39.2296216502
 20
119.2806857674
 30
0.0
 10
39.9866462883
 20
118.5606440167
 30
0.0
 10
40.9803286101
 20
117.3186009844
 30
0.0
 10
41.8285054135
 20
115.9320701197
 30
0.0
 10
42.2778186584
 20
114.938196639
 30
0.0
 10
42.4674073134
 20
114.431396251
 30
0.0
  0
SPLINE
  5
288
100
AcDbEntity
  8
0
100
AcDbSpline
 62
7
  6
BYLAYER
 70
0
 71
3
 72
20
 73
16
 74
0
 42
0.0000001
 43
0.0000001
 44
0.0000000001
 40
0.0
 40
0.0
 40
0.0
 40
0.0
 40
0.0431527589
 40
0.0875747255
 40
0.1343599582
 40
0.1843173151
 40
0.2379397963
 40
0.2954269599
 40
0.3567287009
 40
0.4215920062
 40
0.4896038056
 40
0.5602272174
 40
0.7066234358
 40
0.8552005364
 40
1.0
 40
1.0
 40
1.0
 40
1.0
 10
34.3271374945
 20
122.6061068789
 30
0.0
 10
34.5138611964
 20
122.7139009025
 30
0.0
 10
34.9177757288
 20
122.8921104542
 30
0.0
 10
35.5791912832
 20
123.0300001608
 30
0.0
 10
36.2883235955
 20
123.0397430779
 30
0.0
 10
37.0335646704
 20
122.9227585902
 30
0.0
 10
37.8041217409
 20
122.6821750912
 30
0.0
 10
38.5889810409
 20
122.3222834172
 30
0.0
 10
39.3768953051
 20
121.8487730767
 30
0.0
 10
40.1563916527
 20
121.2688419258
 30
0.0
 10
40.9160480074
 20
120.5911617466
 30
0.0
 10
41.8987519328
 20
119.558696948
 30
0.0
 10
43.0019722
 20
118.0936742755
 30
0.0
 10
44.0676146942
 20
116.1647624191
 30
0.0
 10
44.5895063158
 20
114.78796281
 30
0.0
 10
44.7907282559
 20
114.0930469376
 30
0.0
  0
SPLINE
  5
289
100
AcDbEntity
  8
0
100
AcDbSpline
 62
7
  6
BYLAYER
 70
0
 71
3
 72
11
 73
7
 74
0
 42
0.0000001
 43
0.0000001
 44
0.0000000001
 40
0.0
 40
0.0
 40
0.0
 40
0.0
 40
0.2650860713
 40
0.5177207907
 40
0.7612296122
 40
1.0
 40
1.0
 40
1.0
 40
1.0
 10
44.7907282559
 20
108.5869240554
 30
0.0
 10
44.7127317486
 20
108.4076252775
 30
0.0
 10
44.5373226009
 20
108.0667702852
 30
0.0
 10
44.2080369325
 20
107.6092304967
 30
0.0
 10
43.8226101226
 20
107.2245727072
 30
0.0
 10
43.5296068945
 20
107.0191051762
 30
0.0
 10
43.3770877878
 20
106.9310395975
 30
0.0
  0
SPLINE
  5
28A
100
AcDbEntity
  8
0
100
AcDbSpline
 62
7
  6
BYLAYER
 70
0
 71
3
 72
10
 73
6
 74
0
 42
0.0000001
 43
0.0000001
 44
0.0000000001
 40
0.0
 40
0.0
 40
0.0
 40
0.0
 40
0.2499328334
 40
0.6249130439
 40
1.0
 40
1.0
 40
1.0
 40
1.0
 10
44.7907282559
 20
108.5869240554
 30
0.0
 10
44.5974209294
 20
108.5734760524
 30
0.0
 10
44.1139354104
 20
108.5419480316
 30
0.0
 10
43.3394780328
 20
108.5047332183
 30
0.0
 10
42.7581662645
 20
108.4871140592
 30
0.0
 10
42.4674073134
 20
108.4818094675
 30
0.0
  0
SPLINE
  5
28B
100
AcDbEntity
  8
0
100
AcDbSpline
 62
7
  6
BYLAYER
 70
0
 71
3
 72
10
 73
6
 74
0
 42
0.0000001
 43
0.0000001
 44
0.0000000001
 40
0.0
 40
0.0
 40
0.0
 40
0.0
 40
0.5153618314
 40
0.7598143185
 40
1.0
 40
1.0
 40
1.0
 40
1.0
 10
184.4415842906
 20
207.3995495042
 30
0.0
 10
184.5760314741
 20
207.6846453122
 30
0.0
 10
184.829216816
 20
208.0844503005
 30
0.0
 10
185.2699596184
 20
208.5114023733
 30
0.0
 10
185.5148241729
 20
208.6813625751
 30
0.0
 10
185.6420375222
 20
208.754828937
 30
0.0
  0
SPLINE
  5
28C
100
AcDbEntity
  8
0
100
AcDbSpline
 62
7
  6
BYLAYER
 70
0
 71
3
 72
11
 73
7
 74
0
 42
0.0000001
 43
0.0000001
 44
0.0000000001
 40
0.0
 40
0.0
 40
0.0
 40
0.0
 40
0.2492431196
 40
0.4967271579
 40
0.745925812
 40
1.0
 40
1.0
 40
1.0
 40
1.0
 10
191.7223266164
 20
216.3153871106
 30
0.0
 10
191.7644101084
 20
216.311401396
 30
0.0
 10
191.8477234687
 20
216.2921750854
 30
0.0
 10
191.9594631841
 20
216.2290637074
 30
0.0
 10
192.0477869164
 20
216.1346176513
 30
0.0
 10
192.084956548
 20
216.056040721
 30
0.0
 10
192.0974433805
 20
216.0147984172
 30
0.0
  0
SPLINE
  5
28D
100
AcDbEntity
  8
0
100
AcDbSpline
 62
7
  6
BYLAYER
 70
0
 71
3
 72
11
 73
7
 74
0
 42
0.0000001
 43
0.0000001
 44
0.0000000001
 40
0.0
 40
0.0
 40
0.0
 40
0.0
 40
0.2608119777
 40
0.5125432028
 40
0.7578549183
 40
1.0
 40
1.0
 40
1.0
 40
1.0
 10
191.7223247445
 20
216.3153828404
 30
0.0
 10
191.4511149392
 20
216.3411587458
 30
0.0
 10
190.9140008079
 20
216.3575624948
 30
0.0
 10
190.1246538409
 20
216.266405199
 30
0.0
 10
189.3778481004
 20
216.057848544
 30
0.0
 10
188.9143631841
 20
215.84026405
 30
0.0
 10
188.6953161361
 20
215.7137979327
 30
0.0
  0
SPLINE
  5
28E
100
AcDbEntity
  8
0
100
AcDbSpline
 62
7
  6
BYLAYER
 70
0
 71
3
 72
19
 73
15
 74
0
 42
0.0000001
 43
0.0000001
 44
0.0000000001
 40
0.0
 40
0.0
 40
0.0
 40
0.0
 40
0.0458116385
 40
0.0925586845
 40
0.1411515577
 40
0.1922990313
 40
0.2465254833
 40
0.3041125585
 40
0.3651087723
 40
0.4293598859
 40
0.566071192
 40
0.7103233875
 40
0.8568325584
 40
1.0
 40
1.0
 40
1.0
 40
1.0
 10
201.1952601751
 20
194.0631305291
 30
0.0
 10
201.4686965552
 20
194.2209981544
 30
0.0
 10
201.9887884654
 20
194.5998833649
 30
0.0
 10
202.6450685566
 20
195.3262244684
 30
0.0
 10
203.1716594568
 20
196.1940431941
 30
0.0
 10
203.5635429181
 20
197.1848698344
 30
0.0
 10
203.82014909
 20
198.2818958371
 30
0.0
 10
203.941750802
 20
199.4695067404
 30
0.0
 10
203.9295035018
 20
200.7319094282
 30
0.0
 10
203.732977254
 20
202.52904661
 30
0.0
 10
203.1538996609
 20
204.8491120326
 30
0.0
 10
202.0133483335
 20
207.5763184133
 30
0.0
 10
200.4778257959
 20
210.153615632
 30
0.0
 10
199.217270988
 20
211.7131628361
 30
0.0
 10
198.5376819365
 20
212.4285459114
 30
0.0
  0
SPLINE
  5
28F
100
AcDbEntity
  8
0
100
AcDbSpline
 62
7
  6
BYLAYER
 70
0
 71
3
 72
9
 73
5
 74
0
 42
0.0000001
 43
0.0000001
 44
0.0000000001
 40
0.0
 40
0.0
 40
0.0
 40
0.0
 40
0.4889315457
 40
1.0
 40
1.0
 40
1.0
 40
1.0
 10
198.7203963748
 20
192.6342766364
 30
0.0
 10
198.3966428658
 20
192.4473489978
 30
0.0
 10
197.6790378183
 20
192.1546363133
 30
0.0
 10
196.912278701
 20
192.0566721764
 30
0.0
 10
196.5215741923
 20
192.0495888103
 30
0.0
  0
SPLINE
  5
290
100
AcDbEntity
  8
0
100
AcDbSpline
 62
7
  6
BYLAYER
 70
0
 71
3
 72
10
 73
6
 74
0
 42
0.0000001
 43
0.0000001
 44
0.0000000001
 40
0.0
 40
0.0
 40
0.0
 40
0.0
 40
0.2392145277
 40
0.4831589133
 40
1.0
 40
1.0
 40
1.0
 40
1.0
 10
193.6419812308
 20
194.8984372168
 30
0.0
 10
193.5080596136
 20
194.8210967958
 30
0.0
 10
193.2231692746
 20
194.6883827819
 30
0.0
 10
192.5969501442
 20
194.5185084453
 30
0.0
 10
192.0954591204
 20
194.5099550311
 30
0.0
 10
191.7633385519
 20
194.5465668227
 30
0.0
  0
SPLINE
  5
291
100
AcDbEntity
  8
0
100
AcDbSpline
 62
7
  6
BYLAYER
 70
0
 71
3
 72
9
 73
5
 74
0
 42
0.0000001
 43
0.0000001
 44
0.0000000001
 40
0.0
 40
0.0
 40
0.0
 40
0.0
 40
0.4857700194
 40
1.0
 40
1.0
 40
1.0
 40
1.0
 10
174.2250591661
 20
198.2774832606
 30
0.0
 10
174.2250777998
 20
198.1849146181
 30
0.0
 10
174.1796621503
 20
197.9918333247
 30
0.0
 10
174.0533293826
 20
197.8400098612
 30
0.0
 10
173.9771713583
 20
197.7783463714
 30
0.0
  0
SPLINE
  5
292
100
AcDbEntity
  8
0
100
AcDbSpline
 62
7
  6
BYLAYER
 70
0
 71
3
 72
9
 73
5
 74
0
 42
0.0000001
 43
0.0000001
 44
0.0000000001
 40
0.0
 40
0.0
 40
0.0
 40
0.0
 40
0.2448118389
 40
1.0
 40
1.0
 40
1.0
 40
1.0
 10
173.9771713583
 20
197.7783463714
 30
0.0
 10
173.9664561077
 20
197.7696704669
 30
0.0
 10
173.9217084846
 20
197.7354484124
 30
0.0
 10
173.8732907648
 20
197.7060967038
 30
0.0
 10
173.8354495186
 20
197.6866833186
 30
0.0
  0
SPLINE
  5
293
100
AcDbEntity
  8
0
100
AcDbSpline
 62
7
  6
BYLAYER
 70
0
 71
3
 72
9
 73
5
 74
0
 42
0.0000001
 43
0.0000001
 44
0.0000000001
 40
0.0
 40
0.0
 40
0.0
 40
0.0
 40
0.2385938783
 40
1.0
 40
1.0
 40
1.0
 40
1.0
 10
171.8304053204
 20
198.0666008093
 30
0.0
 10
171.8562547312
 20
198.0516762255
 30
0.0
 10
171.9658522521
 20
197.991307373
 30
0.0
 10
172.0798026289
 20
197.939006544
 30
0.0
 10
172.167962199
 20
197.9029359774
 30
0.0
  0
SPLINE
  5
294
100
AcDbEntity
  8
0
100
AcDbSpline
 62
7
  6
BYLAYER
 70
0
 71
3
 72
11
 73
7
 74
0
 42
0.0000001
 43
0.0000001
 44
0.0000000001
 40
0.0
 40
0.0
 40
0.0
 40
0.0
 40
0.2472585896
 40
0.5051236902
 40
0.7601267589
 40
1.0
 40
1.0
 40
1.0
 40
1.0
 10
172.167962199
 20
197.9029359774
 30
0.0
 10
172.3130388469
 20
197.8435777376
 30
0.0
 10
172.6180449405
 20
197.7425913789
 30
0.0
 10
173.0930232378
 20
197.6524008821
 30
0.0
 10
173.5720164964
 20
197.6361095752
 30
0.0
 10
173.8849682299
 20
197.6883081638
 30
0.0
 10
174.0299600181
 20
197.7341572596
 30
0.0
  0
SPLINE
  5
295
100
AcDbEntity
  8
0
100
AcDbSpline
 62
7
  6
BYLAYER
 70
0
 71
3
 72
9
 73
5
 74
0
 42
0.0000001
 43
0.0000001
 44
0.0000000001
 40
0.0
 40
0.0
 40
0.0
 40
0.0
 40
0.485770019
 40
1.0
 40
1.0
 40
1.0
 40
1.0
 10
160.0829824218
 20
190.1126001828
 30
0.0
 10
160.0830010556
 20
190.0200315405
 30
0.0
 10
160.0375854059
 20
189.8269502472
 30
0.0
 10
159.9112526384
 20
189.6751267838
 30
0.0
 10
159.8350946141
 20
189.613463294
 30
0.0
  0
SPLINE
  5
296
100
AcDbEntity
  8
0
100
AcDbSpline
 62
7
  6
BYLAYER
 70
0
 71
3
 72
9
 73
5
 74
0
 42
0.0000001
 43
0.0000001
 44
0.0000000001
 40
0.0
 40
0.0
 40
0.0
 40
0.0
 40
0.2448118389
 40
1.0
 40
1.0
 40
1.0
 40
1.0
 10
159.8350946141
 20
189.613463294
 30
0.0
 10
159.8243793635
 20
189.6047873895
 30
0.0
 10
159.7796317404
 20
189.5705653349
 30
0.0
 10
159.7312140206
 20
189.5412136264
 30
0.0
 10
159.6933727743
 20
189.5218002412
 30
0.0
  0
SPLINE
  5
297
100
AcDbEntity
  8
0
100
AcDbSpline
 62
7
  6
BYLAYER
 70
0
 71
3
 72
9
 73
5
 74
0
 42
0.0000001
 43
0.0000001
 44
0.0000000001
 40
0.0
 40
0.0
 40
0.0
 40
0.0
 40
0.2385938783
 40
1.0
 40
1.0
 40
1.0
 40
1.0
 10
157.6883285761
 20
189.9017177319
 30
0.0
 10
157.7141779869
 20
189.8867931481
 30
0.0
 10
157.8237755079
 20
189.8264242955
 30
0.0
 10
157.9377258846
 20
189.7741234666
 30
0.0
 10
158.0258854547
 20
189.7380528999
 30
0.0
  0
SPLINE
  5
298
100
AcDbEntity
  8
0
100
AcDbSpline
 62
7
  6
BYLAYER
 70
0
 71
3
 72
11
 73
7
 74
0
 42
0.0000001
 43
0.0000001
 44
0.0000000001
 40
0.0
 40
0.0
 40
0.0
 40
0.0
 40
0.2472585896
 40
0.5051236902
 40
0.7601267589
 40
1.0
 40
1.0
 40
1.0
 40
1.0
 10
158.0258854547
 20
189.7380528999
 30
0.0
 10
158.1709621026
 20
189.6786946602
 30
0.0
 10
158.4759681963
 20
189.5777083014
 30
0.0
 10
158.9509464936
 20
189.4875178046
 30
0.0
 10
159.4299397521
 20
189.4712264978
 30
0.0
 10
159.7428914856
 20
189.5234250863
 30
0.0
 10
159.8878832738
 20
189.5692741821
 30
0.0
  0
SPLINE
  5
299
100
AcDbEntity
  8
0
100
AcDbSpline
 62
7
  6
BYLAYER
 70
0
 71
3
 72
9
 73
5
 74
0
 42
0.0000001
 43
0.0000001
 44
0.0000000001
 40
0.0
 40
0.0
 40
0.0
 40
0.0
 40
0.4857700191
 40
1.0
 40
1.0
 40
1.0
 40
1.0
 10
167.154020794
 20
194.1950417216
 30
0.0
 10
167.1540394277
 20
194.1024730792
 30
0.0
 10
167.1086237781
 20
193.9093917859
 30
0.0
 10
166.9822910105
 20
193.7575683225
 30
0.0
 10
166.9061329862
 20
193.6959048327
 30
0.0
  0
SPLINE
  5
29A
100
AcDbEntity
  8
0
100
AcDbSpline
 62
7
  6
BYLAYER
 70
0
 71
3
 72
9
 73
5
 74
0
 42
0.0000001
 43
0.0000001
 44
0.0000000001
 40
0.0
 40
0.0
 40
0.0
 40
0.0
 40
0.2448118389
 40
1.0
 40
1.0
 40
1.0
 40
1.0
 10
166.9061329862
 20
193.6959048327
 30
0.0
 10
166.8954177356
 20
193.6872289282
 30
0.0
 10
166.8506701125
 20
193.6530068737
 30
0.0
 10
166.8022523927
 20
193.6236551651
 30
0.0
 10
166.7644111465
 20
193.6042417799
 30
0.0
  0
SPLINE
  5
29B
100
AcDbEntity
  8
0
100
AcDbSpline
 62
7
  6
BYLAYER
 70
0
 71
3
 72
9
 73
5
 74
0
 42
0.0000001
 43
0.0000001
 44
0.0000000001
 40
0.0
 40
0.0
 40
0.0
 40
0.0
 40
0.2416208688
 40
1.0
 40
1.0
 40
1.0
 40
1.0
 10
164.7593669483
 20
193.9841592706
 30
0.0
 10
164.7768787619
 20
193.974048536
 30
0.0
 10
164.8499245461
 20
193.9331919571
 30
0.0
 10
164.9250463862
 20
193.8960901531
 30
0.0
 10
164.9828016448
 20
193.8697741978
 30
0.0
  0
SPLINE
  5
29C
100
AcDbEntity
  8
0
100
AcDbSpline
 62
7
  6
BYLAYER
 70
0
 71
3
 72
11
 73
7
 74
0
 42
0.0000001
 43
0.0000001
 44
0.0000000001
 40
0.0
 40
0.0
 40
0.0
 40
0.0
 40
0.2436763754
 40
0.501633946
 40
0.7585252059
 40
1.0
 40
1.0
 40
1.0
 40
1.0
 10
164.9828016448
 20
193.8697741978
 30
0.0
 10
165.1325303088
 20
193.8015509237
 30
0.0
 10
165.4519720398
 20
193.6849766585
 30
0.0
 10
165.954439058
 20
193.5768520416
 30
0.0
 10
166.4667874901
 20
193.5497804067
 30
0.0
 10
166.8034568429
 20
193.6025548633
 30
0.0
 10
166.958921646
 20
193.6517157209
 30
0.0
  0
SPLINE
  5
29D
100
AcDbEntity
  8
0
100
AcDbSpline
 62
7
  6
BYLAYER
 70
0
 71
3
 72
9
 73
5
 74
0
 42
0.0000001
 43
0.0000001
 44
0.0000000001
 40
0.0
 40
0.0
 40
0.0
 40
0.0
 40
0.230481558
 40
1.0
 40
1.0
 40
1.0
 40
1.0
 10
154.6403870982
 20
173.1137487445
 30
0.0
 10
154.4678972348
 20
173.1327634142
 30
0.0
 10
153.7248624984
 20
173.2644366406
 30
0.0
 10
153.0208252775
 20
173.5721066979
 30
0.0
 10
152.5190579228
 20
173.8617956616
 30
0.0
  0
SPLINE
  5
29E
100
AcDbEntity
  8
0
100
AcDbSpline
 62
7
  6
BYLAYER
 70
0
 71
3
 72
9
 73
5
 74
0
 42
0.0000001
 43
0.0000001
 44
0.0000000001
 40
0.0
 40
0.0
 40
0.0
 40
0.0
 40
0.2406594454
 40
1.0
 40
1.0
 40
1.0
 40
1.0
 10
152.5190579228
 20
173.8617956616
 30
0.0
 10
152.4113186675
 20
173.9239975424
 30
0.0
 10
151.9700708723
 20
174.193552267
 30
0.0
 10
151.554574835
 20
174.5044429357
 30
0.0
 10
151.2543385221
 20
174.7573048962
 30
0.0
  0
SPLINE
  5
29F
100
AcDbEntity
  8
0
100
AcDbSpline
 62
7
  6
BYLAYER
 70
0
 71
3
 72
11
 73
7
 74
0
 42
0.0000001
 43
0.0000001
 44
0.0000000001
 40
0.0
 40
0.0
 40
0.0
 40
0.0
 40
0.284036101
 40
0.5436758889
 40
0.7806375062
 40
1.0
 40
1.0
 40
1.0
 40
1.0
 10
148.6299544344
 20
185.0886463999
 30
0.0
 10
148.6299544344
 20
185.1515570494
 30
0.0
 10
148.637957021
 20
185.2722268294
 30
0.0
 10
148.6775443297
 20
185.4414853201
 30
0.0
 10
148.7438433049
 20
185.5868267309
 30
0.0
 10
148.8070766987
 20
185.6673384621
 30
0.0
 10
148.842087352
 20
185.701026349
 30
0.0
  0
SPLINE
  5
2A0
100
AcDbEntity
  8
0
100
AcDbSpline
 62
7
  6
BYLAYER
 70
0
 71
3
 72
9
 73
5
 74
0
 42
0.0000001
 43
0.0000001
 44
0.0000000001
 40
0.0
 40
0.0
 40
0.0
 40
0.0
 40
0.2523234826
 40
1.0
 40
1.0
 40
1.0
 40
1.0
 10
148.842087352
 20
185.701026349
 30
0.0
 10
148.8745421253
 20
185.7322561682
 30
0.0
 10
149.00676392
 20
185.85222392
 30
0.0
 10
149.1534908764
 20
185.9562588607
 30
0.0
 10
149.2690716622
 20
186.0229899256
 30
0.0
  0
SPLINE
  5
2A1
100
AcDbEntity
  8
0
100
AcDbSpline
 62
7
  6
BYLAYER
 70
0
 71
3
 72
9
 73
5
 74
0
 42
0.0000001
 43
0.0000001
 44
0.0000000001
 40
0.0
 40
0.0
 40
0.0
 40
0.0
 40
0.4868429642
 40
1.0
 40
1.0
 40
1.0
 40
1.0
 10
181.2960975382
 20
202.3599247992
 30
0.0
 10
181.2961154382
 20
202.2710013247
 30
0.0
 10
181.2544466509
 20
202.0861020515
 30
0.0
 10
181.1376756084
 20
201.9376877807
 30
0.0
 10
181.0668016346
 20
201.8763513269
 30
0.0
  0
SPLINE
  5
2A2
100
AcDbEntity
  8
0
100
AcDbSpline
 62
7
  6
BYLAYER
 70
0
 71
3
 72
9
 73
5
 74
0
 42
0.0000001
 43
0.0000001
 44
0.0000000001
 40
0.0
 40
0.0
 40
0.0
 40
0.0
 40
0.2448118389
 40
1.0
 40
1.0
 40
1.0
 40
1.0
 10
181.0482097305
 20
201.8607879102
 30
0.0
 10
181.0374944799
 20
201.8521120057
 30
0.0
 10
180.9927468568
 20
201.8178899511
 30
0.0
 10
180.944329137
 20
201.7885382425
 30
0.0
 10
180.9064878907
 20
201.7691248573
 30
0.0
  0
SPLINE
  5
2A3
100
AcDbEntity
  8
0
100
AcDbSpline
 62
7
  6
BYLAYER
 70
0
 71
3
 72
9
 73
5
 74
0
 42
0.0000001
 43
0.0000001
 44
0.0000000001
 40
0.0
 40
0.0
 40
0.0
 40
0.0
 40
0.2385938783
 40
1.0
 40
1.0
 40
1.0
 40
1.0
 10
178.9014436925
 20
202.149042348
 30
0.0
 10
178.9272931033
 20
202.1341177642
 30
0.0
 10
179.0368906243
 20
202.0737489117
 30
0.0
 10
179.150841001
 20
202.0214480827
 30
0.0
 10
179.2390005711
 20
201.9853775161
 30
0.0
  0
SPLINE
  5
2A4
100
AcDbEntity
  8
0
100
AcDbSpline
 62
7
  6
BYLAYER
 70
0
 71
3
 72
11
 73
7
 74
0
 42
0.0000001
 43
0.0000001
 44
0.0000000001
 40
0.0
 40
0.0
 40
0.0
 40
0.0
 40
0.2472585896
 40
0.5051236902
 40
0.7601267589
 40
1.0
 40
1.0
 40
1.0
 40
1.0
 10
179.2390005711
 20
201.9853775161
 30
0.0
 10
179.384077219
 20
201.9260192764
 30
0.0
 10
179.6890833127
 20
201.8250329176
 30
0.0
 10
180.16406161
 20
201.7348424208
 30
0.0
 10
180.6430548685
 20
201.7185511139
 30
0.0
 10
180.956006602
 20
201.7707497025
 30
0.0
 10
181.1009983902
 20
201.8165987983
 30
0.0
  0
SPLINE
  5
2A5
100
AcDbEntity
  8
0
100
AcDbSpline
 62
7
  6
BYLAYER
 70
0
 71
3
 72
9
 73
5
 74
0
 42
0.0000001
 43
0.0000001
 44
0.0000000001
 40
0.0
 40
0.0
 40
0.0
 40
0.0
 40
0.2708030259
 40
1.0
 40
1.0
 40
1.0
 40
1.0
 10
179.2475829881
 20
201.9492121318
 30
0.0
 10
179.2281701107
 20
201.9603903103
 30
0.0
 10
179.1573939013
 20
202.0031602362
 30
0.0
 10
179.0900213885
 20
202.0520616595
 30
0.0
 10
179.0452328256
 20
202.0924657709
 30
0.0
  0
SPLINE
  5
2A6
100
AcDbEntity
  8
0
100
AcDbSpline
 62
7
  6
BYLAYER
 70
0
 71
3
 72
9
 73
5
 74
0
 42
0.0000001
 43
0.0000001
 44
0.0000000001
 40
0.0
 40
0.0
 40
0.0
 40
0.0
 40
0.2693360167
 40
1.0
 40
1.0
 40
1.0
 40
1.0
 10
179.0452328256
 20
202.0924657709
 30
0.0
 10
179.0359507987
 20
202.1008391597
 30
0.0
 10
179.002230493
 20
202.1327102342
 30
0.0
 10
178.9715610772
 20
202.1680365196
 30
0.0
 10
178.9524140698
 20
202.1960267677
 30
0.0
  0
SPLINE
  5
2A7
100
AcDbEntity
  8
0
100
AcDbSpline
 62
7
  6
BYLAYER
 70
0
 71
3
 72
9
 73
5
 74
0
 42
0.0000001
 43
0.0000001
 44
0.0000000001
 40
0.0
 40
0.0
 40
0.0
 40
0.0
 40
0.5257001235
 40
1.0
 40
1.0
 40
1.0
 40
1.0
 10
178.9524140698
 20
202.1960267677
 30
0.0
 10
178.9350688217
 20
202.2213830957
 30
0.0
 10
178.9068746083
 20
202.2734586072
 30
0.0
 10
178.8961265855
 20
202.3322047396
 30
0.0
 10
178.8961176592
 20
202.3599223079
 30
0.0
  0
SPLINE
  5
2A8
100
AcDbEntity
  8
0
100
AcDbSpline
 62
7
  6
BYLAYER
 70
0
 71
3
 72
9
 73
5
 74
0
 42
0.0000001
 43
0.0000001
 44
0.0000000001
 40
0.0
 40
0.0
 40
0.0
 40
0.0
 40
0.2708030308
 40
1.0
 40
1.0
 40
1.0
 40
1.0
 10
165.1055062439
 20
193.7843290544
 30
0.0
 10
165.0860933666
 20
193.7955072339
 30
0.0
 10
165.0153171585
 20
193.8382771617
 30
0.0
 10
164.9479446444
 20
193.8871785829
 30
0.0
 10
164.9031560813
 20
193.9275826935
 30
0.0
  0
SPLINE
  5
2A9
100
AcDbEntity
  8
0
100
AcDbSpline
 62
7
  6
BYLAYER
 70
0
 71
3
 72
9
 73
5
 74
0
 42
0.0000001
 43
0.0000001
 44
0.0000000001
 40
0.0
 40
0.0
 40
0.0
 40
0.0
 40
0.2693360147
 40
1.0
 40
1.0
 40
1.0
 40
1.0
 10
164.9031560813
 20
193.9275826935
 30
0.0
 10
164.8938740544
 20
193.9359560821
 30
0.0
 10
164.8601537485
 20
193.9678271561
 30
0.0
 10
164.8294843329
 20
194.0031534416
 30
0.0
 10
164.8103373256
 20
194.0311436898
 30
0.0
  0
SPLINE
  5
2AA
100
AcDbEntity
  8
0
100
AcDbSpline
 62
7
  6
BYLAYER
 70
0
 71
3
 72
9
 73
5
 74
0
 42
0.0000001
 43
0.0000001
 44
0.0000000001
 40
0.0
 40
0.0
 40
0.0
 40
0.0
 40
0.5239489569
 40
1.0
 40
1.0
 40
1.0
 40
1.0
 10
164.8059301341
 20
194.0377162431
 30
0.0
 10
164.7898693169
 20
194.0621610398
 30
0.0
 10
164.7638602796
 20
194.1123578961
 30
0.0
 10
164.7540494733
 20
194.1684641861
 30
0.0
 10
164.7540409149
 20
194.1950392306
 30
0.0
  0
SPLINE
  5
2AB
100
AcDbEntity
  8
0
100
AcDbSpline
 62
7
  6
BYLAYER
 70
0
 71
3
 72
9
 73
5
 74
0
 42
0.0000001
 43
0.0000001
 44
0.0000000001
 40
0.0
 40
0.0
 40
0.0
 40
0.0
 40
0.2708030335
 40
1.0
 40
1.0
 40
1.0
 40
1.0
 10
158.0344678717
 20
189.7018875157
 30
0.0
 10
158.0150549946
 20
189.7130656958
 30
0.0
 10
157.9442787871
 20
189.7558356246
 30
0.0
 10
157.8769062724
 20
189.8047370447
 30
0.0
 10
157.8321177092
 20
189.8451411548
 30
0.0
  0
SPLINE
  5
2AC
100
AcDbEntity
  8
0
100
AcDbSpline
 62
7
  6
BYLAYER
 70
0
 71
3
 72
9
 73
5
 74
0
 42
0.0000001
 43
0.0000001
 44
0.0000000001
 40
0.0
 40
0.0
 40
0.0
 40
0.0
 40
0.2693360137
 40
1.0
 40
1.0
 40
1.0
 40
1.0
 10
157.8321177092
 20
189.8451411548
 30
0.0
 10
157.8228356823
 20
189.8535145432
 30
0.0
 10
157.7891153762
 20
189.8853856171
 30
0.0
 10
157.7584459607
 20
189.9207119025
 30
0.0
 10
157.7392989534
 20
189.9487021508
 30
0.0
  0
SPLINE
  5
2AD
100
AcDbEntity
  8
0
100
AcDbSpline
 62
7
  6
BYLAYER
 70
0
 71
3
 72
9
 73
5
 74
0
 42
0.0000001
 43
0.0000001
 44
0.0000000001
 40
0.0
 40
0.0
 40
0.0
 40
0.0
 40
0.5257001261
 40
1.0
 40
1.0
 40
1.0
 40
1.0
 10
157.7392989534
 20
189.9487021508
 30
0.0
 10
157.7219537053
 20
189.9740584791
 30
0.0
 10
157.693759492
 20
190.026133991
 30
0.0
 10
157.6830114691
 20
190.0848801237
 30
0.0
 10
157.6830025428
 20
190.112597692
 30
0.0
  0
SPLINE
  5
2AE
100
AcDbEntity
  8
0
100
AcDbSpline
 62
7
  6
BYLAYER
 70
0
 71
3
 72
9
 73
5
 74
0
 42
0.0000001
 43
0.0000001
 44
0.0000000001
 40
0.0
 40
0.0
 40
0.0
 40
0.0
 40
0.2708030299
 40
1.0
 40
1.0
 40
1.0
 40
1.0
 10
172.176544616
 20
197.8667705931
 30
0.0
 10
172.1571317387
 20
197.8779487725
 30
0.0
 10
172.0863555304
 20
197.9207186999
 30
0.0
 10
172.0189830165
 20
197.9696201215
 30
0.0
 10
171.9741944535
 20
198.0100242322
 30
0.0
  0
SPLINE
  5
2AF
100
AcDbEntity
  8
0
100
AcDbSpline
 62
7
  6
BYLAYER
 70
0
 71
3
 72
9
 73
5
 74
0
 42
0.0000001
 43
0.0000001
 44
0.0000000001
 40
0.0
 40
0.0
 40
0.0
 40
0.0
 40
0.2693360151
 40
1.0
 40
1.0
 40
1.0
 40
1.0
 10
171.9741944535
 20
198.0100242322
 30
0.0
 10
171.9649124265
 20
198.0183976208
 30
0.0
 10
171.9311921207
 20
198.0502686949
 30
0.0
 10
171.900522705
 20
198.0855949804
 30
0.0
 10
171.8813756977
 20
198.1135852286
 30
0.0
  0
SPLINE
  5
2B0
100
AcDbEntity
  8
0
100
AcDbSpline
 62
7
  6
BYLAYER
 70
0
 71
3
 72
9
 73
5
 74
0
 42
0.0000001
 43
0.0000001
 44
0.0000000001
 40
0.0
 40
0.0
 40
0.0
 40
0.0
 40
0.5257001249
 40
1.0
 40
1.0
 40
1.0
 40
1.0
 10
171.8813756977
 20
198.1135852286
 30
0.0
 10
171.8640304496
 20
198.1389415568
 30
0.0
 10
171.8358362362
 20
198.1910170685
 30
0.0
 10
171.8250882133
 20
198.249763201
 30
0.0
 10
171.825079287
 20
198.2774807693
 30
0.0
  0
SPLINE
  5
2B1
100
AcDbEntity
  8
0
100
AcDbSpline
 62
7
  6
BYLAYER
 70
0
 71
3
 72
12
 73
8
 74
0
 42
0.0000001
 43
0.0000001
 44
0.0000000001
 40
0.0
 40
0.0
 40
0.0
 40
0.0
 40
0.2034369162
 40
0.3279398618
 40
0.4633378259
 40
0.7441111456
 40
1.0
 40
1.0
 40
1.0
 40
1.0
 10
196.5215741923
 20
192.0495888103
 30
0.0
 10
196.4604759161
 20
192.0484811152
 30
0.0
 10
196.3624928757
 20
192.087549906
 30
0.0
 10
196.253448363
 20
192.1733379853
 30
0.0
 10
196.143644992
 20
192.294344286
 30
0.0
 10
196.043263519
 20
192.4722386296
 30
0.0
 10
196.0059733511
 20
192.6332462097
 30
0.0
 10
196.0059733511
 20
192.7101100228
 30
0.0
  0
SPLINE
  5
2B2
100
AcDbEntity
  8
0
100
AcDbSpline
 62
7
  6
BYLAYER
 70
0
 71
3
 72
11
 73
7
 74
0
 42
0.0000001
 43
0.0000001
 44
0.0000000001
 40
0.0
 40
0.0
 40
0.0
 40
0.0
 40
0.2895551371
 40
0.5491217212
 40
0.7822599301
 40
1.0
 40
1.0
 40
1.0
 40
1.0
 10
194.5917539008
 20
211.6068983645
 30
0.0
 10
194.5917539008
 20
211.6322190973
 30
0.0
 10
194.5956171411
 20
211.6803982945
 30
0.0
 10
194.6150985746
 20
211.7466038025
 30
0.0
 10
194.647953426
 20
211.8003405354
 30
0.0
 10
194.6788312603
 20
211.8262517172
 30
0.0
 10
194.6953199625
 20
211.8357738859
 30
0.0
  0
SPLINE
  5
2B3
100
AcDbEntity
  8
0
100
AcDbSpline
 62
7
  6
BYLAYER
 70
0
 71
3
 72
9
 73
5
 74
0
 42
0.0000001
 43
0.0000001
 44
0.0000000001
 40
0.0
 40
0.0
 40
0.0
 40
0.0
 40
0.4957187872
 40
1.0
 40
1.0
 40
1.0
 40
1.0
 10
155.7690441833
 20
174.7646400717
 30
0.0
 10
155.6670302083
 20
174.7057418635
 30
0.0
 10
155.4511293612
 20
174.6036622043
 30
0.0
 10
155.2217414869
 20
174.5375823705
 30
0.0
 10
155.1044278553
 20
174.5131518606
 30
0.0
  0
SPLINE
  5
2B4
100
AcDbEntity
  8
0
100
AcDbSpline
 62
7
  6
BYLAYER
 70
0
 71
3
 72
11
 73
7
 74
0
 42
0.0000001
 43
0.0000001
 44
0.0000000001
 40
0.0
 40
0.0
 40
0.0
 40
0.0
 40
0.2178407362
 40
0.4509499328
 40
0.7102758212
 40
1.0
 40
1.0
 40
1.0
 40
1.0
 10
150.0870508625
 20
186.332531441
 30
0.0
 10
150.1365548214
 20
186.361087233
 30
0.0
 10
150.2291470714
 20
186.4389257041
 30
0.0
 10
150.3276578021
 20
186.6000875356
 30
0.0
 10
150.3862294864
 20
186.7986503051
 30
0.0
 10
150.3977287473
 20
186.9431852135
 30
0.0
 10
150.3977287473
 20
187.0191931137
 30
0.0
  0
SPLINE
  5
2B5
100
AcDbEntity
  8
0
100
AcDbSpline
 62
7
  6
BYLAYER
 70
0
 71
3
 72
14
 73
10
 74
0
 42
0.0000001
 43
0.0000001
 44
0.0000000001
 40
0.0
 40
0.0
 40
0.0
 40
0.0
 40
0.2966563219
 40
0.4322119304
 40
0.55904867
 40
0.6777435711
 40
0.7894873489
 40
0.8961089889
 40
1.0
 40
1.0
 40
1.0
 40
1.0
 10
183.7256655798
 20
207.0229189978
 30
0.0
 10
183.631155167
 20
207.8193821225
 30
0.0
 10
183.5882137762
 20
208.9973999852
 30
0.0
 10
183.7870566311
 20
210.4986440124
 30
0.0
 10
184.0496164378
 20
211.4982287344
 30
0.0
 10
184.427388111
 20
212.3912880189
 30
0.0
 10
184.916821562
 20
213.1654910369
 30
0.0
 10
185.5121072293
 20
213.8086028932
 30
0.0
 10
185.977206444
 20
214.1444911638
 30
0.0
 10
186.2204554285
 20
214.2849386866
 30
0.0
  0
SPLINE
  5
2B6
100
AcDbEntity
  8
0
100
AcDbSpline
 62
7
  6
BYLAYER
 70
0
 71
3
 72
9
 73
5
 74
0
 42
0.0000001
 43
0.0000001
 44
0.0000000001
 40
0.0
 40
0.0
 40
0.0
 40
0.0
 40
0.2353762314
 40
1.0
 40
1.0
 40
1.0
 40
1.0
 10
192.116846311
 20
215.8905008257
 30
0.0
 10
192.1168466357
 20
215.9003912759
 30
0.0
 10
192.1151448069
 20
215.9424062953
 30
0.0
 10
192.1067379094
 20
215.9840433386
 30
0.0
 10
192.0974275748
 20
216.0147941031
 30
0.0
  0
SPLINE
  5
2B7
100
AcDbEntity
  8
0
100
AcDbSpline
 62
7
  6
BYLAYER
 70
0
 71
3
 72
21
 73
17
 74
0
 42
0.0000001
 43
0.0000001
 44
0.0000000001
 40
0.0
 40
0.0
 40
0.0
 40
0.0
 40
0.0428268323
 40
0.0874216133
 40
0.1352181915
 40
0.1871423499
 40
0.2436049459
 40
0.3045792512
 40
0.3696948276
 40
0.4383213566
 40
0.5825527151
 40
0.7295900969
 40
0.8015983209
 40
0.8712180632
 40
0.937593396
 40
1.0
 40
1.0
 40
1.0
 40
1.0
 10
196.4703934918
 20
196.5314192882
 30
0.0
 10
196.6676295284
 20
196.6452926826
 30
0.0
 10
197.0415157475
 20
196.9314593508
 30
0.0
 10
197.4914558368
 20
197.5004019534
 30
0.0
 10
197.8276708788
 20
198.1961967234
 30
0.0
 10
198.045357539
 20
199.0018560502
 30
0.0
 10
198.1422725342
 20
199.9003892463
 30
0.0
 10
198.117496965
 20
200.8733072168
 30
0.0
 10
197.9721062989
 20
201.9006118429
 30
0.0
 10
197.6157600459
 20
203.3374267429
 30
0.0
 10
196.8943339881
 20
205.1216452198
 30
0.0
 10
195.8777340973
 20
206.7757421061
 30
0.0
 10
194.9104376587
 20
207.9699694789
 30
0.0
 10
194.1374537655
 20
208.7636380793
 30
0.0
 10
193.328836868
 20
209.4440894004
 30
0.0
 10
192.757835124
 20
209.8256963123
 30
0.0
 10
192.4704247253
 20
209.9916290294
 30
0.0
  0
SPLINE
  5
2B8
100
AcDbEntity
  8
0
100
AcDbSpline
 62
7
  6
BYLAYER
 70
0
 71
3
 72
11
 73
7
 74
0
 42
0.0000001
 43
0.0000001
 44
0.0000000001
 40
0.0
 40
0.0
 40
0.0
 40
0.0
 40
0.2027928333
 40
0.4308455598
 40
0.6968962299
 40
1.0
 40
1.0
 40
1.0
 40
1.0
 10
194.6953199625
 20
211.8357738859
 30
0.0
 10
194.718182795
 20
211.8489770927
 30
0.0
 10
194.7743580287
 20
211.8648866194
 30
0.0
 10
194.8659577201
 20
211.8514921098
 30
0.0
 10
194.9607240727
 20
211.8066100874
 30
0.0
 10
195.0195247804
 20
211.7606078648
 30
0.0
 10
195.0484289316
 20
211.7337433329
 30
0.0
  0
SPLINE
  5
2B9
100
AcDbEntity
  8
0
100
AcDbSpline
 62
7
  6
BYLAYER
 70
0
 71
3
 72
11
 73
7
 74
0
 42
0.0000001
 43
0.0000001
 44
0.0000000001
 40
0.0
 40
0.0
 40
0.0
 40
0.0
 40
0.2343509268
 40
0.4754604297
 40
0.7292688098
 40
1.0
 40
1.0
 40
1.0
 40
1.0
 10
186.2204554285
 20
214.2849386866
 30
0.0
 10
186.4761567282
 20
214.4325759488
 30
0.0
 10
187.0288586708
 20
214.6769683319
 30
0.0
 10
187.9335683172
 20
214.8681673158
 30
0.0
 10
188.903179958
 20
214.8852610171
 30
0.0
 10
189.5596585362
 20
214.7854499236
 30
0.0
 10
189.8924205191
 20
214.7104988346
 30
0.0
  0
SPLINE
  5
2BA
100
AcDbEntity
  8
0
100
AcDbSpline
 62
7
  6
BYLAYER
 70
0
 71
3
 72
15
 73
11
 74
0
 42
0.0000001
 43
0.0000001
 44
0.0000000001
 40
0.0
 40
0.0
 40
0.0
 40
0.0
 40
0.1441090598
 40
0.2753669699
 40
0.3962093631
 40
0.5110886697
 40
0.6249670679
 40
0.7422225894
 40
0.8664498806
 40
1.0
 40
1.0
 40
1.0
 40
1.0
 10
174.0299600181
 20
197.7341572596
 30
0.0
 10
174.1350269331
 20
197.7673813691
 30
0.0
 10
174.3304540846
 20
197.8518351075
 30
0.0
 10
174.5704756841
 20
198.0434690798
 30
0.0
 10
174.7282898758
 20
198.2816171239
 30
0.0
 10
174.7950522289
 20
198.5458153523
 30
0.0
 10
174.7709406837
 20
198.8140886716
 30
0.0
 10
174.6619083706
 20
199.0675178942
 30
0.0
 10
174.4768721688
 20
199.2909289935
 30
0.0
 10
174.3156970813
 20
199.4080643736
 30
0.0
 10
174.2271456595
 20
199.4589298989
 30
0.0
  0
SPLINE
  5
2BB
100
AcDbEntity
  8
0
100
AcDbSpline
 62
7
  6
BYLAYER
 70
0
 71
3
 72
17
 73
13
 74
0
 42
0.0000001
 43
0.0000001
 44
0.0000000001
 40
0.0
 40
0.0
 40
0.0
 40
0.0
 40
0.0339162224
 40
0.071146294
 40
0.1140873396
 40
0.1638838798
 40
0.2838258947
 40
0.4248281368
 40
0.5758593755
 40
0.7266023208
 40
0.8694227918
 40
1.0
 40
1.0
 40
1.0
 40
1.0
 10
171.825079287
 20
198.2774807693
 30
0.0
 10
171.8250707991
 20
198.3038372622
 30
0.0
 10
171.8347318732
 20
198.3594388293
 30
0.0
 10
171.8758013997
 20
198.4391001672
 30
0.0
 10
171.9411940206
 20
198.5168539273
 30
0.0
 10
172.0667438203
 20
198.6250725465
 30
0.0
 10
172.2760894173
 20
198.7486105026
 30
0.0
 10
172.5726291966
 20
198.8711302168
 30
0.0
 10
172.9061759426
 20
198.9601755874
 30
0.0
 10
173.2512167092
 20
198.9983655508
 30
0.0
 10
173.5822688757
 20
198.970927126
 30
0.0
 10
173.7855668802
 20
198.897033203
 30
0.0
 10
173.8735938066
 20
198.8465565753
 30
0.0
  0
SPLINE
  5
2BC
100
AcDbEntity
  8
0
100
AcDbSpline
 62
7
  6
BYLAYER
 70
0
 71
3
 72
9
 73
5
 74
0
 42
0.0000001
 43
0.0000001
 44
0.0000000001
 40
0.0
 40
0.0
 40
0.0
 40
0.0
 40
0.230481558
 40
1.0
 40
1.0
 40
1.0
 40
1.0
 10
150.3977287473
 20
187.6738812528
 30
0.0
 10
150.5702186107
 20
187.6548665831
 30
0.0
 10
151.3132533471
 20
187.5231933567
 30
0.0
 10
152.017290568
 20
187.2155232994
 30
0.0
 10
152.5190579228
 20
186.9258343357
 30
0.0
  0
SPLINE
  5
2BD
100
AcDbEntity
  8
0
100
AcDbSpline
 62
7
  6
BYLAYER
 70
0
 71
3
 72
9
 73
5
 74
0
 42
0.0000001
 43
0.0000001
 44
0.0000000001
 40
0.0
 40
0.0
 40
0.0
 40
0.0
 40
0.4812792149
 40
1.0
 40
1.0
 40
1.0
 40
1.0
 10
152.5190579228
 20
186.9258343357
 30
0.0
 10
152.8978004026
 20
186.7071722098
 30
0.0
 10
153.646230245
 20
186.1846895669
 30
0.0
 10
154.3144108428
 20
185.5648987038
 30
0.0
 10
154.6403870982
 20
185.2244367257
 30
0.0
  0
SPLINE
  5
2BE
100
AcDbEntity
  8
0
100
AcDbSpline
 62
7
  6
BYLAYER
 70
0
 71
3
 72
10
 73
6
 74
0
 42
0.0000001
 43
0.0000001
 44
0.0000000001
 40
0.0
 40
0.0
 40
0.0
 40
0.0
 40
0.2280248007
 40
0.4767774503
 40
1.0
 40
1.0
 40
1.0
 40
1.0
 10
154.6403870982
 20
184.5697485866
 30
0.0
 10
154.6403870982
 20
184.4648466769
 30
0.0
 10
154.6644592523
 20
184.2451897315
 30
0.0
 10
154.7903843075
 20
183.8015260933
 30
0.0
 10
154.9620344248
 20
183.4832890372
 30
0.0
 10
155.1044278553
 20
183.2892176193
 30
0.0
  0
SPLINE
  5
2BF
100
AcDbEntity
  8
0
100
AcDbSpline
 62
7
  6
BYLAYER
 70
0
 71
3
 72
9
 73
5
 74
0
 42
0.0000001
 43
0.0000001
 44
0.0000000001
 40
0.0
 40
0.0
 40
0.0
 40
0.0
 40
0.5246775775
 40
1.0
 40
1.0
 40
1.0
 40
1.0
 10
156.1960284935
 20
181.4553225019
 30
0.0
 10
156.2623878421
 20
181.3148435752
 30
0.0
 10
156.3650736052
 20
181.0351039501
 30
0.0
 10
156.4081614111
 20
180.7387471485
 30
0.0
 10
156.4081614111
 20
180.5979981002
 30
0.0
  0
SPLINE
  5
2C0
100
AcDbEntity
  8
0
100
AcDbSpline
 62
7
  6
BYLAYER
 70
0
 71
3
 72
11
 73
7
 74
0
 42
0.0000001
 43
0.0000001
 44
0.0000000001
 40
0.0
 40
0.0
 40
0.0
 40
0.0
 40
0.2673782532
 40
0.5199219073
 40
0.7623229226
 40
1.0
 40
1.0
 40
1.0
 40
1.0
 10
180.9446321788
 20
202.928998113
 30
0.0
 10
180.9985637008
 20
202.8977654883
 30
0.0
 10
181.0973429625
 20
202.8252677438
 30
0.0
 10
181.2110136246
 20
202.686071009
 30
0.0
 10
181.2805106667
 20
202.527816127
 30
0.0
 10
181.2960863865
 20
202.4153242707
 30
0.0
 10
181.2960975382
 20
202.3599247992
 30
0.0
  0
SPLINE
  5
2C1
100
AcDbEntity
  8
0
100
AcDbSpline
 62
7
  6
BYLAYER
 70
0
 71
3
 72
11
 73
7
 74
0
 42
0.0000001
 43
0.0000001
 44
0.0000000001
 40
0.0
 40
0.0
 40
0.0
 40
0.0
 40
0.284036101
 40
0.5436758889
 40
0.7806375062
 40
1.0
 40
1.0
 40
1.0
 40
1.0
 10
156.4081614111
 20
175.6989835974
 30
0.0
 10
156.4081614111
 20
175.6360729479
 30
0.0
 10
156.4001588245
 20
175.5154031679
 30
0.0
 10
156.3605715159
 20
175.3461446772
 30
0.0
 10
156.2942725406
 20
175.2008032664
 30
0.0
 10
156.2310391469
 20
175.1202915352
 30
0.0
 10
156.1960284935
 20
175.0866036483
 30
0.0
  0
SPLINE
  5
2C2
100
AcDbEntity
  8
0
100
AcDbSpline
 62
7
  6
BYLAYER
 70
0
 71
3
 72
9
 73
5
 74
0
 42
0.0000001
 43
0.0000001
 44
0.0000000001
 40
0.0
 40
0.0
 40
0.0
 40
0.0
 40
0.2523234826
 40
1.0
 40
1.0
 40
1.0
 40
1.0
 10
156.1960284935
 20
175.0866036483
 30
0.0
 10
156.1635737202
 20
175.0553738291
 30
0.0
 10
156.0313519256
 20
174.9354060772
 30
0.0
 10
155.8846249691
 20
174.8313711366
 30
0.0
 10
155.7690441833
 20
174.7646400717
 30
0.0
  0
SPLINE
  5
2C3
100
AcDbEntity
  8
0
100
AcDbSpline
 62
7
  6
BYLAYER
 70
0
 71
3
 72
11
 73
7
 74
0
 42
0.0000001
 43
0.0000001
 44
0.0000000001
 40
0.0
 40
0.0
 40
0.0
 40
0.0
 40
0.2673782548
 40
0.5199219059
 40
0.7623229225
 40
1.0
 40
1.0
 40
1.0
 40
1.0
 10
166.8025554345
 20
194.7641150355
 30
0.0
 10
166.856486955
 20
194.7328824076
 30
0.0
 10
166.9552662172
 20
194.6603846656
 30
0.0
 10
167.0689368814
 20
194.5211879318
 30
0.0
 10
167.1384339221
 20
194.3629330497
 30
0.0
 10
167.1540096422
 20
194.2504411932
 30
0.0
 10
167.154020794
 20
194.1950417216
 30
0.0
  0
SPLINE
  5
2C4
100
AcDbEntity
  8
0
100
AcDbSpline
 62
7
  6
BYLAYER
 70
0
 71
3
 72
11
 73
7
 74
0
 42
0.0000001
 43
0.0000001
 44
0.0000000001
 40
0.0
 40
0.0
 40
0.0
 40
0.0
 40
0.2673782564
 40
0.5199219046
 40
0.7623229224
 40
1.0
 40
1.0
 40
1.0
 40
1.0
 10
159.7315170623
 20
190.6816734968
 30
0.0
 10
159.7854485814
 20
190.6504408656
 30
0.0
 10
159.8842278441
 20
190.5779431262
 30
0.0
 10
159.9978985102
 20
190.4387463933
 30
0.0
 10
160.0673955497
 20
190.280491511
 30
0.0
 10
160.0829712701
 20
190.1679996544
 30
0.0
 10
160.0829824218
 20
190.1126001828
 30
0.0
  0
SPLINE
  5
2C5
100
AcDbEntity
  8
0
100
AcDbSpline
 62
7
  6
BYLAYER
 70
0
 71
3
 72
9
 73
5
 74
0
 42
0.0000001
 43
0.0000001
 44
0.0000000001
 40
0.0
 40
0.0
 40
0.0
 40
0.0
 40
0.4943925682
 40
1.0
 40
1.0
 40
1.0
 40
1.0
 10
201.1952624305
 20
194.0631266227
 30
0.0
 10
201.4204619934
 20
194.1931495131
 30
0.0
 10
201.8520770417
 20
194.4997949216
 30
0.0
 10
202.219839461
 20
194.880156815
 30
0.0
 10
202.3880044703
 20
195.086176129
 30
0.0
  0
SPLINE
  5
2C6
100
AcDbEntity
  8
0
100
AcDbSpline
 62
7
  6
BYLAYER
 70
0
 71
3
 72
9
 73
5
 74
0
 42
0.0000001
 43
0.0000001
 44
0.0000000001
 40
0.0
 40
0.0
 40
0.0
 40
0.0
 40
0.2422582951
 40
1.0
 40
1.0
 40
1.0
 40
1.0
 10
202.3880044703
 20
195.086176129
 30
0.0
 10
202.461410421
 20
195.176105917
 30
0.0
 10
202.7508233722
 20
195.5583548887
 30
0.0
 10
202.9846605936
 20
195.9815195049
 30
0.0
 10
203.1316578162
 20
196.3135278217
 30
0.0
  0
SPLINE
  5
2C7
100
AcDbEntity
  8
0
100
AcDbSpline
 62
7
  6
BYLAYER
 70
0
 71
3
 72
15
 73
11
 74
0
 42
0.0000001
 43
0.0000001
 44
0.0000000001
 40
0.0
 40
0.0
 40
0.0
 40
0.0
 40
0.0993019113
 40
0.2093346232
 40
0.3294237005
 40
0.4578286314
 40
0.592083803
 40
0.7292782329
 40
0.8662814594
 40
1.0
 40
1.0
 40
1.0
 40
1.0
 10
203.3407806389
 20
196.8495217496
 30
0.0
 10
203.5210380976
 20
197.3776708586
 30
0.0
 10
203.7679785292
 20
198.538105287
 30
0.0
 10
203.8175704484
 20
200.3962812325
 30
0.0
 10
203.5683651095
 20
202.4024013688
 30
0.0
 10
203.0291203665
 20
204.4901119822
 30
0.0
 10
202.2182711682
 20
206.5908281489
 30
0.0
 10
201.162871406
 20
208.6342526079
 30
0.0
 10
199.8987238498
 20
210.5515510657
 30
0.0
 10
198.9255958419
 20
211.7260866082
 30
0.0
 10
198.4124166276
 20
212.2750571724
 30
0.0
  0
SPLINE
  5
2C8
100
AcDbEntity
  8
0
100
AcDbSpline
 62
7
  6
BYLAYER
 70
0
 71
3
 72
21
 73
17
 74
0
 42
0.0000001
 43
0.0000001
 44
0.0000000001
 40
0.0
 40
0.0
 40
0.0
 40
0.0
 40
0.1401644737
 40
0.2952819109
 40
0.3759817991
 40
0.4562977451
 40
0.5338525437
 40
0.6059551186
 40
0.6701653847
 40
0.7250833591
 40
0.7711133161
 40
0.8110694
 40
0.8499111996
 40
0.8926273864
 40
0.9422992138
 40
1.0
 40
1.0
 40
1.0
 40
1.0
 10
160.0850689152
 20
191.2940468215
 30
0.0
 10
159.918572316
 20
191.3910488255
 30
0.0
 10
159.5258052667
 20
191.5241191862
 30
0.0
 10
159.005146153
 20
191.5519660615
 30
0.0
 10
158.5724131668
 20
191.505151281
 30
0.0
 10
158.2510904756
 20
191.436553631
 30
0.0
 10
157.9495267784
 20
191.3398127049
 30
0.0
 10
157.6801362987
 20
191.220448083
 30
0.0
 10
157.454252624
 20
191.0842352013
 30
0.0
 10
157.2806268852
 20
190.9358161559
 30
0.0
 10
157.1650209656
 20
190.7771641864
 30
0.0
 10
157.1151769838
 20
190.6083597398
 30
0.0
 10
157.1377130061
 20
190.4382916744
 30
0.0
 10
157.2244136525
 20
190.276912817
 30
0.0
 10
157.364861244
 20
190.1239246125
 30
0.0
 10
157.4822907901
 20
190.0334705386
 30
0.0
 10
157.5479396475
 20
189.9889434896
 30
0.0
  0
SPLINE
  5
2C9
100
AcDbEntity
  8
0
100
AcDbSpline
 62
7
  6
BYLAYER
 70
0
 71
3
 72
9
 73
5
 74
0
 42
0.0000001
 43
0.0000001
 44
0.0000000001
 40
0.0
 40
0.0
 40
0.0
 40
0.0
 40
0.2436647402
 40
1.0
 40
1.0
 40
1.0
 40
1.0
 10
157.5479396475
 20
189.9889434896
 30
0.0
 10
157.5584751974
 20
189.9817976388
 30
0.0
 10
157.6020060082
 20
189.9529041911
 30
0.0
 10
157.6466557196
 20
189.9257054562
 30
0.0
 10
157.6809161142
 20
189.9060165545
 30
0.0
  0
SPLINE
  5
2CA
100
AcDbEntity
  8
0
100
AcDbSpline
 62
7
  6
BYLAYER
 70
0
 71
3
 72
11
 73
7
 74
0
 42
0.0000001
 43
0.0000001
 44
0.0000000001
 40
0.0
 40
0.0
 40
0.0
 40
0.0
 40
0.2673782518
 40
0.5199219084
 40
0.7623229226
 40
1.0
 40
1.0
 40
1.0
 40
1.0
 10
173.8735938066
 20
198.8465565742
 30
0.0
 10
173.9275253299
 20
198.8153239523
 30
0.0
 10
174.0263045912
 20
198.7428262058
 30
0.0
 10
174.1399752516
 20
198.6036294701
 30
0.0
 10
174.2094722948
 20
198.4453745883
 30
0.0
 10
174.2250480144
 20
198.3328827321
 30
0.0
 10
174.2250591661
 20
198.2774832606
 30
0.0
  0
SPLINE
  5
2CB
100
AcDbEntity
  8
0
100
AcDbSpline
 62
7
  6
BYLAYER
 70
0
 71
3
 72
10
 73
6
 74
0
 42
0.0000001
 43
0.0000001
 44
0.0000000001
 40
0.0
 40
0.0
 40
0.0
 40
0.0
 40
0.5232225497
 40
0.7719751993
 40
1.0
 40
1.0
 40
1.0
 40
1.0
 10
192.2273793091
 20
204.7220356976
 30
0.0
 10
192.0849858785
 20
204.9161071154
 30
0.0
 10
191.9133357612
 20
205.2343441715
 30
0.0
 10
191.787410706
 20
205.6780078097
 30
0.0
 10
191.7633385519
 20
205.8976647551
 30
0.0
 10
191.7633385519
 20
206.0025666649
 30
0.0
  0
SPLINE
  5
2CC
100
AcDbEntity
  8
0
100
AcDbSpline
 62
7
  6
BYLAYER
 70
0
 71
3
 72
18
 73
14
 74
0
 42
0.0000001
 43
0.0000001
 44
0.0000000001
 40
0.0
 40
0.0
 40
0.0
 40
0.0
 40
0.1449442085
 40
0.2936002978
 40
0.4400356291
 40
0.5785642481
 40
0.6434280378
 40
0.7047290552
 40
0.8156178828
 40
0.8655848902
 40
0.9123840145
 40
0.956825199
 40
1.0
 40
1.0
 40
1.0
 40
1.0
 10
191.7633385519
 20
206.657254804
 30
0.0
 10
192.2052492826
 20
206.1957064582
 30
0.0
 10
193.0261995165
 20
205.1876198431
 30
0.0
 10
194.0287561311
 20
203.519813829
 30
0.0
 10
194.776833892
 20
201.7536342319
 30
0.0
 10
195.160328322
 20
200.25210298
 30
0.0
 10
195.2946906299
 20
199.0910447764
 30
0.0
 10
195.3119830346
 20
198.0454480221
 30
0.0
 10
195.1706621763
 20
197.0631391407
 30
0.0
 10
194.8396469994
 20
196.2058514912
 30
0.0
 10
194.5188663756
 20
195.668288997
 30
0.0
 10
194.1213812146
 20
195.2236819783
 30
0.0
 10
193.8068077322
 20
194.9936253671
 30
0.0
 10
193.6419812308
 20
194.8984372168
 30
0.0
  0
SPLINE
  5
2CD
100
AcDbEntity
  8
0
100
AcDbSpline
 62
7
  6
BYLAYER
 70
0
 71
3
 72
9
 73
5
 74
0
 42
0.0000001
 43
0.0000001
 44
0.0000000001
 40
0.0
 40
0.0
 40
0.0
 40
0.0
 40
0.2712787234
 40
1.0
 40
1.0
 40
1.0
 40
1.0
 10
191.7633385519
 20
195.2012549618
 30
0.0
 10
191.7633385519
 20
195.2401455095
 30
0.0
 10
191.7692427487
 20
195.3832324081
 30
0.0
 10
191.800641114
 20
195.5268303194
 30
0.0
 10
191.843526427
 20
195.6220917461
 30
0.0
  0
SPLINE
  5
2CE
100
AcDbEntity
  8
0
100
AcDbSpline
 62
7
  6
BYLAYER
 70
0
 71
3
 72
11
 73
7
 74
0
 42
0.0000001
 43
0.0000001
 44
0.0000000001
 40
0.0
 40
0.0
 40
0.0
 40
0.0
 40
0.2193613917
 40
0.4563179161
 40
0.7159597423
 40
1.0
 40
1.0
 40
1.0
 40
1.0
 10
193.3189204877
 20
196.519364515
 30
0.0
 10
193.3539352627
 20
196.5530563677
 30
0.0
 10
193.41719018
 20
196.6335637675
 30
0.0
 10
193.4835116668
 20
196.7789176098
 30
0.0
 10
193.5231071052
 20
196.9481964641
 30
0.0
 10
193.5311128648
 20
197.0688823831
 30
0.0
 10
193.5311128648
 20
197.1318016757
 30
0.0
  0
SPLINE
  5
2CF
100
AcDbEntity
  8
0
100
AcDbSpline
 62
7
  6
BYLAYER
 70
0
 71
3
 72
9
 73
5
 74
0
 42
0.0000001
 43
0.0000001
 44
0.0000000001
 40
0.0
 40
0.0
 40
0.0
 40
0.0
 40
0.4753213245
 40
1.0
 40
1.0
 40
1.0
 40
1.0
 10
193.5311128648
 20
202.0308161784
 30
0.0
 10
193.5311128648
 20
202.1715868689
 30
0.0
 10
193.488016929
 20
202.4679917704
 30
0.0
 10
193.3852903321
 20
202.7477653026
 30
0.0
 10
193.3189204876
 20
202.8882664485
 30
0.0
  0
SPLINE
  5
2D0
100
AcDbEntity
  8
0
100
AcDbSpline
 62
7
  6
BYLAYER
 70
0
 71
3
 72
15
 73
11
 74
0
 42
0.0000001
 43
0.0000001
 44
0.0000000001
 40
0.0
 40
0.0
 40
0.0
 40
0.0
 40
0.1441090599
 40
0.27536697
 40
0.3962093631
 40
0.5110886698
 40
0.6249670679
 40
0.7422225895
 40
0.8664498811
 40
1.0
 40
1.0
 40
1.0
 40
1.0
 10
166.958921646
 20
193.6517157209
 30
0.0
 10
167.0639885609
 20
193.6849398304
 30
0.0
 10
167.2594157125
 20
193.7693935688
 30
0.0
 10
167.499437312
 20
193.9610275411
 30
0.0
 10
167.6572515035
 20
194.1991755852
 30
0.0
 10
167.7240138573
 20
194.4633738136
 30
0.0
 10
167.6999023102
 20
194.7316471325
 30
0.0
 10
167.5908700012
 20
194.985076357
 30
0.0
 10
167.4058337943
 20
195.2084874542
 30
0.0
 10
167.2446587044
 20
195.3256228273
 30
0.0
 10
167.1561072874
 20
195.3764883602
 30
0.0
  0
SPLINE
  5
2D1
100
AcDbEntity
  8
0
100
AcDbSpline
 62
7
  6
BYLAYER
 70
0
 71
3
 72
15
 73
11
 74
0
 42
0.0000001
 43
0.0000001
 44
0.0000000001
 40
0.0
 40
0.0
 40
0.0
 40
0.0
 40
0.1441090599
 40
0.27536697
 40
0.3962093631
 40
0.5110886698
 40
0.6249670679
 40
0.7422225895
 40
0.8664498811
 40
1.0
 40
1.0
 40
1.0
 40
1.0
 10
159.8878832738
 20
189.5692741821
 30
0.0
 10
159.9929501888
 20
189.6024982917
 30
0.0
 10
160.1883773403
 20
189.68695203
 30
0.0
 10
160.4283989399
 20
189.8785860024
 30
0.0
 10
160.5862131313
 20
190.1167340465
 30
0.0
 10
160.6529754851
 20
190.3809322749
 30
0.0
 10
160.628863938
 20
190.6492055938
 30
0.0
 10
160.5198316291
 20
190.9026348183
 30
0.0
 10
160.3347954222
 20
191.1260459155
 30
0.0
 10
160.1736203323
 20
191.2431812886
 30
0.0
 10
160.0850689152
 20
191.2940468215
 30
0.0
  0
SPLINE
  5
2D2
100
AcDbEntity
  8
0
100
AcDbSpline
 62
7
  6
BYLAYER
 70
0
 71
3
 72
17
 73
13
 74
0
 42
0.0000001
 43
0.0000001
 44
0.0000000001
 40
0.0
 40
0.0
 40
0.0
 40
0.0
 40
0.0339162223
 40
0.0711462939
 40
0.1140873396
 40
0.1638838798
 40
0.2838258947
 40
0.4248281368
 40
0.5758593755
 40
0.7266023208
 40
0.8694227918
 40
1.0
 40
1.0
 40
1.0
 40
1.0
 10
157.6830025428
 20
190.112597692
 30
0.0
 10
157.6829940548
 20
190.1389541848
 30
0.0
 10
157.6926551289
 20
190.1945557519
 30
0.0
 10
157.7337246554
 20
190.2742170898
 30
0.0
 10
157.7991172763
 20
190.3519708499
 30
0.0
 10
157.9246670761
 20
190.460189469
 30
0.0
 10
158.134012673
 20
190.5837274252
 30
0.0
 10
158.4305524523
 20
190.7062471394
 30
0.0
 10
158.7640991983
 20
190.7952925099
 30
0.0
 10
159.1091399649
 20
190.8334824734
 30
0.0
 10
159.4401921315
 20
190.8060440486
 30
0.0
 10
159.6434901359
 20
190.7321501256
 30
0.0
 10
159.7315170623
 20
190.6816734978
 30
0.0
  0
SPLINE
  5
2D3
100
AcDbEntity
  8
0
100
AcDbSpline
 62
7
  6
BYLAYER
 70
0
 71
3
 72
17
 73
13
 74
0
 42
0.0000001
 43
0.0000001
 44
0.0000000001
 40
0.0
 40
0.0
 40
0.0
 40
0.0
 40
0.0339162223
 40
0.071146294
 40
0.1140873396
 40
0.1638838798
 40
0.2838258947
 40
0.4248281368
 40
0.5758593755
 40
0.7266023208
 40
0.8694227918
 40
1.0
 40
1.0
 40
1.0
 40
1.0
 10
164.7540409149
 20
194.1950392306
 30
0.0
 10
164.754032427
 20
194.2213957235
 30
0.0
 10
164.763693501
 20
194.2769972906
 30
0.0
 10
164.8047630276
 20
194.3566586285
 30
0.0
 10
164.8701556485
 20
194.4344123886
 30
0.0
 10
164.9957054482
 20
194.5426310077
 30
0.0
 10
165.2050510452
 20
194.6661689639
 30
0.0
 10
165.5015908245
 20
194.7886886781
 30
0.0
 10
165.8351375705
 20
194.8777340486
 30
0.0
 10
166.180178337
 20
194.9159240121
 30
0.0
 10
166.5112305036
 20
194.8884855873
 30
0.0
 10
166.7145285081
 20
194.8145916643
 30
0.0
 10
166.8025554345
 20
194.7641150365
 30
0.0
  0
SPLINE
  5
2D4
100
AcDbEntity
  8
0
100
AcDbSpline
 62
7
  6
BYLAYER
 70
0
 71
3
 72
20
 73
16
 74
0
 42
0.0000001
 43
0.0000001
 44
0.0000000001
 40
0.0
 40
0.0
 40
0.0
 40
0.0
 40
0.1416364647
 40
0.2890164027
 40
0.4357517208
 40
0.5069355757
 40
0.5756534709
 40
0.6412828723
 40
0.7033287704
 40
0.7614641704
 40
0.8155779084
 40
0.8658296442
 40
0.9127026856
 40
0.9570373386
 40
1.0
 40
1.0
 40
1.0
 40
1.0
 10
195.0484289316
 20
211.7337433329
 30
0.0
 10
195.7990098243
 20
211.0361271228
 30
0.0
 10
197.2056311343
 20
209.4741626219
 30
0.0
 10
198.9439910328
 20
206.8320315222
 30
0.0
 10
200.0649351322
 20
204.4263117012
 30
0.0
 10
200.7152508107
 20
202.4551596441
 30
0.0
 10
201.0631317176
 20
201.0074956936
 30
0.0
 10
201.2703091783
 20
199.5997078586
 30
0.0
 10
201.3332719718
 20
198.2543889477
 30
0.0
 10
201.2506543475
 20
196.993085555
 30
0.0
 10
201.0230367902
 20
195.8358352842
 30
0.0
 10
200.6527854154
 20
194.8012101537
 30
0.0
 10
200.1437007053
 20
193.9064738563
 30
0.0
 10
199.5024248499
 20
193.1688001311
 30
0.0
 10
198.9895775886
 20
192.7896955191
 30
0.0
 10
198.7203963748
 20
192.6342766364
 30
0.0
  0
SPLINE
  5
2D5
100
AcDbEntity
  8
0
100
AcDbSpline
 62
7
  6
BYLAYER
 70
0
 71
3
 72
21
 73
17
 74
0
 42
0.0000001
 43
0.0000001
 44
0.0000000001
 40
0.0
 40
0.0
 40
0.0
 40
0.0
 40
0.1401644737
 40
0.2952819109
 40
0.3759817991
 40
0.4562977451
 40
0.5338525437
 40
0.6059551186
 40
0.6701653847
 40
0.7250833591
 40
0.7711133161
 40
0.8110694
 40
0.8499111996
 40
0.8926273864
 40
0.9422992138
 40
1.0
 40
1.0
 40
1.0
 40
1.0
 10
167.1561072874
 20
195.3764883602
 30
0.0
 10
166.9896106881
 20
195.4734903642
 30
0.0
 10
166.5968436388
 20
195.6065607249
 30
0.0
 10
166.0761845251
 20
195.6344076002
 30
0.0
 10
165.6434515389
 20
195.5875928197
 30
0.0
 10
165.3221288477
 20
195.5189951697
 30
0.0
 10
165.0205651505
 20
195.4222542436
 30
0.0
 10
164.7511746708
 20
195.3028896217
 30
0.0
 10
164.5252909961
 20
195.16667674
 30
0.0
 10
164.3516652574
 20
195.0182576946
 30
0.0
 10
164.2360593378
 20
194.8596057251
 30
0.0
 10
164.1862153559
 20
194.6908012786
 30
0.0
 10
164.2087513782
 20
194.5207332131
 30
0.0
 10
164.2954520247
 20
194.3593543557
 30
0.0
 10
164.4358996162
 20
194.2063661512
 30
0.0
 10
164.5533291623
 20
194.1159120773
 30
0.0
 10
164.6189780197
 20
194.0713850284
 30
0.0
  0
SPLINE
  5
2D6
100
AcDbEntity
  8
0
100
AcDbSpline
 62
7
  6
BYLAYER
 70
0
 71
3
 72
9
 73
5
 74
0
 42
0.0000001
 43
0.0000001
 44
0.0000000001
 40
0.0
 40
0.0
 40
0.0
 40
0.0
 40
0.2436647402
 40
1.0
 40
1.0
 40
1.0
 40
1.0
 10
164.6189780197
 20
194.0713850284
 30
0.0
 10
164.6295135695
 20
194.0642391775
 30
0.0
 10
164.6730443803
 20
194.0353457298
 30
0.0
 10
164.7176940917
 20
194.0081469949
 30
0.0
 10
164.7519544863
 20
193.9884580932
 30
0.0
  0
SPLINE
  5
2D7
100
AcDbEntity
  8
0
100
AcDbSpline
 62
7
  6
BYLAYER
 70
0
 71
3
 72
13
 73
9
 74
0
 42
0.0000001
 43
0.0000001
 44
0.0000000001
 40
0.0
 40
0.0
 40
0.0
 40
0.0
 40
0.4001702553
 40
0.7089535846
 40
0.8239776986
 40
0.9108642629
 40
0.9688730058
 40
1.0
 40
1.0
 40
1.0
 40
1.0
 10
198.4124141423
 20
212.2750598311
 30
0.0
 10
198.4271401071
 20
212.297247427
 30
0.0
 10
198.4536686986
 20
212.336231062
 30
0.0
 10
198.4861573804
 20
212.3805395674
 30
0.0
 10
198.5076927307
 20
212.4066982698
 30
0.0
 10
198.5196749111
 20
212.4194842724
 30
0.0
 10
198.5281813309
 20
212.4269299272
 30
0.0
 10
198.534148423
 20
212.4299695703
 30
0.0
 10
198.536157787
 20
212.4294665148
 30
0.0
  0
SPLINE
  5
2D8
100
AcDbEntity
  8
0
100
AcDbSpline
 62
7
  6
BYLAYER
 70
0
 71
3
 72
11
 73
7
 74
0
 42
0.0000001
 43
0.0000001
 44
0.0000000001
 40
0.0
 40
0.0
 40
0.0
 40
0.0
 40
0.2178407362
 40
0.4509499328
 40
0.7102758212
 40
1.0
 40
1.0
 40
1.0
 40
1.0
 10
154.951064983
 20
174.4550985563
 30
0.0
 10
154.9015610241
 20
174.4265427643
 30
0.0
 10
154.8089687741
 20
174.3487042932
 30
0.0
 10
154.7104580434
 20
174.1875424617
 30
0.0
 10
154.6518863591
 20
173.9889796922
 30
0.0
 10
154.6403870982
 20
173.8444447838
 30
0.0
 10
154.6403870982
 20
173.7684368836
 30
0.0
  0
SPLINE
  5
2D9
100
AcDbEntity
  8
0
100
AcDbSpline
 62
7
  6
BYLAYER
 70
0
 71
3
 72
9
 73
5
 74
0
 42
0.0000001
 43
0.0000001
 44
0.0000000001
 40
0.0
 40
0.0
 40
0.0
 40
0.0
 40
0.2486886826
 40
1.0
 40
1.0
 40
1.0
 40
1.0
 10
192.8919953091
 20
196.1974587179
 30
0.0
 10
192.9304339475
 20
196.2196513454
 30
0.0
 10
193.0822382814
 20
196.3136083565
 30
0.0
 10
193.2222974937
 20
196.4263884031
 30
0.0
 10
193.3189204877
 20
196.519364515
 30
0.0
  0
SPLINE
  5
2DA
100
AcDbEntity
  8
0
100
AcDbSpline
 62
7
  6
BYLAYER
 70
0
 71
3
 72
9
 73
5
 74
0
 42
0.0000001
 43
0.0000001
 44
0.0000000001
 40
0.0
 40
0.0
 40
0.0
 40
0.0
 40
0.5854088299
 40
1.0
 40
1.0
 40
1.0
 40
1.0
 10
196.6697425471
 20
212.6698035977
 30
0.0
 10
196.6495970278
 20
212.7127365064
 30
0.0
 10
196.6101863558
 20
212.7830901438
 30
0.0
 10
196.5480914996
 20
212.8422739955
 30
0.0
 10
196.5164446136
 20
212.8535220175
 30
0.0
  0
SPLINE
  5
2DB
100
AcDbEntity
  8
0
100
AcDbSpline
 62
7
  6
BYLAYER
 70
0
 71
3
 72
8
 73
4
 74
0
 42
0.0000001
 43
0.0000001
 44
0.0000000001
 40
0.0
 40
0.0
 40
0.0
 40
0.0
 40
1.0
 40
1.0
 40
1.0
 40
1.0
 10
196.5164446136
 20
212.8535220175
 30
0.0
 10
196.5113138172
 20
212.8553456191
 30
0.0
 10
196.5060150531
 20
212.856769709
 30
0.0
 10
196.5006455538
 20
212.8576747352
 30
0.0
  0
SPLINE
  5
2DC
100
AcDbEntity
  8
0
100
AcDbSpline
 62
7
  6
BYLAYER
 70
0
 71
3
 72
10
 73
6
 74
0
 42
0.0000001
 43
0.0000001
 44
0.0000000001
 40
0.0
 40
0.0
 40
0.0
 40
0.0
 40
0.2392145277
 40
0.4831589133
 40
1.0
 40
1.0
 40
1.0
 40
1.0
 10
185.6420375222
 20
208.754828937
 30
0.0
 10
185.7759591393
 20
208.832169358
 30
0.0
 10
186.0608494784
 20
208.9648833719
 30
0.0
 10
186.6870686088
 20
209.1347577086
 30
0.0
 10
187.1885596326
 20
209.1433111227
 30
0.0
 10
187.520680201
 20
209.1066993311
 30
0.0
  0
SPLINE
  5
2DD
100
AcDbEntity
  8
0
100
AcDbSpline
 62
7
  6
BYLAYER
 70
0
 71
3
 72
15
 73
11
 74
0
 42
0.0000001
 43
0.0000001
 44
0.0000000001
 40
0.0
 40
0.0
 40
0.0
 40
0.0
 40
0.142658219
 40
0.2728508923
 40
0.3932686887
 40
0.5083238672
 40
0.6227809857
 40
0.7407975612
 40
0.8657993363
 40
1.0
 40
1.0
 40
1.0
 40
1.0
 10
181.1548356075
 20
201.8346975994
 30
0.0
 10
181.2550561873
 20
201.8704447757
 30
0.0
 10
181.4407349132
 20
201.9592583665
 30
0.0
 10
181.665526526
 20
202.1539204214
 30
0.0
 10
181.8099742545
 20
202.3909207725
 30
0.0
 10
181.8668636535
 20
202.6506007331
 30
0.0
 10
181.8370783913
 20
202.9125607326
 30
0.0
 10
181.7263958445
 20
203.1593788053
 30
0.0
 10
181.5432300216
 20
203.3770061887
 30
0.0
 10
181.3849803478
 20
203.4915140765
 30
0.0
 10
181.2981840316
 20
203.5413714377
 30
0.0
  0
SPLINE
  5
2DE
100
AcDbEntity
  8
0
100
AcDbSpline
 62
7
  6
BYLAYER
 70
0
 71
3
 72
9
 73
5
 74
0
 42
0.0000001
 43
0.0000001
 44
0.0000000001
 40
0.0
 40
0.0
 40
0.0
 40
0.0
 40
0.4957187872
 40
1.0
 40
1.0
 40
1.0
 40
1.0
 10
149.2690716622
 20
186.0229899256
 30
0.0
 10
149.3710856372
 20
186.0818881338
 30
0.0
 10
149.5869864843
 20
186.183967793
 30
0.0
 10
149.8163743586
 20
186.2500476267
 30
0.0
 10
149.9336879902
 20
186.2744781367
 30
0.0
  0
SPLINE
  5
2DF
100
AcDbEntity
  8
0
100
AcDbSpline
 62
7
  6
BYLAYER
 70
0
 71
3
 72
17
 73
13
 74
0
 42
0.0000001
 43
0.0000001
 44
0.0000000001
 40
0.0
 40
0.0
 40
0.0
 40
0.0
 40
0.0339162224
 40
0.071146294
 40
0.1140873396
 40
0.1638838798
 40
0.2838258948
 40
0.4248281368
 40
0.5758593755
 40
0.7266023208
 40
0.8694227918
 40
1.0
 40
1.0
 40
1.0
 40
1.0
 10
178.8961176592
 20
202.3599223079
 30
0.0
 10
178.8961091712
 20
202.3862788008
 30
0.0
 10
178.9057702453
 20
202.441880368
 30
0.0
 10
178.9468397718
 20
202.521541706
 30
0.0
 10
179.0122323928
 20
202.599295466
 30
0.0
 10
179.1377821925
 20
202.7075140852
 30
0.0
 10
179.3471277894
 20
202.8310520413
 30
0.0
 10
179.6436675687
 20
202.9535717555
 30
0.0
 10
179.9772143147
 20
203.0426171261
 30
0.0
 10
180.3222550813
 20
203.0808070895
 30
0.0
 10
180.6533072479
 20
203.0533686647
 30
0.0
 10
180.8566052523
 20
202.9794747417
 30
0.0
 10
180.9446321788
 20
202.928998114
 30
0.0
  0
SPLINE
  5
2E0
100
AcDbEntity
  8
0
100
AcDbSpline
 62
7
  6
BYLAYER
 70
0
 71
3
 72
11
 73
7
 74
0
 42
0.0000001
 43
0.0000001
 44
0.0000000001
 40
0.0
 40
0.0
 40
0.0
 40
0.0
 40
0.2169524673
 40
0.4783291263
 40
0.7520115693
 40
1.0
 40
1.0
 40
1.0
 40
1.0
 10
189.8924205191
 20
214.7104988346
 30
0.0
 10
189.9518760852
 20
214.6971071022
 30
0.0
 10
190.0731896273
 20
214.6282820547
 30
0.0
 10
190.2157984351
 20
214.4697033801
 30
0.0
 10
190.3181802009
 20
214.2725244906
 30
0.0
 10
190.3490955499
 20
214.1260064223
 30
0.0
 10
190.3490955499
 20
214.0563428916
 30
0.0
  0
SPLINE
  5
2E1
100
AcDbEntity
  8
0
100
AcDbSpline
 62
7
  6
BYLAYER
 70
0
 71
3
 72
13
 73
9
 74
0
 42
0.0000001
 43
0.0000001
 44
0.0000000001
 40
0.0
 40
0.0
 40
0.0
 40
0.0
 40
0.2894088131
 40
0.548290082
 40
0.6677434381
 40
0.7817698801
 40
0.8919032702
 40
1.0
 40
1.0
 40
1.0
 40
1.0
 10
192.4704247253
 20
209.9916290294
 30
0.0
 10
192.1192618873
 20
210.1943684019
 30
0.0
 10
191.4214516612
 20
210.5267626676
 30
0.0
 10
190.502565049
 20
210.7480290815
 30
0.0
 10
189.8110424019
 20
210.7721302028
 30
0.0
 10
189.3306821284
 20
210.7185324011
 30
0.0
 10
188.8800824233
 20
210.5939668391
 30
0.0
 10
188.6016178715
 20
210.463525874
 30
0.0
 10
188.4704559589
 20
210.3878000966
 30
0.0
  0
SPLINE
  5
2E2
100
AcDbEntity
  8
0
100
AcDbSpline
 62
7
  6
BYLAYER
 70
0
 71
3
 72
11
 73
7
 74
0
 42
0.0000001
 43
0.0000001
 44
0.0000000001
 40
0.0
 40
0.0
 40
0.0
 40
0.0
 40
0.2436530549
 40
0.5013252263
 40
0.7592914537
 40
1.0
 40
1.0
 40
1.0
 40
1.0
 10
191.5137341346
 20
215.6465590994
 30
0.0
 10
191.5853072242
 20
215.6480954623
 30
0.0
 10
191.7341359651
 20
215.6211759086
 30
0.0
 10
191.9304851443
 20
215.5066523774
 30
0.0
 10
192.0757992462
 20
215.3318903396
 30
0.0
 10
192.1168636342
 20
215.1843852043
 30
0.0
 10
192.116855132
 20
215.1136607764
 30
0.0
  0
SPLINE
  5
2E3
100
AcDbEntity
  8
0
100
AcDbSpline
 62
7
  6
BYLAYER
 70
0
 71
3
 72
11
 73
7
 74
0
 42
0.0000001
 43
0.0000001
 44
0.0000000001
 40
0.0
 40
0.0
 40
0.0
 40
0.0
 40
0.2637378348
 40
0.5161155541
 40
0.7602013355
 40
1.0
 40
1.0
 40
1.0
 40
1.0
 10
191.4781723688
 20
216.2784606392
 30
0.0
 10
191.2257330736
 20
216.2999005944
 30
0.0
 10
190.7282860235
 20
216.3106324226
 30
0.0
 10
190.0007606494
 20
216.2219712858
 30
0.0
 10
189.3175659592
 20
216.0281455739
 30
0.0
 10
188.894820594
 20
215.828950097
 30
0.0
 10
188.6953291577
 20
215.7137753784
 30
0.0
  0
SPLINE
  5
2E4
100
AcDbEntity
  8
0
100
AcDbSpline
 62
7
  6
BYLAYER
 70
0
 71
3
 72
21
 73
17
 74
0
 42
0.0000001
 43
0.0000001
 44
0.0000000001
 40
0.0
 40
0.0
 40
0.0
 40
0.0
 40
0.1401644737
 40
0.2952819109
 40
0.3759817991
 40
0.4562977451
 40
0.5338525437
 40
0.6059551186
 40
0.6701653847
 40
0.7250833591
 40
0.7711133161
 40
0.8110694
 40
0.8499111996
 40
0.8926273864
 40
0.9422992138
 40
1.0
 40
1.0
 40
1.0
 40
1.0
 10
174.2271456595
 20
199.4589298989
 30
0.0
 10
174.0606490602
 20
199.5559319029
 30
0.0
 10
173.6678820109
 20
199.6890022636
 30
0.0
 10
173.1472228973
 20
199.7168491389
 30
0.0
 10
172.7144899111
 20
199.6700343584
 30
0.0
 10
172.3931672198
 20
199.6014367085
 30
0.0
 10
172.0916035227
 20
199.5046957823
 30
0.0
 10
171.822213043
 20
199.3853311604
 30
0.0
 10
171.5963293682
 20
199.2491182787
 30
0.0
 10
171.4227036295
 20
199.1006992333
 30
0.0
 10
171.3070977099
 20
198.9420472638
 30
0.0
 10
171.257253728
 20
198.7732428173
 30
0.0
 10
171.2797897504
 20
198.6031747518
 30
0.0
 10
171.3664903968
 20
198.4417958944
 30
0.0
 10
171.5069379883
 20
198.2888076899
 30
0.0
 10
171.6243675344
 20
198.1983536161
 30
0.0
 10
171.6900163918
 20
198.1538265671
 30
0.0
  0
SPLINE
  5
2E5
100
AcDbEntity
  8
0
100
AcDbSpline
 62
7
  6
BYLAYER
 70
0
 71
3
 72
9
 73
5
 74
0
 42
0.0000001
 43
0.0000001
 44
0.0000000001
 40
0.0
 40
0.0
 40
0.0
 40
0.0
 40
0.2436647402
 40
1.0
 40
1.0
 40
1.0
 40
1.0
 10
171.6900163918
 20
198.1538265671
 30
0.0
 10
171.7005519417
 20
198.1466807162
 30
0.0
 10
171.7440827525
 20
198.1177872685
 30
0.0
 10
171.7887324639
 20
198.0905885336
 30
0.0
 10
171.8229928585
 20
198.0708996319
 30
0.0
  0
SPLINE
  5
2E6
100
AcDbEntity
  8
0
100
AcDbSpline
 62
7
  6
BYLAYER
 70
0
 71
3
 72
21
 73
17
 74
0
 42
0.0000001
 43
0.0000001
 44
0.0000000001
 40
0.0
 40
0.0
 40
0.0
 40
0.0
 40
0.1401644737
 40
0.2952819109
 40
0.3759817991
 40
0.4562977451
 40
0.5338525437
 40
0.6059551186
 40
0.6701653847
 40
0.7250833591
 40
0.7711133161
 40
0.8110694
 40
0.8499111995
 40
0.8926273864
 40
0.9422992137
 40
1.0
 40
1.0
 40
1.0
 40
1.0
 10
181.2981840316
 20
203.5413714377
 30
0.0
 10
181.1316874324
 20
203.6383734416
 30
0.0
 10
180.7389203831
 20
203.7714438023
 30
0.0
 10
180.2182612694
 20
203.7992906776
 30
0.0
 10
179.7855282832
 20
203.7524758972
 30
0.0
 10
179.464205592
 20
203.6838782472
 30
0.0
 10
179.1626418948
 20
203.587137321
 30
0.0
 10
178.8932514151
 20
203.4677726991
 30
0.0
 10
178.6673677404
 20
203.3315598174
 30
0.0
 10
178.4937420016
 20
203.183140772
 30
0.0
 10
178.3781360821
 20
203.0244888025
 30
0.0
 10
178.3282921002
 20
202.855684356
 30
0.0
 10
178.3508281225
 20
202.6856162905
 30
0.0
 10
178.4375287689
 20
202.5242374331
 30
0.0
 10
178.5779763604
 20
202.3712492285
 30
0.0
 10
178.6954059068
 20
202.2807951549
 30
0.0
 10
178.7610547642
 20
202.2362681059
 30
0.0
  0
SPLINE
  5
2E7
100
AcDbEntity
  8
0
100
AcDbSpline
 62
7
  6
BYLAYER
 70
0
 71
3
 72
9
 73
5
 74
0
 42
0.0000001
 43
0.0000001
 44
0.0000000001
 40
0.0
 40
0.0
 40
0.0
 40
0.0
 40
0.2436647404
 40
1.0
 40
1.0
 40
1.0
 40
1.0
 10
178.7610547642
 20
202.2362681059
 30
0.0
 10
178.7715903141
 20
202.229122255
 30
0.0
 10
178.8151211248
 20
202.2002288074
 30
0.0
 10
178.8597708361
 20
202.1730300724
 30
0.0
 10
178.8940312306
 20
202.1533411706
 30
0.0
  0
ENDSEC
  0
SECTION
  2
OBJECTS
  0
DICTIONARY
  5
C
100
AcDbDictionary
280
0
281
1
  3
ACAD_GROUP
350
D
  3
ACAD_MLINESTYLE
350
17
  3
ACAD_LAYOUT
350
1A
  3
ACAD_PLOTSETTINGS
350
19
  3
ACAD_PLOTSTYLENAME
350
E
  0
DICTIONARY
  5
D
102
{ACAD_REACTORS
330
C
102
}
100
AcDbDictionary
280
0
281
1
  0
ACDBDICTIONARYWDFLT
  5
E
102
{ACAD_REACTORS
330
C
102
}
100
AcDbDictionary
281
1
  3
Normal
350
F
100
AcDbDictionaryWithDefault
340
F
  0
DICTIONARY
  5
17
102
{ACAD_REACTORS
330
C
102
}
100
AcDbDictionary
280
0
281
1
  3
Standard
350
18
  0
DICTIONARY
  5
19
102
{ACAD_REACTORS
330
C
102
}
100
AcDbDictionary
281
1
  0
DICTIONARY
  5
1A
102
{ACAD_REACTORS
330
C
102
}
100
AcDbDictionary
281
1
  3
Model
350
2E8
  3
Layout1
350
2E9
  0
ACDBPLACEHOLDER
  5
F
102
{ACAD_REACTORS
330
E
102
}
  0
MLINESTYLE
  5
18
102
{ACAD_REACTORS
330
17
102
}
100
AcDbMlineStyle
  2
STANDARD
 70
0
  3

 62
256
 51
90.0
 52
90.0
 71
2
 49
0.5
 62
256
  6
BYLAYER
 49
-0.5
 62
256
  6
BYLAYER
  0
LAYOUT
  5
2E8
102
{ACAD_REACTORS
330
1A
102
}
100
AcDbPlotSettings
  1

  2
none_device
  4

  6

 40
0.0
 41
0.0
 42
0.0
 43
0.0
 44
210.0
 45
297.0
 46
0.0
 47
0.0
 48
0.0
 49
0.0
140
0.0
141
0.0
142
1.0
143
1.0
 70
1024
 72
1
 73
0
 74
0
  7

 75
0
147
1.0
148
0.0
149
0.0
100
AcDbLayout
  1
Model
 70
0
 71
0
 10
0.0
 20
0.0
 11
210.0
 21
297.0
 12
0.0
 22
0.0
 32
0.0
 14
0.0
 24
0.0
 34
0.0
 15
0.0
 25
0.0
 35
0.0
146
0.0
 13
0.0
 23
0.0
 33
0.0
 16
1.0
 26
0.0
 36
0.0
 17
0.0
 27
1.0
 37
0.0
 76
0
330
210
345
0
346
0
  0
LAYOUT
  5
2E9
102
{ACAD_REACTORS
330
1A
102
}
100
AcDbPlotSettings
  1

  2
none_device
  4

  6

 40
0.0
 41
0.0
 42
0.0
 43
0.0
 44
210.0
 45
297.0
 46
0.0
 47
0.0
 48
0.0
 49
0.0
140
0.0
141
0.0
142
1.0
143
1.0
 70
0
 72
1
 73
0
 74
0
  7

 75
0
147
1.0
148
0.0
149
0.0
100
AcDbLayout
  1
Layout1
 70
0
 71
1
 10
0.0
 20
0.0
 11
210.0
 21
297.0
 12
0.0
 22
0.0
 32
0.0
 14
0.0
 24
0.0
 34
0.0
 15
0.0
 25
0.0
 35
0.0
146
0.0
 13
0.0
 23
0.0
 33
0.0
 16
1.0
 26
0.0
 36
0.0
 17
0.0
 27
1.0
 37
0.0
 76
0
330
211
345
0
346
0
  0
ENDSEC
  0
EOF
