999
DXF file: C:\Users\sesa63760\Dev\_Creo\CAD\MCADPD0005433_3D-CAD\drw0001_1.dxf
999
Pro/ENGINEER 2019471 by Parametric Technology Corporation
  0
SECTION
  2
HEADER
  9
$ACADVER
  1
AC1024
  9
$DWGCODEPAGE
  3
ANSI_1252
  9
$EXTMAX
 10
225.3319648269
 20
318.6837788266
 30
0.0
  9
$EXTMIN
 10
0.0
 20
0.0
 30
0.0
  9
$LIMMIN
 10
0.0
 20
0.0
  9
$LIMMAX
 10
225.3319648269
 20
318.6837788266
  9
$VIEWCTR
 10
112.6659824134
 20
159.3418894133
  9
$VIEWSIZE
 40
318.6837788266
  9
$CLAYER
  8
0
  9
$LTSCALE
 40
20.7734611383
  9
$CELTYPE
  6
BYLAYER
  9
$DIMSCALE
 40
1.0
  9
$DIMASZ
 40
2.6825233908
  9
$DIMEXO
 40
1.0
  9
$DIMDLI
 40
14.3525731501
  9
$DIMEXE
 40
1.0
  9
$DIMCEN
 40
3.3992936408
  9
$DIMLFAC
 40
1.0
  9
$DIMBLK
  1
_FILLED
  9
$DIMALT
 70
0
  9
$DIMALTF
 40
0.0393700787
  9
$DIMTXT
 40
3.7555327471
  9
$DIMTOL
 70
1
  9
$DIMLIM
 70
0
  9
$DIMTFAC
 40
1.0
  9
$DIMTP
 40
0.01
  9
$DIMTM
 40
0.01
  9
$DIMGAP
 40
0.625
  9
$DIMDSEP
 70
46
  9
$AUNITS
 70
0
  9
$PDMODE
 70
3
  9
$PDSIZE
 40
0.3125
  9
$HANDSEED
  5
307
  9
$TILEMODE
 70
1
  9
$MEASUREMENT
 70
1
  9
$INSUNITS
 70
4
  0
ENDSEC
  0
SECTION
  2
CLASSES
  0
CLASS
  1
ACDBDICTIONARYWDFLT
  2
AcDbDictionaryWithDefault
  3
AutoCAD 2000
 90
0
 91
1
280
0
281
0
  0
CLASS
  1
ACDBPLACEHOLDER
  2
AcDbPlaceHolder
  3
AutoCAD 2000
 90
0
 91
1
280
0
281
0
  0
CLASS
  1
LAYOUT
  2
AcDbLayout
  3
AutoCAD 2000
 90
0
 91
0
280
0
281
0
  0
ENDSEC
  0
SECTION
  2
TABLES
  0
TABLE
  2
VPORT
  5
8
100
AcDbSymbolTable
 70
2
  0
VPORT
  5
1F4
100
AcDbSymbolTableRecord
100
AcDbViewportTableRecord
  2
*ACTIVE
 70
0
 10
0.0
 20
0.0
 11
1.0
 21
1.0
 12
112.6659824134
 22
159.3418894133
 13
0.0
 23
0.0
 14
1.0
 24
1.0
 15
0.0
 25
0.0
 16
0.0
 26
0.0
 36
1.0
 17
0.0
 27
0.0
 37
0.0
 40
318.6837788266
 41
0.7070707071
 42
50.0
 43
0.0
 44
0.0
 50
0.0
 51
0.0
 71
0
 72
100
 73
1
 74
1
 75
0
 76
0
 77
0
 78
0
  0
ENDTAB
  0
TABLE
  2
LTYPE
  5
5
100
AcDbSymbolTable
 70
6
  0
LTYPE
  5
14
100
AcDbSymbolTableRecord
100
AcDbLinetypeTableRecord
  2
BYBLOCK
 70
0
  3

 72
65
 73
0
 40
0.0
  0
LTYPE
  5
15
100
AcDbSymbolTableRecord
100
AcDbLinetypeTableRecord
  2
BYLAYER
 70
0
  3

 72
65
 73
0
 40
0.0
  0
LTYPE
  5
16
100
AcDbSymbolTableRecord
100
AcDbLinetypeTableRecord
  2
CONTINUOUS
 70
64
  3
Solid line
 72
65
 73
0
 40
0.0
  0
LTYPE
  5
1F5
100
AcDbSymbolTableRecord
100
AcDbLinetypeTableRecord
  2
CENTER
 70
64
  3
____ _ ____ _ ____ _ ____ _ ____ _ ____ _ ____
 72
65
 73
4
 40
0.6
 49
0.375
 74
0
 49
-0.075
 74
0
 49
0.075
 74
0
 49
-0.075
 74
0
  0
LTYPE
  5
1F6
100
AcDbSymbolTableRecord
100
AcDbLinetypeTableRecord
  2
HIDDEN
 70
64
  3
- - - - - - - - - - - - - - - - - - - -
 72
65
 73
2
 40
0.2
 49
0.1
 74
0
 49
-0.1
 74
0
  0
LTYPE
  5
1F7
100
AcDbSymbolTableRecord
100
AcDbLinetypeTableRecord
  2
PHANTOM
 70
64
  3
_____ _ _ _____ _ _ _____ _ _ _____
 72
65
 73
6
 40
0.8
 49
0.45
 74
0
 49
-0.05
 74
0
 49
0.1
 74
0
 49
-0.05
 74
0
 49
0.1
 74
0
 49
-0.05
 74
0
  0
LTYPE
  5
1F8
100
AcDbSymbolTableRecord
100
AcDbLinetypeTableRecord
  2
DOT
 70
64
  3
. . . . . . . . . . . . . . . . . . . .
 72
65
 73
2
 40
0.2
 49
0.1
 74
0
 49
-0.1
 74
0
  0
LTYPE
  5
1F9
100
AcDbSymbolTableRecord
100
AcDbLinetypeTableRecord
  2
DASHED
 70
64
  3
- - - - - - - - - - - - - - - - - - - -
 72
65
 73
2
 40
0.2
 49
0.1
 74
0
 49
-0.1
 74
0
  0
ENDTAB
  0
TABLE
  2
LAYER
  5
2
100
AcDbSymbolTable
 70
36
  0
LAYER
  5
10
100
AcDbSymbolTableRecord
100
AcDbLayerTableRecord
  2
0
 70
0
 62
7
  6
CONTINUOUS
370
-3
390
F
  0
LAYER
  5
1FA
100
AcDbSymbolTableRecord
100
AcDbLayerTableRecord
  2
DEFAULT_1
 70
0
 62
7
  6
CENTER
370
-3
390
F
  0
LAYER
  5
1FB
100
AcDbSymbolTableRecord
100
AcDbLayerTableRecord
  2
DEFAULT_2
 70
0
 62
7
  6
HIDDEN
370
-3
390
F
  0
LAYER
  5
1FC
100
AcDbSymbolTableRecord
100
AcDbLayerTableRecord
  2
DEFAULT_3
 70
0
 62
7
  6
PHANTOM
370
-3
390
F
  0
LAYER
  5
1FD
100
AcDbSymbolTableRecord
100
AcDbLayerTableRecord
  2
00_COMPONENTS
 70
0
 62
7
  6
CONTINUOUS
370
-3
390
F
  0
LAYER
  5
1FE
100
AcDbSymbolTableRecord
100
AcDbLayerTableRecord
  2
01_1_DEFAULT_DATUMS
 70
0
 62
7
  6
CONTINUOUS
370
-3
390
F
  0
LAYER
  5
1FF
100
AcDbSymbolTableRecord
100
AcDbLayerTableRecord
  2
01_PLANES
 70
0
 62
7
  6
CONTINUOUS
370
-3
390
F
  0
LAYER
  5
200
100
AcDbSymbolTableRecord
100
AcDbLayerTableRecord
  2
02_COORD_SYS
 70
0
 62
7
  6
CONTINUOUS
370
-3
390
F
  0
LAYER
  5
201
100
AcDbSymbolTableRecord
100
AcDbLayerTableRecord
  2
03_AXES
 70
0
 62
7
  6
CONTINUOUS
370
-3
390
F
  0
LAYER
  5
202
100
AcDbSymbolTableRecord
100
AcDbLayerTableRecord
  2
04_POINTS
 70
0
 62
7
  6
CONTINUOUS
370
-3
390
F
  0
LAYER
  5
203
100
AcDbSymbolTableRecord
100
AcDbLayerTableRecord
  2
05_CURVES
 70
0
 62
7
  6
CONTINUOUS
370
-3
390
F
  0
LAYER
  5
204
100
AcDbSymbolTableRecord
100
AcDbLayerTableRecord
  2
06_SURFS
 70
0
 62
7
  6
CONTINUOUS
370
-3
390
F
  0
LAYER
  5
205
100
AcDbSymbolTableRecord
100
AcDbLayerTableRecord
  2
07_COSMETICS
 70
0
 62
7
  6
CONTINUOUS
370
-3
390
F
  0
LAYER
  5
206
100
AcDbSymbolTableRecord
100
AcDbLayerTableRecord
  2
10_NOTES
 70
0
 62
7
  6
CONTINUOUS
370
-3
390
F
  0
LAYER
  5
207
100
AcDbSymbolTableRecord
100
AcDbLayerTableRecord
  2
11_NOTES_PUB
 70
0
 62
7
  6
CONTINUOUS
370
-3
390
F
  0
LAYER
  5
208
100
AcDbSymbolTableRecord
100
AcDbLayerTableRecord
  2
13_REF_GTOL
 70
0
 62
7
  6
CONTINUOUS
370
-3
390
F
  0
LAYER
  5
209
100
AcDbSymbolTableRecord
100
AcDbLayerTableRecord
  2
16_MISC
 70
0
 62
7
  6
CONTINUOUS
370
-3
390
F
  0
LAYER
  5
20A
100
AcDbSymbolTableRecord
100
AcDbLayerTableRecord
  2
17_NO_PRINT
 70
0
 62
7
  6
CONTINUOUS
370
-3
390
F
  0
LAYER
  5
20B
100
AcDbSymbolTableRecord
100
AcDbLayerTableRecord
  2
18_DATUM_CAMS_JOINTS
 70
0
 62
7
  6
CONTINUOUS
370
-3
390
F
  0
LAYER
  5
20C
100
AcDbSymbolTableRecord
100
AcDbLayerTableRecord
  2
19_DATUM_FUNCTIONAL
 70
0
 62
7
  6
CONTINUOUS
370
-3
390
F
  0
LAYER
  5
20D
100
AcDbSymbolTableRecord
100
AcDbLayerTableRecord
  2
20_DATUM_KINEMATIC_SCHEME
 70
0
 62
7
  6
CONTINUOUS
370
-3
390
F
  0
ENDTAB
  0
TABLE
  2
STYLE
  5
3
100
AcDbSymbolTable
 70
1
  0
STYLE
  5
11
100
AcDbSymbolTableRecord
100
AcDbTextStyleTableRecord
  2
STANDARD
 70
0
 40
0.0
 41
1.0
 50
0.0
 71
0
 42
0.2
  3
ARIAL.TTF
  4

  0
STYLE
  5
20E
100
AcDbSymbolTableRecord
100
AcDbTextStyleTableRecord
  2
TEXTSTYLE_1
 70
0
 40
0.0
 41
0.8
 50
0.0
 71
0
 42
0.2
  3
gdt
  4

  0
ENDTAB
  0
TABLE
  2
VIEW
  5
6
100
AcDbSymbolTable
 70
0
  0
ENDTAB
  0
TABLE
  2
UCS
  5
7
100
AcDbSymbolTable
 70
0
  0
ENDTAB
  0
TABLE
  2
APPID
  5
9
100
AcDbSymbolTable
 70
1
  0
APPID
  5
20F
100
AcDbSymbolTableRecord
100
AcDbRegAppTableRecord
  2
ACAD
 70
0
  0
ENDTAB
  0
TABLE
  2
BLOCK_RECORD
  5
1
100
AcDbSymbolTable
 70
0
  0
BLOCK_RECORD
  5
210
100
AcDbSymbolTableRecord
100
AcDbBlockTableRecord
  2
*Model_Space
  0
BLOCK_RECORD
  5
211
100
AcDbSymbolTableRecord
100
AcDbBlockTableRecord
  2
*Paper_Space
  0
BLOCK_RECORD
  5
212
100
AcDbSymbolTableRecord
100
AcDbBlockTableRecord
  2
_FILLED
  0
ENDTAB
  0
TABLE
  2
DIMSTYLE
  5
A
100
AcDbSymbolTable
 70
1
100
AcDbDimStyleTable
 71
0
  0
DIMSTYLE
105
213
100
AcDbSymbolTableRecord
100
AcDbDimStyleTableRecord
  2
STANDARD
 70
0
  3

  4

 40
1.0
 41
2.6825233908
 42
1.0
 43
0.38
 44
1.0
 45
0.0
 46
0.0
 47
0.01
 48
0.01
140
3.7555327471
141
0.09
142
0.0
143
25.4
144
1.0
145
0.0
146
1.0
147
0.625
 71
1
 72
0
 73
0
 74
0
 75
0
 76
0
 77
1
 78
8
 79
2
170
0
171
1
172
0
173
0
174
0
175
0
176
0
177
0
178
0
270
2
179
2
271
2
272
2
273
2
274
2
275
0
280
0
281
0
282
0
283
1
284
8
285
0
286
0
287
3
288
0
340
11
278
46
341
212
342
212
343
212
344
212
  0
ENDTAB
  0
ENDSEC
  0
SECTION
  2
BLOCKS
  0
BLOCK
  5
20
100
AcDbEntity
  8
0
100
AcDbBlockBegin
  2
*Model_Space
 70
0
 10
0.0
 20
0.0
 30
0.0
  3
*Model_Space
  1

  0
ENDBLK
  5
21
100
AcDbEntity
  8
0
100
AcDbBlockEnd
  0
BLOCK
  5
1C
100
AcDbEntity
  8
0
100
AcDbBlockBegin
  2
*Paper_Space
 70
0
 10
0.0
 20
0.0
 30
0.0
  3
*Paper_Space
  1

  0
ENDBLK
  5
1D
100
AcDbEntity
  8
0
100
AcDbBlockEnd
  0
BLOCK
  5
214
100
AcDbEntity
  8
0
100
AcDbBlockBegin
  2
_FILLED
 70
64
 10
0.0
 20
0.0
  3
_FILLED
  1

  0
SOLID
  5
215
100
AcDbEntity
  8
0
  6
BYBLOCK
 62
0
100
AcDbTrace
 10
0.0
 20
0.0
 11
-1.0
 21
0.25
 12
-1.0
 22
-0.25
 13
-1.0
 23
-0.25
  0
ENDBLK
  5
216
100
AcDbEntity
  8
0
  6
BYBLOCK
 62
0
100
AcDbBlockEnd
  0
ENDSEC
  0
SECTION
  2
ENTITIES
  0
LINE
  5
217
100
AcDbEntity
  8
0
100
AcDbLine
 62
7
  6
BYLAYER
 10
28.7431473781
 20
116.1955214542
 11
31.889785655
 21
110.7454143404
  0
LINE
  5
218
100
AcDbEntity
  8
0
100
AcDbLine
 62
7
  6
BYLAYER
 10
29.9931828968
 20
116.8185266542
 11
32.9504443548
 21
111.6959957004
  0
LINE
  5
219
100
AcDbEntity
  8
0
100
AcDbLine
 62
7
  6
BYLAYER
 10
26.1411712788
 20
111.8678426007
 11
26.14110156
 21
111.8684499894
  0
LINE
  5
21A
100
AcDbEntity
  8
0
100
AcDbLine
 62
7
  6
BYLAYER
 10
28.7431473781
 20
110.4916099423
 11
28.7431473781
 21
121.106141365
  0
LINE
  5
21B
100
AcDbEntity
  8
0
100
AcDbLine
 62
7
  6
BYLAYER
 10
28.7431473781
 20
110.4916099423
 11
26.3741034498
 21
111.8593471497
  0
LINE
  5
21C
100
AcDbEntity
  8
0
100
AcDbLine
 62
7
  6
BYLAYER
 10
34.364669693
 20
108.1034234819
 11
31.889785655
 21
109.5322661227
  0
LINE
  5
21D
100
AcDbEntity
  8
0
100
AcDbLine
 62
7
  6
BYLAYER
 10
41.0996992184
 20
104.9907176357
 11
37.935573805
 21
106.8174849678
  0
LINE
  5
21E
100
AcDbEntity
  8
0
100
AcDbLine
 62
7
  6
BYLAYER
 10
34.364666749
 20
108.9199171446
 11
32.5968924362
 21
109.9405190309
  0
LINE
  5
21F
100
AcDbEntity
  8
0
100
AcDbLine
 62
7
  6
BYLAYER
 10
34.364669693
 20
109.2465268659
 11
37.935573805
 21
107.1849110555
  0
LINE
  5
220
100
AcDbEntity
  8
0
100
AcDbLine
 62
7
  6
BYLAYER
 10
37.981377665
 20
109.4098644622
 11
38.1005879602
 21
108.7226787038
  0
LINE
  5
221
100
AcDbEntity
  8
0
100
AcDbLine
 62
7
  6
BYLAYER
 10
31.889785655
 20
109.5322661227
 11
31.889785655
 21
110.7454143404
  0
LINE
  5
222
100
AcDbEntity
  8
0
100
AcDbLine
 62
7
  6
BYLAYER
 10
32.5968924362
 20
109.9405190309
 11
32.5968924362
 21
110.9145192275
  0
LINE
  5
223
100
AcDbEntity
  8
0
100
AcDbLine
 62
7
  6
BYLAYER
 10
34.364666749
 20
110.0630205286
 11
34.364669693
 21
108.1034234819
  0
LINE
  5
224
100
AcDbEntity
  8
0
100
AcDbLine
 62
7
  6
BYLAYER
 10
37.935573805
 20
106.8174849678
 11
37.935573805
 21
107.1849110555
  0
LINE
  5
225
100
AcDbEntity
  8
0
100
AcDbLine
 62
7
  6
BYLAYER
 10
37.935573805
 20
113.7985806343
 11
37.935573805
 21
114.166006722
  0
LINE
  5
226
100
AcDbEntity
  8
0
100
AcDbLine
 62
7
  6
BYLAYER
 10
28.7431385462
 20
112.9410909306
 11
26.8584333845
 21
114.0292013467
  0
LINE
  5
227
100
AcDbEntity
  8
0
100
AcDbLine
 62
7
  6
BYLAYER
 10
34.7182186677
 20
110.6753938141
 11
38.1006065446
 21
108.7226679756
  0
LINE
  5
228
100
AcDbEntity
  8
0
100
AcDbLine
 62
7
  6
BYLAYER
 10
42.5163916792
 20
106.6222842549
 11
40.0568941485
 21
108.0422436925
  0
LINE
  5
229
100
AcDbEntity
  8
0
100
AcDbLine
 62
7
  6
BYLAYER
 10
28.7431473781
 20
114.9822896043
 11
28.6261929775
 21
115.0498117314
  0
LINE
  5
22A
100
AcDbEntity
  8
0
100
AcDbLine
 62
7
  6
BYLAYER
 10
44.2841512723
 20
107.6428946396
 11
41.8246537416
 21
109.0628540772
  0
LINE
  5
22B
100
AcDbEntity
  8
0
100
AcDbLine
 62
7
  6
BYLAYER
 10
38.4996627698
 20
113.4729027466
 11
28.7431473781
 21
119.105710443
  0
LINE
  5
22C
100
AcDbEntity
  8
0
100
AcDbLine
 62
7
  6
BYLAYER
 10
37.935573805
 20
114.166006722
 11
42.5455015093
 21
111.5044926085
  0
LINE
  5
22D
100
AcDbEntity
  8
0
100
AcDbLine
 62
7
  6
BYLAYER
 10
37.9813266274
 20
113.7721651511
 11
37.9813266274
 21
109.4098644719
  0
LINE
  5
22E
100
AcDbEntity
  8
0
100
AcDbLine
 62
7
  6
BYLAYER
 10
38.4996627698
 20
113.4729027466
 11
38.4996627698
 21
107.510591655
  0
LINE
  5
22F
100
AcDbEntity
  8
0
100
AcDbLine
 62
7
  6
BYLAYER
 10
40.0568941485
 20
108.0422436925
 11
40.0568941485
 21
112.9412581953
  0
LINE
  5
230
100
AcDbEntity
  8
0
100
AcDbLine
 62
7
  6
BYLAYER
 10
41.8246537416
 20
109.0628540772
 11
41.8246537416
 21
111.9206808484
  0
LWPOLYLINE
  5
231
100
AcDbEntity
  8
0
100
AcDbPolyline
 62
7
  6
BYLAYER
 90
4
 70
0
 10
26.5600092893
 20
113.9926019556
 10
26.4012078843
 20
113.3042405097
 10
26.2406247739
 20
112.484167195
 10
26.1410951041
 20
111.8684648474
  0
LINE
  5
232
100
AcDbEntity
  8
0
100
AcDbLine
 62
7
  6
BYLAYER
 10
26.3741034503
 20
122.4738785721
 11
28.7431473781
 21
121.106141365
  0
LINE
  5
233
100
AcDbEntity
  8
0
100
AcDbLine
 62
7
  6
BYLAYER
 10
52.9968943683
 20
117.9626188817
 11
52.9969156352
 21
117.9540141406
  0
LINE
  5
234
100
AcDbEntity
  8
0
100
AcDbLine
 62
7
  6
BYLAYER
 10
60.0679327404
 20
122.0450604204
 11
60.0679540073
 21
122.0364556793
  0
LINE
  5
235
100
AcDbEntity
  8
0
100
AcDbLine
 62
7
  6
BYLAYER
 10
32.5968924362
 20
110.9145192275
 11
32.9504443548
 21
111.6959957004
  0
LINE
  5
236
100
AcDbEntity
  8
0
100
AcDbLine
 62
7
  6
BYLAYER
 10
67.1389711126
 20
126.1275019591
 11
67.1389923795
 21
126.118897218
  0
LINE
  5
237
100
AcDbEntity
  8
0
100
AcDbLine
 62
7
  6
BYLAYER
 10
34.7182186677
 20
110.6753938141
 11
34.364666749
 21
110.0630205286
  0
LINE
  5
238
100
AcDbEntity
  8
0
100
AcDbLine
 62
7
  6
BYLAYER
 10
26.5599866718
 20
113.9925858774
 11
26.6042857377
 21
114.0515682094
  0
LINE
  5
239
100
AcDbEntity
  8
0
100
AcDbLine
 62
7
  6
BYLAYER
 10
26.6042857377
 20
114.0515682094
 11
26.8040951972
 21
114.0521387666
  0
LINE
  5
23A
100
AcDbEntity
  8
0
100
AcDbLine
 62
7
  6
BYLAYER
 10
74.2100094847
 20
130.2099434978
 11
74.2100307516
 21
130.2013387567
  0
LINE
  5
23B
100
AcDbEntity
  8
0
100
AcDbLine
 62
7
  6
BYLAYER
 10
54.6939406352
 20
119.3506474264
 11
55.401047417
 21
119.350649291
  0
LINE
  5
23C
100
AcDbEntity
  8
0
100
AcDbLine
 62
7
  6
BYLAYER
 10
61.7649790073
 20
123.4330889651
 11
62.4720857891
 21
123.4330908297
  0
LINE
  5
23D
100
AcDbEntity
  8
0
100
AcDbLine
 62
7
  6
BYLAYER
 10
81.3632088168
 20
137.2659948439
 11
80.7962339489
 21
137.5933305311
  0
LINE
  5
23E
100
AcDbEntity
  8
0
100
AcDbLine
 62
7
  6
BYLAYER
 10
71.4420515371
 20
142.9938480887
 11
70.8750766691
 21
143.3211837759
  0
LINE
  5
23F
100
AcDbEntity
  8
0
100
AcDbLine
 62
7
  6
BYLAYER
 10
31.889785655
 20
110.7454143404
 11
32.5968924362
 21
110.9145192275
  0
LINE
  5
240
100
AcDbEntity
  8
0
100
AcDbLine
 62
7
  6
BYLAYER
 10
68.8360173795
 20
127.5155305038
 11
69.5431241612
 21
127.5155323684
  0
LINE
  5
241
100
AcDbEntity
  8
0
100
AcDbLine
 62
7
  6
BYLAYER
 10
75.9070557516
 20
131.5979720426
 11
76.6141625334
 21
131.5979739071
  0
LINE
  5
242
100
AcDbEntity
  8
0
100
AcDbLine
 62
7
  6
BYLAYER
 10
78.2404719184
 20
141.1101230892
 11
73.9978135675
 21
143.5595676163
  0
LINE
  5
243
100
AcDbEntity
  8
0
100
AcDbLine
 62
7
  6
BYLAYER
 10
171.4119739484
 20
214.800372889
 11
172.1190777857
 21
215.2086170429
  0
LINE
  5
244
100
AcDbEntity
  8
0
100
AcDbLine
 62
7
  6
BYLAYER
 10
173.9575477624
 20
216.2700518429
 11
174.6646515996
 21
216.6782959968
  0
LINE
  5
245
100
AcDbEntity
  8
0
100
AcDbLine
 62
7
  6
BYLAYER
 10
27.4429404907
 20
124.174766528
 11
29.9178039209
 21
125.6036210666
  0
LINE
  5
246
100
AcDbEntity
  8
0
100
AcDbLine
 62
7
  6
BYLAYER
 10
70.8750766691
 20
143.3211837759
 11
37.526758438
 21
124.0676381964
  0
LINE
  5
247
100
AcDbEntity
  8
0
100
AcDbLine
 62
7
  6
BYLAYER
 10
37.9743407619
 20
123.6713716031
 11
71.4420515371
 21
142.9938480887
  0
LINE
  5
248
100
AcDbEntity
  8
0
100
AcDbLine
 62
7
  6
BYLAYER
 10
38.1970730533
 20
123.4554379046
 11
72.8691572928
 21
143.4732555834
  0
LINE
  5
249
100
AcDbEntity
  8
0
100
AcDbLine
 62
7
  6
BYLAYER
 10
73.3614016049
 20
143.6820297566
 11
38.2458320296
 21
123.4081672282
  0
LINE
  5
24A
100
AcDbEntity
  8
0
100
AcDbLine
 62
7
  6
BYLAYER
 10
73.9978135675
 20
143.5595676163
 11
38.6188665427
 21
123.1336449542
  0
LINE
  5
24B
100
AcDbEntity
  8
0
100
AcDbLine
 62
7
  6
BYLAYER
 10
179.9361782412
 20
203.3999675714
 11
179.1441571052
 21
202.8626832647
  0
LINE
  5
24C
100
AcDbEntity
  8
0
100
AcDbLine
 62
7
  6
BYLAYER
 10
178.4370473801
 20
203.061130532
 11
179.480052248
 21
203.6633060788
  0
LINE
  5
24D
100
AcDbEntity
  8
0
100
AcDbLine
 62
7
  6
BYLAYER
 10
75.7656184285
 20
142.5389480934
 11
179.1441571052
 21
202.2242189538
  0
LINE
  5
24E
100
AcDbEntity
  8
0
100
AcDbLine
 62
7
  6
BYLAYER
 10
191.2442573446
 20
209.2101733837
 11
198.4480889172
 21
213.3692826548
  0
LINE
  5
24F
100
AcDbEntity
  8
0
100
AcDbLine
 62
7
  6
BYLAYER
 10
28.3761940967
 20
115.0745738709
 11
26.6042931962
 21
114.0515725155
  0
LINE
  5
250
100
AcDbEntity
  8
0
100
AcDbLine
 62
7
  6
BYLAYER
 10
28.6261929775
 20
115.0498117314
 11
26.8584333845
 21
114.0292013467
  0
LINE
  5
251
100
AcDbEntity
  8
0
100
AcDbLine
 62
7
  6
BYLAYER
 10
191.868220649
 20
208.4764990174
 11
192.0063355288
 21
208.5562392044
  0
LINE
  5
252
100
AcDbEntity
  8
0
100
AcDbLine
 62
7
  6
BYLAYER
 10
41.9581272275
 20
120.1626266547
 11
78.2404719184
 21
141.1101230892
  0
LINE
  5
253
100
AcDbEntity
  8
0
100
AcDbLine
 62
7
  6
BYLAYER
 10
193.7246726814
 20
207.3762800668
 11
201.2765278178
 21
211.7363196368
  0
LINE
  5
254
100
AcDbEntity
  8
0
100
AcDbLine
 62
7
  6
BYLAYER
 10
78.8768706711
 20
140.497755685
 11
42.4450702097
 21
119.4639714363
  0
LINE
  5
255
100
AcDbEntity
  8
0
100
AcDbLine
 62
7
  6
BYLAYER
 10
194.3469425967
 20
206.2984861871
 11
194.4176529804
 21
206.3393106025
  0
LINE
  5
256
100
AcDbEntity
  8
0
100
AcDbLine
 62
7
  6
BYLAYER
 10
79.3651162017
 20
139.7181768502
 11
183.7580543241
 21
199.9891080077
  0
LINE
  5
257
100
AcDbEntity
  8
0
100
AcDbLine
 62
7
  6
BYLAYER
 10
37.2639063227
 20
114.1863592633
 11
32.9504443548
 21
111.6959957004
  0
LINE
  5
258
100
AcDbEntity
  8
0
100
AcDbLine
 62
7
  6
BYLAYER
 10
183.3006597313
 20
194.534633067
 11
183.7580480618
 21
194.7524974078
  0
LINE
  5
259
100
AcDbEntity
  8
0
100
AcDbLine
 62
7
  6
BYLAYER
 10
183.7580480618
 20
194.3426867459
 11
182.6797057309
 21
193.8290480598
  0
LINE
  5
25A
100
AcDbEntity
  8
0
100
AcDbLine
 62
7
  6
BYLAYER
 10
182.6797057309
 20
200.8214794921
 11
183.3868154561
 21
201.3011623454
  0
LINE
  5
25B
100
AcDbEntity
  8
0
100
AcDbLine
 62
7
  6
BYLAYER
 10
183.3868154561
 20
200.8913516836
 11
183.3006597313
 21
200.8329061235
  0
LINE
  5
25C
100
AcDbEntity
  8
0
100
AcDbLine
 62
7
  6
BYLAYER
 10
79.9192793478
 20
138.6354587634
 11
43.4979397325
 21
117.6077140509
  0
LINE
  5
25D
100
AcDbEntity
  8
0
100
AcDbLine
 62
7
  6
BYLAYER
 10
195.4167013566
 20
205.0871859969
 11
202.6907472681
 21
209.2868332935
  0
LINE
  5
25E
100
AcDbEntity
  8
0
100
AcDbLine
 62
7
  6
BYLAYER
 10
37.9813266274
 20
113.0492050043
 11
31.889785655
 21
109.5322661227
  0
LINE
  5
25F
100
AcDbEntity
  8
0
100
AcDbLine
 62
7
  6
BYLAYER
 10
80.7962339489
 20
137.5933305311
 11
44.0196702355
 21
116.3604983142
  0
LINE
  5
260
100
AcDbEntity
  8
0
100
AcDbLine
 62
7
  6
BYLAYER
 10
37.9813266274
 20
112.5593388274
 11
34.7182186677
 21
110.6753938141
  0
LINE
  5
261
100
AcDbEntity
  8
0
100
AcDbLine
 62
7
  6
BYLAYER
 10
44.2402573631
 20
115.8331767656
 11
81.3632088168
 21
137.2659948439
  0
LINE
  5
262
100
AcDbEntity
  8
0
100
AcDbLine
 62
7
  6
BYLAYER
 10
195.0978870301
 20
202.7312142939
 11
196.0793614233
 21
203.2978654166
  0
LINE
  5
263
100
AcDbEntity
  8
0
100
AcDbLine
 62
7
  6
BYLAYER
 10
81.6245847555
 20
136.1236593384
 11
183.7580480618
 21
195.0900898894
  0
LINE
  5
264
100
AcDbEntity
  8
0
100
AcDbLine
 62
7
  6
BYLAYER
 10
196.0793614233
 20
202.2037610126
 11
202.6907472681
 21
206.0208236249
  0
LINE
  5
265
100
AcDbEntity
  8
0
100
AcDbLine
 62
7
  6
BYLAYER
 10
183.3868154561
 20
193.6306007925
 11
183.7580480618
 21
193.844930758
  0
LINE
  5
266
100
AcDbEntity
  8
0
100
AcDbLine
 62
7
  6
BYLAYER
 10
43.0010199623
 20
111.9379281272
 11
44.6223335778
 21
112.873988392
  0
LINE
  5
267
100
AcDbEntity
  8
0
100
AcDbLine
 62
7
  6
BYLAYER
 10
44.534150153
 20
112.5171470029
 11
42.78010625
 21
111.5044553282
  0
LINE
  5
268
100
AcDbEntity
  8
0
100
AcDbLine
 62
7
  6
BYLAYER
 10
81.3632088168
 20
132.3669803411
 11
44.2402573631
 21
110.9341622628
  0
LINE
  5
269
100
AcDbEntity
  8
0
100
AcDbLine
 62
7
  6
BYLAYER
 10
37.935573805
 20
107.1849110555
 11
38.4996627698
 21
107.510591655
  0
LINE
  5
26A
100
AcDbEntity
  8
0
100
AcDbLine
 62
7
  6
BYLAYER
 10
41.8246537416
 20
109.0628540772
 11
37.935573805
 21
106.8174849678
  0
LINE
  5
26B
100
AcDbEntity
  8
0
100
AcDbLine
 62
7
  6
BYLAYER
 10
42.0465125371
 20
108.9347667396
 11
42.9961733817
 21
109.4830504111
  0
LINE
  5
26C
100
AcDbEntity
  8
0
100
AcDbLine
 62
7
  6
BYLAYER
 10
42.5163916792
 20
106.6222842549
 11
44.2841512723
 21
107.6428946396
  0
LINE
  5
26D
100
AcDbEntity
  8
0
100
AcDbLine
 62
7
  6
BYLAYER
 10
44.6223335778
 20
106.9203249338
 11
43.0010199622
 21
105.9842646689
  0
LINE
  5
26E
100
AcDbEntity
  8
0
100
AcDbLine
 62
7
  6
BYLAYER
 10
39.9428845297
 20
102.5240991244
 11
42.4177479599
 21
103.952953663
  0
LINE
  5
26F
100
AcDbEntity
  8
0
100
AcDbLine
 62
7
  6
BYLAYER
 10
190.4118888877
 20
181.8913584355
 11
191.1189927249
 21
182.2996025894
  0
LINE
  5
270
100
AcDbEntity
  8
0
100
AcDbLine
 62
7
  6
BYLAYER
 10
192.9574627017
 20
183.3610373895
 11
193.6645665389
 21
183.7692815433
  0
LINE
  5
271
100
AcDbEntity
  8
0
100
AcDbLine
 62
7
  6
BYLAYER
 10
183.3006597313
 20
200.8329061235
 11
182.6797057309
 21
200.0838203007
  0
LINE
  5
272
100
AcDbEntity
  8
0
100
AcDbLine
 62
7
  6
BYLAYER
 10
182.837408269
 20
194.55856143
 11
183.3006597313
 21
194.534633067
  0
LINE
  5
273
100
AcDbEntity
  8
0
100
AcDbLine
 62
7
  6
BYLAYER
 10
178.0658147744
 20
203.2754569282
 11
178.0658147744
 21
201.6016414351
  0
LINE
  5
274
100
AcDbEntity
  8
0
100
AcDbLine
 62
7
  6
BYLAYER
 10
178.4370473801
 20
204.2654715973
 11
178.4370473801
 21
203.061130532
  0
LINE
  5
275
100
AcDbEntity
  8
0
100
AcDbLine
 62
7
  6
BYLAYER
 10
181.2654557326
 20
193.6509996273
 11
183.3868154561
 21
192.4262597272
  0
LINE
  5
276
100
AcDbEntity
  8
0
100
AcDbLine
 62
7
  6
BYLAYER
 10
182.6797057309
 20
193.8290480598
 11
182.1267715137
 21
194.1482775571
  0
LINE
  5
277
100
AcDbEntity
  8
0
100
AcDbLine
 62
7
  6
BYLAYER
 10
183.3868154561
 20
193.6306007925
 11
183.7580480618
 21
193.4162743964
  0
LINE
  5
278
100
AcDbEntity
  8
0
100
AcDbLine
 62
7
  6
BYLAYER
 10
183.5949493831
 20
193.750766254
 11
183.1069047753
 21
194.0325325652
  0
LINE
  5
279
100
AcDbEntity
  8
0
100
AcDbLine
 62
7
  6
BYLAYER
 10
179.1441571052
 20
202.1250240734
 11
179.1441571052
 21
202.8626832647
  0
LINE
  5
27A
100
AcDbEntity
  8
0
100
AcDbLine
 62
7
  6
BYLAYER
 10
182.6797057309
 20
193.8290480598
 11
182.6797057309
 21
194.4675123707
  0
LINE
  5
27B
100
AcDbEntity
  8
0
100
AcDbLine
 62
7
  6
BYLAYER
 10
182.6797057309
 20
200.0838203007
 11
182.6797057309
 21
200.8214794921
  0
LINE
  5
27C
100
AcDbEntity
  8
0
100
AcDbLine
 62
7
  6
BYLAYER
 10
183.3868154561
 20
192.4262597272
 11
183.3868154561
 21
193.6306007925
  0
LINE
  5
27D
100
AcDbEntity
  8
0
100
AcDbLine
 62
7
  6
BYLAYER
 10
183.3868154561
 20
200.2034452504
 11
183.3868154561
 21
201.4077863157
  0
LINE
  5
27E
100
AcDbEntity
  8
0
100
AcDbLine
 62
7
  6
BYLAYER
 10
183.7580480618
 20
193.4162743964
 11
183.7580480618
 21
199.9891188543
  0
LINE
  5
27F
100
AcDbEntity
  8
0
100
AcDbLine
 62
7
  6
BYLAYER
 10
183.3006597313
 20
194.534633067
 11
183.0483092049
 21
194.6803244153
  0
LINE
  5
280
100
AcDbEntity
  8
0
100
AcDbLine
 62
7
  6
BYLAYER
 10
182.6797057309
 20
200.0838203007
 11
179.1441571052
 21
202.1250240734
  0
LINE
  5
281
100
AcDbEntity
  8
0
100
AcDbLine
 62
7
  6
BYLAYER
 10
183.7580480618
 20
199.9891188543
 11
183.3868154561
 21
200.2034452504
  0
LINE
  5
282
100
AcDbEntity
  8
0
100
AcDbLine
 62
7
  6
BYLAYER
 10
178.4370473801
 20
203.061130532
 11
178.0658147744
 21
203.2754569282
  0
LINE
  5
283
100
AcDbEntity
  8
0
100
AcDbLine
 62
7
  6
BYLAYER
 10
182.6797057309
 20
200.8214794921
 11
179.1441571052
 21
202.8626832647
  0
LINE
  5
284
100
AcDbEntity
  8
0
100
AcDbLine
 62
7
  6
BYLAYER
 10
183.3868154561
 20
201.4077863157
 11
178.4370473801
 21
204.2654715973
  0
LINE
  5
285
100
AcDbEntity
  8
0
100
AcDbLine
 62
7
  6
BYLAYER
 10
196.0793614233
 20
200.301085093
 11
196.0793549466
 21
203.9394426827
  0
LINE
  5
286
100
AcDbEntity
  8
0
100
AcDbLine
 62
7
  6
BYLAYER
 10
193.5619704474
 20
207.6580902849
 11
191.6017525786
 21
208.7898199953
  0
LINE
  5
287
100
AcDbEntity
  8
0
100
AcDbLine
 62
7
  6
BYLAYER
 10
202.6907443241
 20
209.5259725602
 11
202.6907472681
 21
206.0208236249
  0
LINE
  5
288
100
AcDbEntity
  8
0
100
AcDbLine
 62
7
  6
BYLAYER
 10
198.4480889172
 20
213.3692826548
 11
201.2765278178
 21
211.7363196368
  0
LINE
  5
289
100
AcDbEntity
  8
0
100
AcDbLine
 62
7
  6
BYLAYER
 10
201.2765278178
 20
211.7363196368
 11
201.4836325173
 21
211.6167399337
  0
LINE
  5
28A
100
AcDbEntity
  8
0
100
AcDbLine
 62
7
  6
BYLAYER
 10
194.4176529804
 20
206.3393106025
 11
195.1247568176
 21
205.5928459644
  0
LINE
  5
28B
100
AcDbEntity
  8
0
100
AcDbLine
 62
7
  6
BYLAYER
 10
194.3469425967
 20
206.2984861871
 11
193.5619704474
 21
207.6580902849
  0
LINE
  5
28C
100
AcDbEntity
  8
0
100
AcDbLine
 62
7
  6
BYLAYER
 10
194.4176529804
 20
206.3393106025
 11
196.0793608345
 21
203.4611641491
  0
LINE
  5
28D
100
AcDbEntity
  8
0
100
AcDbLine
 62
7
  6
BYLAYER
 10
196.0793549466
 20
203.9394426827
 11
195.1247568176
 21
205.5928459644
  0
LINE
  5
28E
100
AcDbEntity
  8
0
100
AcDbLine
 62
7
  6
BYLAYER
 10
202.6907472681
 20
209.2868332935
 11
201.2765278178
 21
211.7363196368
  0
LINE
  5
28F
100
AcDbEntity
  8
0
100
AcDbLine
 62
7
  6
BYLAYER
 10
202.6907443241
 20
209.5259725602
 11
201.4836325173
 21
211.6167399337
  0
ARC
  5
290
100
AcDbEntity
  8
0
100
AcDbCircle
 62
7
  6
BYLAYER
 10
-267.4796721404
 20
-393.8738453865
 40
593.5013220636
100
AcDbArc
 50
58.4572926054
 51
58.5905942515
  0
ARC
  5
291
100
AcDbEntity
  8
0
100
AcDbCircle
 62
7
  6
BYLAYER
 10
162.0254561201
 20
187.4418909909
 40
32.7779252187
100
AcDbArc
 50
24.8710738811
 51
35.1050972401
  0
ARC
  5
292
100
AcDbEntity
  8
0
100
AcDbCircle
 62
7
  6
BYLAYER
 10
162.7139018793
 20
187.7736528668
 40
32.0137987115
100
AcDbArc
 50
23.7674041712
 51
24.8505850077
  0
ARC
  5
293
100
AcDbEntity
  8
0
100
AcDbCircle
 62
7
  6
BYLAYER
 10
162.7507460968
 20
187.9393739977
 40
31.8984765848
100
AcDbArc
 50
35.123253512
 51
36.2228906755
  0
ARC
  5
294
100
AcDbEntity
  8
0
100
AcDbCircle
 62
7
  6
BYLAYER
 10
22.3768499186
 20
123.2416199575
 40
26.1465202554
100
AcDbArc
 50
315.7313053281
 51
320.4773178275
  0
ARC
  5
295
100
AcDbEntity
  8
0
100
AcDbCircle
 62
7
  6
BYLAYER
 10
22.8986160897
 20
122.5654881388
 40
26.0584645217
100
AcDbArc
 50
316.5723564838
 51
320.4828928662
  0
ARC
  5
296
100
AcDbEntity
  8
0
100
AcDbCircle
 62
7
  6
BYLAYER
 10
24.2025680279
 20
107.3237103627
 40
17.7100280921
100
AcDbArc
 50
16.3365027465
 51
16.5475095707
  0
ARC
  5
297
100
AcDbEntity
  8
0
100
AcDbCircle
 62
7
  6
BYLAYER
 10
69.6910167551
 20
134.1331440461
 40
11.1753386293
100
AcDbArc
 50
23.7583131026
 51
34.7169651527
  0
ARC
  5
298
100
AcDbEntity
  8
0
100
AcDbCircle
 62
7
  6
BYLAYER
 10
189.7673241956
 20
188.8831898931
 40
6.3773793451
100
AcDbArc
 50
300.0149562505
 51
307.3207129982
  0
ARC
  5
299
100
AcDbEntity
  8
0
100
AcDbCircle
 62
7
  6
BYLAYER
 10
187.2217509205
 20
187.4135104563
 40
6.3773786333
100
AcDbArc
 50
300.0149542266
 51
307.3207297919
  0
ARC
  5
29A
100
AcDbEntity
  8
0
100
AcDbCircle
 62
7
  6
BYLAYER
 10
189.7784540811
 20
188.8677293006
 40
6.3584249239
100
AcDbArc
 50
291.6572666541
 51
299.9978036316
  0
ARC
  5
29B
100
AcDbEntity
  8
0
100
AcDbCircle
 62
7
  6
BYLAYER
 10
174.5873660118
 20
209.3002958118
 40
6.3508880025
100
AcDbArc
 50
112.7462034344
 51
119.9993833072
  0
ARC
  5
29C
100
AcDbEntity
  8
0
100
AcDbCircle
 62
7
  6
BYLAYER
 10
177.1329395266
 20
210.7699751461
 40
6.3508875477
100
AcDbArc
 50
112.7461369958
 51
119.9993826873
  0
ARC
  5
29D
100
AcDbEntity
  8
0
100
AcDbCircle
 62
7
  6
BYLAYER
 10
42.3973697092
 20
106.4163174716
 40
0.2378834697
100
AcDbArc
 50
51.4672044834
 51
59.9776827276
  0
SPLINE
  5
29E
100
AcDbEntity
  8
0
100
AcDbSpline
 62
7
  6
BYLAYER
 70
0
 71
3
 72
14
 73
10
 74
0
 42
0.0000001
 43
0.0000001
 44
0.0000000001
 40
0.0
 40
0.0
 40
0.0
 40
0.0
 40
0.1109462754
 40
0.2278206875
 40
0.3498421789
 40
0.4760752032
 40
0.6054290584
 40
0.7367241918
 40
1.0
 40
1.0
 40
1.0
 40
1.0
 10
197.5996938471
 20
192.4672144342
 30
0.0
 10
197.5996938471
 20
193.1044581219
 30
0.0
 10
197.5300985555
 20
194.4136465872
 30
0.0
 10
197.238799812
 20
196.4042272171
 30
0.0
 10
196.7618473777
 20
198.4488588068
 30
0.0
 10
196.1061920878
 20
200.5183446515
 30
0.0
 10
195.2809440299
 20
202.5837988844
 30
0.0
 10
193.9696568299
 20
205.2941172506
 30
0.0
 10
192.7727842346
 20
207.2299339764
 30
0.0
 10
191.8891565036
 20
208.4570824322
 30
0.0
  0
SPLINE
  5
29F
100
AcDbEntity
  8
0
100
AcDbSpline
 62
7
  6
BYLAYER
 70
0
 71
3
 72
18
 73
14
 74
0
 42
0.0000001
 43
0.0000001
 44
0.0000000001
 40
0.0
 40
0.0
 40
0.0
 40
0.0
 40
0.1568133773
 40
0.3074144947
 40
0.4491971204
 40
0.5802196004
 40
0.6995072971
 40
0.7548782554
 40
0.8075895483
 40
0.8579611377
 40
0.9064347456
 40
0.9535655821
 40
1.0
 40
1.0
 40
1.0
 40
1.0
 10
191.8891565036
 20
208.4570824322
 30
0.0
 10
191.2577050601
 20
209.334018088
 30
0.0
 10
189.9318029042
 20
210.9920961279
 30
0.0
 10
187.7441347598
 20
213.1909865641
 30
0.0
 10
185.4477277004
 20
215.0041062764
 30
0.0
 10
183.1098374952
 20
216.3771875326
 30
0.0
 10
181.1316242045
 20
217.1385596167
 30
0.0
 10
179.5977233294
 20
217.4712294181
 30
0.0
 10
178.5089730624
 20
217.5828303181
 30
0.0
 10
177.4619580559
 20
217.5614088162
 30
0.0
 10
176.4647073577
 20
217.4064268234
 30
0.0
 10
175.525691
 20
217.1185132832
 30
0.0
 10
174.9417704316
 20
216.8382845785
 30
0.0
 10
174.6646590878
 20
216.6782830447
 30
0.0
  0
SPLINE
  5
2A0
100
AcDbEntity
  8
0
100
AcDbSpline
 62
7
  6
BYLAYER
 70
0
 71
3
 72
15
 73
11
 74
0
 42
0.0000001
 43
0.0000001
 44
0.0000000001
 40
0.0
 40
0.0
 40
0.0
 40
0.0
 40
0.1080125766
 40
0.2180619333
 40
0.3319989562
 40
0.4513571576
 40
0.5772781772
 40
0.7104933885
 40
0.8514107895
 40
1.0
 40
1.0
 40
1.0
 40
1.0
 10
193.6645590507
 20
183.7692944954
 30
0.0
 10
193.9760686875
 20
183.9491572862
 30
0.0
 10
194.5750227712
 20
184.3670553089
 30
0.0
 10
195.3663762605
 20
185.1459229904
 30
0.0
 10
196.0469996249
 20
186.0702904372
 30
0.0
 10
196.6105591989
 20
187.1298221369
 30
0.0
 10
197.052622202
 20
188.3136926186
 30
0.0
 10
197.369887486
 20
189.6104611439
 30
0.0
 10
197.559801035
 20
191.0075900121
 30
0.0
 10
197.5996938471
 20
191.9723782817
 30
0.0
 10
197.5996938471
 20
192.4672144342
 30
0.0
  0
SPLINE
  5
2A1
100
AcDbEntity
  8
0
100
AcDbSpline
 62
7
  6
BYLAYER
 70
0
 71
3
 72
10
 73
6
 74
0
 42
0.0000001
 43
0.0000001
 44
0.0000000001
 40
0.0
 40
0.0
 40
0.0
 40
0.0
 40
0.2334131412
 40
0.4787632661
 40
1.0
 40
1.0
 40
1.0
 40
1.0
 10
183.9694379365
 20
184.0177211422
 30
0.0
 10
183.4739461913
 20
184.2819817259
 30
0.0
 10
182.4840002148
 20
184.8747714032
 30
0.0
 10
180.5334900963
 20
186.2865664492
 30
0.0
 10
179.1735090005
 20
187.5456805099
 30
0.0
 10
178.3113307153
 20
188.4562877342
 30
0.0
  0
SPLINE
  5
2A2
100
AcDbEntity
  8
0
100
AcDbSpline
 62
7
  6
BYLAYER
 70
0
 71
3
 72
17
 73
13
 74
0
 42
0.0000001
 43
0.0000001
 44
0.0000000001
 40
0.0
 40
0.0
 40
0.0
 40
0.0
 40
0.0473918809
 40
0.0957920967
 40
0.145646081
 40
0.1973315292
 40
0.3071893753
 40
0.4269800919
 40
0.5570417404
 40
0.6968134206
 40
0.8450495492
 40
1.0
 40
1.0
 40
1.0
 40
1.0
 10
174.6773765789
 20
216.6269353863
 30
0.0
 10
174.9344448054
 20
216.7348039098
 30
0.0
 10
175.4688484387
 20
216.9191762532
 30
0.0
 10
176.3093700466
 20
217.0953377239
 30
0.0
 10
177.1900146578
 20
217.1727055672
 30
0.0
 10
178.4353896001
 20
217.1431247785
 30
0.0
 10
180.0742608679
 20
216.8432388641
 30
0.0
 10
182.0669794728
 20
216.107272634
 30
0.0
 10
184.0858690557
 20
215.007727107
 30
0.0
 10
186.0877209626
 20
213.5697431035
 30
0.0
 10
188.0295065201
 20
211.8255164007
 30
0.0
 10
189.2349403369
 20
210.5068217352
 30
0.0
 10
189.8190082465
 20
209.8070443738
 30
0.0
  0
SPLINE
  5
2A3
100
AcDbEntity
  8
0
100
AcDbSpline
 62
7
  6
BYLAYER
 70
0
 71
3
 72
15
 73
11
 74
0
 42
0.0000001
 43
0.0000001
 44
0.0000000001
 40
0.0
 40
0.0
 40
0.0
 40
0.0
 40
0.1292315247
 40
0.2603031461
 40
0.3916431259
 40
0.5216698318
 40
0.6488499153
 40
0.7717588677
 40
0.889145342
 40
1.0
 40
1.0
 40
1.0
 40
1.0
 10
189.8190082465
 20
209.8070443738
 30
0.0
 10
190.3560869548
 20
209.1635652249
 30
0.0
 10
191.3845689303
 20
207.8220196142
 30
0.0
 10
192.7681211103
 20
205.688896837
 30
0.0
 10
193.9851574346
 20
203.4505182006
 30
0.0
 10
195.0137491524
 20
201.147103222
 30
0.0
 10
195.835537532
 20
198.8198095878
 30
0.0
 10
196.4358367071
 20
196.5100097493
 30
0.0
 10
196.8038627638
 20
194.2591373748
 30
0.0
 10
196.8925900098
 20
192.7779464588
 30
0.0
 10
196.8925900098
 20
192.0589702803
 30
0.0
  0
SPLINE
  5
2A4
100
AcDbEntity
  8
0
100
AcDbSpline
 62
7
  6
BYLAYER
 70
0
 71
3
 72
14
 73
10
 74
0
 42
0.0000001
 43
0.0000001
 44
0.0000000001
 40
0.0
 40
0.0
 40
0.0
 40
0.0
 40
0.2866736511
 40
0.4198065413
 40
0.5462919779
 40
0.6666276453
 40
0.7815913069
 40
0.8922648441
 40
1.0
 40
1.0
 40
1.0
 40
1.0
 10
196.8925900098
 20
192.0589702803
 30
0.0
 10
196.8925900098
 20
191.1820126633
 30
0.0
 10
196.7989819681
 20
189.8928656205
 30
0.0
 10
196.4425008495
 20
188.2579379896
 30
0.0
 10
196.0785631078
 20
187.1515836626
 30
0.0
 10
195.6141362174
 20
186.144132625
 30
0.0
 10
195.0521195684
 20
185.2436475785
 30
0.0
 10
194.3966907983
 20
184.4580933624
 30
0.0
 10
193.895890558
 20
184.0113324074
 30
0.0
 10
193.6337758036
 20
183.8115511762
 30
0.0
  0
SPLINE
  5
2A5
100
AcDbEntity
  8
0
100
AcDbSpline
 62
7
  6
BYLAYER
 70
0
 71
3
 72
15
 73
11
 74
0
 42
0.0000001
 43
0.0000001
 44
0.0000000001
 40
0.0
 40
0.0
 40
0.0
 40
0.0
 40
0.1485891698
 40
0.289506092
 40
0.4227210621
 40
0.5486419756
 40
0.668000128
 40
0.7819373107
 40
0.8919870015
 40
1.0
 40
1.0
 40
1.0
 40
1.0
 10
167.4768466403
 20
206.1024399981
 30
0.0
 10
167.4768466403
 20
206.5972760281
 30
0.0
 10
167.5167389469
 20
207.5620626088
 30
0.0
 10
167.7066522293
 20
208.9591890136
 30
0.0
 10
168.0239166293
 20
210.2559548822
 30
0.0
 10
168.4659770782
 20
211.4398249155
 30
0.0
 10
169.0295358362
 20
212.4993571854
 30
0.0
 10
169.710159746
 20
213.4237260566
 30
0.0
 10
170.5015143176
 20
214.2025970491
 30
0.0
 10
171.1004704148
 20
214.6204967219
 30
0.0
 10
171.4119812093
 20
214.8003603366
 30
0.0
  0
SPLINE
  5
2A6
100
AcDbEntity
  8
0
100
AcDbSpline
 62
7
  6
BYLAYER
 70
0
 71
3
 72
18
 73
14
 74
0
 42
0.0000001
 43
0.0000001
 44
0.0000000001
 40
0.0
 40
0.0
 40
0.0
 40
0.0
 40
0.1273609013
 40
0.2673417524
 40
0.413107729
 40
0.5568012251
 40
0.690914128
 40
0.7525785323
 40
0.8099571201
 40
0.8629180124
 40
0.9117022429
 40
0.9570038656
 40
1.0
 40
1.0
 40
1.0
 40
1.0
 10
184.4474800438
 20
185.690130467
 30
0.0
 10
184.4474800438
 20
186.105688463
 30
0.0
 10
184.3343642458
 20
186.9789840659
 30
0.0
 10
183.9100819434
 20
188.2647852971
 30
0.0
 10
183.2536838657
 20
189.5101157929
 30
0.0
 10
182.416379815
 20
190.6171047542
 30
0.0
 10
181.5981941714
 20
191.3755067653
 30
0.0
 10
180.9068757504
 20
191.830677987
 30
0.0
 10
180.402008857
 20
192.0796325052
 30
0.0
 10
179.9061457484
 20
192.2404751391
 30
0.0
 10
179.4284556177
 20
192.3090991306
 30
0.0
 10
178.9786371921
 20
192.2826710348
 30
0.0
 10
178.6994402588
 20
192.199143003
 30
0.0
 10
178.571163515
 20
192.1423433605
 30
0.0
  0
SPLINE
  5
2A7
100
AcDbEntity
  8
0
100
AcDbSpline
 62
7
  6
BYLAYER
 70
0
 71
3
 72
25
 73
21
 74
0
 42
0.0000001
 43
0.0000001
 44
0.0000000001
 40
0.0
 40
0.0
 40
0.0
 40
0.0
 40
0.0623845271
 40
0.1287220631
 40
0.1983150953
 40
0.2702912228
 40
0.3436683739
 40
0.4173998146
 40
0.4904239241
 40
0.5617103018
 40
0.6303076648
 40
0.6953954553
 40
0.7563433043
 40
0.8127809225
 40
0.8646818843
 40
0.9124570792
 40
0.9351017951
 40
0.9571072647
 40
0.9786678452
 40
1.0
 40
1.0
 40
1.0
 40
1.0
 10
195.0541200331
 20
190.9975354802
 30
0.0
 10
195.0541200331
 20
191.7857894303
 30
0.0
 10
194.9473415964
 20
193.4133323302
 30
0.0
 10
194.5078984922
 20
195.8845336582
 30
0.0
 10
193.7935113488
 20
198.4167086216
 30
0.0
 10
192.8193808222
 20
200.955721736
 30
0.0
 10
191.6062948972
 20
203.4477453028
 30
0.0
 10
190.1801022439
 20
205.839606168
 30
0.0
 10
188.5712366704
 20
208.0802921713
 30
0.0
 10
186.8139627135
 20
210.1220507816
 30
0.0
 10
184.9455681331
 20
211.9214788297
 30
0.0
 10
183.005354588
 20
213.4404275374
 30
0.0
 10
181.0336765045
 20
214.6467194073
 30
0.0
 10
179.0703633183
 20
215.5143346509
 30
0.0
 10
177.1552260535
 20
216.023358239
 30
0.0
 10
175.6019360728
 20
216.1373941771
 30
0.0
 10
174.4369587153
 20
216.0280337764
 30
0.0
 10
173.6167328806
 20
215.8531170959
 30
0.0
 10
172.839812865
 20
215.5845310226
 30
0.0
 10
172.3525100891
 20
215.3433814072
 30
0.0
 10
172.119085282
 20
215.2086040773
 30
0.0
  0
SPLINE
  5
2A8
100
AcDbEntity
  8
0
100
AcDbSpline
 62
7
  6
BYLAYER
 70
0
 71
3
 72
11
 73
7
 74
0
 42
0.0000001
 43
0.0000001
 44
0.0000000001
 40
0.0
 40
0.0
 40
0.0
 40
0.0
 40
0.284012156
 40
0.5436116092
 40
0.7805632746
 40
1.0
 40
1.0
 40
1.0
 40
1.0
 10
178.0834866296
 20
190.1807821661
 30
0.0
 10
178.0834866296
 20
190.3900744424
 30
0.0
 10
178.1099811515
 20
190.7915157961
 30
0.0
 10
178.2415037998
 20
191.3546177199
 30
0.0
 10
178.4613998493
 20
191.8384878694
 30
0.0
 10
178.6713410754
 20
192.1067392841
 30
0.0
 10
178.7875978986
 20
192.2191364171
 30
0.0
  0
SPLINE
  5
2A9
100
AcDbEntity
  8
0
100
AcDbSpline
 62
7
  6
BYLAYER
 70
0
 71
3
 72
18
 73
14
 74
0
 42
0.0000001
 43
0.0000001
 44
0.0000000001
 40
0.0
 40
0.0
 40
0.0
 40
0.0
 40
0.0435957919
 40
0.0900525015
 40
0.1402187646
 40
0.1945213097
 40
0.2530174423
 40
0.315464493
 40
0.4500031774
 40
0.5927084161
 40
0.7365698213
 40
0.8743981267
 40
1.0
 40
1.0
 40
1.0
 40
1.0
 10
183.7319667388
 20
183.6464500248
 30
0.0
 10
183.598471023
 20
183.6086278026
 30
0.0
 10
183.3126981158
 20
183.5631139556
 30
0.0
 10
182.8644005058
 20
183.5858034345
 30
0.0
 10
182.3944663405
 20
183.6954730191
 30
0.0
 10
181.9115364197
 20
183.8892090869
 30
0.0
 10
181.4239933294
 20
184.1629400113
 30
0.0
 10
180.7633677462
 20
184.6393822154
 30
0.0
 10
179.9878809228
 20
185.4023781155
 30
0.0
 10
179.1986208558
 20
186.4921302782
 30
0.0
 10
178.583821951
 20
187.7014027996
 30
0.0
 10
178.1882104232
 20
188.9416655182
 30
0.0
 10
178.0834866296
 20
189.7810351222
 30
0.0
 10
178.0834866296
 20
190.1807821661
 30
0.0
  0
SPLINE
  5
2AA
100
AcDbEntity
  8
0
100
AcDbSpline
 62
7
  6
BYLAYER
 70
0
 71
3
 72
12
 73
8
 74
0
 42
0.0000001
 43
0.0000001
 44
0.0000000001
 40
0.0
 40
0.0
 40
0.0
 40
0.0
 40
0.1081601404
 40
0.2183595605
 40
0.4513647913
 40
0.7104118084
 40
1.0
 40
1.0
 40
1.0
 40
1.0
 10
183.4119132855
 20
183.4012128834
 30
0.0
 10
183.4938935474
 20
183.4485337281
 30
0.0
 10
183.651496333
 20
183.5585479732
 30
0.0
 10
183.9342581919
 20
183.8366309022
 30
0.0
 10
184.21423186
 20
184.2931640565
 30
0.0
 10
184.409087851
 20
184.9548289693
 30
0.0
 10
184.4474800438
 20
185.4366945085
 30
0.0
 10
184.4474800438
 20
185.690130467
 30
0.0
  0
SPLINE
  5
2AB
100
AcDbEntity
  8
0
100
AcDbSpline
 62
7
  6
BYLAYER
 70
0
 71
3
 72
15
 73
11
 74
0
 42
0.0000001
 43
0.0000001
 44
0.0000000001
 40
0.0
 40
0.0
 40
0.0
 40
0.0
 40
0.1080125912
 40
0.2180619647
 40
0.3319989914
 40
0.4513571761
 40
0.5772781629
 40
0.7104933495
 40
0.8514107718
 40
1.0
 40
1.0
 40
1.0
 40
1.0
 10
191.1189852286
 20
182.2996155549
 30
0.0
 10
191.4304949078
 20
182.4794783696
 30
0.0
 10
192.0294490883
 20
182.8973764412
 30
0.0
 10
192.8208026146
 20
183.6762442544
 30
0.0
 10
193.5014259733
 20
184.6006117193
 30
0.0
 10
194.0649854299
 20
185.6601433087
 30
0.0
 10
194.5070483473
 20
186.8440135536
 30
0.0
 10
194.8243136481
 20
188.1407819522
 30
0.0
 10
195.0142271593
 20
189.5379108731
 30
0.0
 10
195.0541200331
 20
190.5026992691
 30
0.0
 10
195.0541200331
 20
190.9975354802
 30
0.0
  0
SPLINE
  5
2AC
100
AcDbEntity
  8
0
100
AcDbSpline
 62
7
  6
BYLAYER
 70
0
 71
3
 72
18
 73
14
 74
0
 42
0.0000001
 43
0.0000001
 44
0.0000000001
 40
0.0
 40
0.0
 40
0.0
 40
0.0
 40
0.0469281005
 40
0.0945078335
 40
0.1433473793
 40
0.1939749679
 40
0.2468189947
 40
0.3021976563
 40
0.4211775877
 40
0.5516075445
 40
0.6927641771
 40
0.8429969195
 40
1.0
 40
1.0
 40
1.0
 40
1.0
 10
190.4118816269
 20
181.8913709879
 30
0.0
 10
190.1454514636
 20
181.7375365364
 30
0.0
 10
189.5853357954
 20
181.4666922482
 30
0.0
 10
188.68641824
 20
181.1825667216
 30
0.0
 10
187.733031685
 20
181.0211381837
 30
0.0
 10
186.7326643375
 20
180.9830636494
 30
0.0
 10
185.6924329473
 20
181.0680957705
 30
0.0
 10
184.2274995632
 20
181.350955572
 30
0.0
 10
182.3337096549
 20
182.0254843756
 30
0.0
 10
180.0844254081
 20
183.267073049
 30
0.0
 10
177.8613369809
 20
184.9245388381
 30
0.0
 10
175.7246137664
 20
186.9518323562
 30
0.0
 10
174.4165822165
 20
188.4889963707
 30
0.0
 10
173.7888245581
 20
189.3046850712
 30
0.0
  0
SPLINE
  5
2AD
100
AcDbEntity
  8
0
100
AcDbSpline
 62
7
  6
BYLAYER
 70
0
 71
3
 72
11
 73
7
 74
0
 42
0.0000001
 43
0.0000001
 44
0.0000000001
 40
0.0
 40
0.0
 40
0.0
 40
0.0
 40
0.2660621644
 40
0.5232186212
 40
0.7686253982
 40
1.0
 40
1.0
 40
1.0
 40
1.0
 10
169.5151476583
 20
196.7106241072
 30
0.0
 10
169.1885613876
 20
197.5032587535
 30
0.0
 10
168.6099394895
 20
199.0892445273
 30
0.0
 10
167.967000153
 20
201.4843918401
 30
0.0
 10
167.5722866766
 20
203.8197418873
 30
0.0
 10
167.4768466403
 20
205.3569273041
 30
0.0
 10
167.4768466403
 20
206.1024399981
 30
0.0
  0
SPLINE
  5
2AE
100
AcDbEntity
  8
0
100
AcDbSpline
 62
7
  6
BYLAYER
 70
0
 71
3
 72
19
 73
15
 74
0
 42
0.0000001
 43
0.0000001
 44
0.0000000001
 40
0.0
 40
0.0
 40
0.0
 40
0.0
 40
0.1286274467
 40
0.270153614
 40
0.4172430518
 40
0.5615266551
 40
0.630178402
 40
0.6953175649
 40
0.7563128506
 40
0.8127941678
 40
0.8647356039
 40
0.9125485491
 40
0.9571586443
 40
1.0
 40
1.0
 40
1.0
 40
1.0
 10
177.3763827923
 20
189.7725380122
 30
0.0
 10
177.3763827923
 20
189.3451746375
 30
0.0
 10
177.4959499663
 20
188.4465830671
 30
0.0
 10
177.9421630008
 20
187.1270901558
 30
0.0
 10
178.6297733882
 20
185.8562744362
 30
0.0
 10
179.3701821403
 20
184.908127844
 30
0.0
 10
180.0365045243
 20
184.2662445324
 30
0.0
 10
180.5471162941
 20
183.86651138
 30
0.0
 10
181.0659821065
 20
183.5490788694
 30
0.0
 10
181.5826082472
 20
183.3207619609
 30
0.0
 10
182.0867011196
 20
183.1868280024
 30
0.0
 10
182.568366165
 20
183.1513644034
 30
0.0
 10
183.0169225513
 20
183.2170856971
 30
0.0
 10
183.2886364349
 20
183.3300547221
 30
0.0
 10
183.4119132855
 20
183.4012128834
 30
0.0
  0
SPLINE
  5
2AF
100
AcDbEntity
  8
0
100
AcDbSpline
 62
7
  6
BYLAYER
 70
0
 71
3
 72
18
 73
14
 74
0
 42
0.0000001
 43
0.0000001
 44
0.0000000001
 40
0.0
 40
0.0
 40
0.0
 40
0.0
 40
0.0464045449
 40
0.0939256995
 40
0.1430689856
 40
0.1942522071
 40
0.2477927243
 40
0.3039099584
 40
0.4241932507
 40
0.55528545
 40
0.6962012444
 40
0.8451976555
 40
1.0
 40
1.0
 40
1.0
 40
1.0
 10
172.1317960967
 20
215.1572536239
 30
0.0
 10
172.4115472766
 20
215.2746405082
 30
0.0
 10
172.9953942459
 20
215.4723046542
 30
0.0
 10
173.916407888
 20
215.649666947
 30
0.0
 10
174.8836213026
 20
215.7099331335
 30
0.0
 10
175.8901029116
 20
215.6529400339
 30
0.0
 10
176.9292100284
 20
215.4796499033
 30
0.0
 10
178.3822891159
 20
215.0863661087
 30
0.0
 10
180.2418466603
 20
214.2960921347
 30
0.0
 10
182.4337854514
 20
212.9501639722
 30
0.0
 10
184.5834622003
 20
211.220634466
 30
0.0
 10
186.6350936479
 20
209.153207416
 30
0.0
 10
187.8859606315
 20
207.6055259396
 30
0.0
 10
188.4840219832
 20
206.7890774593
 30
0.0
  0
SPLINE
  5
2B0
100
AcDbEntity
  8
0
100
AcDbSpline
 62
7
  6
BYLAYER
 70
0
 71
3
 72
11
 73
7
 74
0
 42
0.0000001
 43
0.0000001
 44
0.0000000001
 40
0.0
 40
0.0
 40
0.0
 40
0.0
 40
0.2663451709
 40
0.5239135895
 40
0.7693573013
 40
1.0
 40
1.0
 40
1.0
 40
1.0
 10
192.0125814624
 20
200.6760046924
 30
0.0
 10
192.3854305011
 20
199.8292777158
 30
0.0
 10
193.046774772
 20
198.1307369966
 30
0.0
 10
193.7832873658
 20
195.5575747987
 30
0.0
 10
194.2366907339
 20
193.0453221308
 30
0.0
 10
194.3470161959
 20
191.3904570761
 30
0.0
 10
194.3470161959
 20
190.5892913264
 30
0.0
  0
SPLINE
  5
2B1
100
AcDbEntity
  8
0
100
AcDbSpline
 62
7
  6
BYLAYER
 70
0
 71
3
 72
14
 73
10
 74
0
 42
0.0000001
 43
0.0000001
 44
0.0000000001
 40
0.0
 40
0.0
 40
0.0
 40
0.0
 40
0.2866736871
 40
0.4198065627
 40
0.54629197
 40
0.6666276183
 40
0.7815912784
 40
0.892264828
 40
1.0
 40
1.0
 40
1.0
 40
1.0
 10
194.3470161959
 20
190.5892913264
 30
0.0
 10
194.3470161959
 20
189.7123337903
 30
0.0
 10
194.2534081947
 20
188.423186961
 30
0.0
 10
193.896927191
 20
186.788259706
 30
0.0
 10
193.5329896992
 20
185.6819057701
 30
0.0
 10
193.0685631103
 20
184.6744550324
 30
0.0
 10
192.5065468013
 20
183.7739700771
 30
0.0
 10
191.8511182967
 20
182.988415827
 30
0.0
 10
191.3503182593
 20
182.5416547354
 30
0.0
 10
191.0882035835
 20
182.3418734389
 30
0.0
  0
SPLINE
  5
2B2
100
AcDbEntity
  8
0
100
AcDbSpline
 62
7
  6
BYLAYER
 70
0
 71
3
 72
11
 73
7
 74
0
 42
0.0000001
 43
0.0000001
 44
0.0000000001
 40
0.0
 40
0.0
 40
0.0
 40
0.0
 40
0.2182676691
 40
0.453699403
 40
0.7133703593
 40
1.0
 40
1.0
 40
1.0
 40
1.0
 10
178.2099224153
 20
191.9242338117
 30
0.0
 10
178.0740338705
 20
191.8167323834
 30
0.0
 10
177.8253151337
 20
191.5480885447
 30
0.0
 10
177.5637418702
 20
191.03970516
 30
0.0
 10
177.4075018572
 20
190.4348860076
 30
0.0
 10
177.3763827923
 20
190.0000756966
 30
0.0
 10
177.3763827923
 20
189.7725380122
 30
0.0
  0
SPLINE
  5
2B3
100
AcDbEntity
  8
0
100
AcDbSpline
 62
7
  6
BYLAYER
 70
0
 71
3
 72
18
 73
14
 74
0
 42
0.0000001
 43
0.0000001
 44
0.0000000001
 40
0.0
 40
0.0
 40
0.0
 40
0.0
 40
0.0464968629
 40
0.0937621874
 40
0.1425792348
 40
0.1935626611
 40
0.247213556
 40
0.3038513419
 40
0.4263388285
 40
0.5604683027
 40
0.7035287101
 40
0.8515571543
 40
1.0
 40
1.0
 40
1.0
 40
1.0
 10
39.9428845297
 20
102.5240991244
 30
0.0
 10
39.69590593
 20
102.3815068146
 30
0.0
 10
39.1689710166
 20
102.1411356392
 30
0.0
 10
38.3152815527
 20
101.9314679081
 30
0.0
 10
37.4110373354
 20
101.8711682644
 30
0.0
 10
36.4703564739
 20
101.9575693945
 30
0.0
 10
35.5048201676
 20
102.1853376559
 30
0.0
 10
34.1634563514
 20
102.6830245311
 30
0.0
 10
32.4859136518
 20
103.6476219812
 30
0.0
 10
30.5948618734
 20
105.2221417746
 30
0.0
 10
28.8493584263
 20
107.17150741
 30
0.0
 10
27.3272681796
 20
109.4050225051
 30
0.0
 10
26.4995903074
 20
111.0308735592
 30
0.0
 10
26.1411786068
 20
111.8678258432
 30
0.0
  0
SPLINE
  5
2B4
100
AcDbEntity
  8
0
100
AcDbSpline
 62
7
  6
BYLAYER
 70
0
 71
3
 72
11
 73
7
 74
0
 42
0.0000001
 43
0.0000001
 44
0.0000000001
 40
0.0
 40
0.0
 40
0.0
 40
0.0
 40
0.2343499993
 40
0.4754590118
 40
0.7292676475
 40
1.0
 40
1.0
 40
1.0
 40
1.0
 10
42.4177452427
 20
103.9529583775
 30
0.0
 10
42.673463365
 20
104.1005874808
 30
0.0
 10
43.1614829138
 20
104.4570578259
 30
0.0
 10
43.7794406045
 20
105.1449897662
 30
0.0
 10
44.2790612473
 20
105.9761908114
 30
0.0
 10
44.5208627674
 20
106.594653221
 30
0.0
 10
44.6223335778
 20
106.9203249338
 30
0.0
  0
SPLINE
  5
2B5
100
AcDbEntity
  8
0
100
AcDbSpline
 62
7
  6
BYLAYER
 70
0
 71
3
 72
9
 73
5
 74
0
 42
0.0000001
 43
0.0000001
 44
0.0000000001
 40
0.0
 40
0.0
 40
0.0
 40
0.0
 40
0.4977652265
 40
1.0
 40
1.0
 40
1.0
 40
1.0
 10
42.7800627538
 20
111.5044312445
 30
0.0
 10
42.7450793893
 20
111.4842178002
 30
0.0
 10
42.6630321995
 20
111.4591738673
 30
0.0
 10
42.5808546594
 20
111.4840826876
 30
0.0
 10
42.5455497387
 20
111.5044647639
 30
0.0
  0
SPLINE
  5
2B6
100
AcDbEntity
  8
0
100
AcDbSpline
 62
7
  6
BYLAYER
 70
0
 71
3
 72
11
 73
7
 74
0
 42
0.0000001
 43
0.0000001
 44
0.0000000001
 40
0.0
 40
0.0
 40
0.0
 40
0.0
 40
0.2027920568
 40
0.4308446061
 40
0.6968956724
 40
1.0
 40
1.0
 40
1.0
 40
1.0
 10
44.5341400811
 20
112.5171644576
 30
0.0
 10
44.5570062521
 20
112.5303627498
 30
0.0
 10
44.5988727651
 20
112.5710579056
 30
0.0
 10
44.6330729258
 20
112.6570846749
 30
0.0
 10
44.6415867378
 20
112.761598023
 30
0.0
 10
44.6311473154
 20
112.8355236042
 30
0.0
 10
44.6223335778
 20
112.873988392
 30
0.0
  0
SPLINE
  5
2B7
100
AcDbEntity
  8
0
100
AcDbSpline
 62
7
  6
BYLAYER
 70
0
 71
3
 72
11
 73
7
 74
0
 42
0.0000001
 43
0.0000001
 44
0.0000000001
 40
0.0
 40
0.0
 40
0.0
 40
0.0
 40
0.247466692
 40
0.4950491482
 40
0.7453385395
 40
1.0
 40
1.0
 40
1.0
 40
1.0
 10
26.2612282965
 20
123.1953122206
 30
0.0
 10
26.2266024511
 20
123.1555323711
 30
0.0
 10
26.1694282149
 20
123.064323592
 30
0.0
 10
26.1326620549
 20
122.9067708158
 30
0.0
 10
26.1511652631
 20
122.7442687898
 30
0.0
 10
26.2006526238
 20
122.6457893391
 30
0.0
 10
26.2329148572
 20
122.6021474419
 30
0.0
  0
SPLINE
  5
2B8
100
AcDbEntity
  8
0
100
AcDbSpline
 62
7
  6
BYLAYER
 70
0
 71
3
 72
9
 73
5
 74
0
 42
0.0000001
 43
0.0000001
 44
0.0000000001
 40
0.0
 40
0.0
 40
0.0
 40
0.0
 40
0.5033836988
 40
1.0
 40
1.0
 40
1.0
 40
1.0
 10
26.2612202382
 20
123.1953205425
 30
0.0
 10
26.4307924722
 20
123.3903417424
 30
0.0
 10
26.7987317236
 20
123.7520263318
 30
0.0
 10
27.2221388184
 20
124.0472873841
 30
0.0
 10
27.4429404907
 20
124.174766528
 30
0.0
  0
SPLINE
  5
2B9
100
AcDbEntity
  8
0
100
AcDbSpline
 62
7
  6
BYLAYER
 70
0
 71
3
 72
9
 73
5
 74
0
 42
0.0000001
 43
0.0000001
 44
0.0000000001
 40
0.0
 40
0.0
 40
0.0
 40
0.0
 40
0.2565459483
 40
1.0
 40
1.0
 40
1.0
 40
1.0
 10
60.735372948
 20
123.9760778682
 30
0.0
 10
60.7493007989
 20
123.9852244369
 30
0.0
 10
60.8045591062
 20
124.0193636891
 30
0.0
 10
60.8637688309
 20
124.047238875
 30
0.0
 10
60.9092662942
 20
124.0634145534
 30
0.0
  0
SPLINE
  5
2BA
100
AcDbEntity
  8
0
100
AcDbSpline
 62
7
  6
BYLAYER
 70
0
 71
3
 72
9
 73
5
 74
0
 42
0.0000001
 43
0.0000001
 44
0.0000000001
 40
0.0
 40
0.0
 40
0.0
 40
0.0
 40
0.5134040302
 40
1.0
 40
1.0
 40
1.0
 40
1.0
 10
60.9092662942
 20
124.0634145534
 30
0.0
 10
60.9984865161
 20
124.0951349509
 30
0.0
 10
61.1871785961
 20
124.1234564979
 30
0.0
 10
61.3701478659
 20
124.0669036575
 30
0.0
 10
61.4478624946
 20
124.0220157121
 30
0.0
  0
SPLINE
  5
2BB
100
AcDbEntity
  8
0
100
AcDbSpline
 62
7
  6
BYLAYER
 70
0
 71
3
 72
11
 73
7
 74
0
 42
0.0000001
 43
0.0000001
 44
0.0000000001
 40
0.0
 40
0.0
 40
0.0
 40
0.0
 40
0.2462593307
 40
0.5082136318
 40
0.7662431648
 40
1.0
 40
1.0
 40
1.0
 40
1.0
 10
60.8795639962
 20
124.1245371306
 30
0.0
 10
60.7412650561
 20
123.9979751928
 30
0.0
 10
60.5011025187
 20
123.6868700806
 30
0.0
 10
60.2560592758
 20
123.1541415101
 30
0.0
 10
60.1076907118
 20
122.5975850388
 30
0.0
 10
60.0675416425
 20
122.2230109927
 30
0.0
 10
60.0679327404
 20
122.0450604204
 30
0.0
  0
SPLINE
  5
2BC
100
AcDbEntity
  8
0
100
AcDbSpline
 62
7
  6
BYLAYER
 70
0
 71
3
 72
9
 73
5
 74
0
 42
0.0000001
 43
0.0000001
 44
0.0000000001
 40
0.0
 40
0.0
 40
0.0
 40
0.0
 40
0.4759889891
 40
1.0
 40
1.0
 40
1.0
 40
1.0
 10
60.2478884093
 20
121.9435624597
 30
0.0
 10
60.224810563
 20
121.9568958151
 30
0.0
 10
60.1810033406
 20
121.9935790322
 30
0.0
 10
60.1505045998
 20
122.0413908443
 30
0.0
 10
60.1373608941
 20
122.0676239316
 30
0.0
  0
SPLINE
  5
2BD
100
AcDbEntity
  8
0
100
AcDbSpline
 62
7
  6
BYLAYER
 70
0
 71
3
 72
9
 73
5
 74
0
 42
0.0000001
 43
0.0000001
 44
0.0000000001
 40
0.0
 40
0.0
 40
0.0
 40
0.0
 40
0.2308761224
 40
1.0
 40
1.0
 40
1.0
 40
1.0
 10
60.1373608941
 20
122.0676239316
 30
0.0
 10
60.1323785011
 20
122.0775681251
 30
0.0
 10
60.1125255922
 20
122.121507031
 30
0.0
 10
60.0991138538
 20
122.1681546354
 30
0.0
 10
60.0912627786
 20
122.2043661755
 30
0.0
  0
SPLINE
  5
2BE
100
AcDbEntity
  8
0
100
AcDbSpline
 62
7
  6
BYLAYER
 70
0
 71
3
 72
9
 73
5
 74
0
 42
0.0000001
 43
0.0000001
 44
0.0000000001
 40
0.0
 40
0.0
 40
0.0
 40
0.0
 40
0.2288400746
 40
1.0
 40
1.0
 40
1.0
 40
1.0
 10
60.0912627786
 20
122.2043661755
 30
0.0
 10
60.0872899936
 20
122.2226898648
 30
0.0
 10
60.0727234292
 20
122.3033652337
 30
0.0
 10
60.0679213392
 20
122.3856000341
 30
0.0
 10
60.067923082
 20
122.4487830164
 30
0.0
  0
SPLINE
  5
2BF
100
AcDbEntity
  8
0
100
AcDbSpline
 62
7
  6
BYLAYER
 70
0
 71
3
 72
9
 73
5
 74
0
 42
0.0000001
 43
0.0000001
 44
0.0000000001
 40
0.0
 40
0.0
 40
0.0
 40
0.0
 40
0.2565459483
 40
1.0
 40
1.0
 40
1.0
 40
1.0
 10
74.8774496923
 20
132.1409609456
 30
0.0
 10
74.8913775432
 20
132.1501075143
 30
0.0
 10
74.9466358505
 20
132.1842467666
 30
0.0
 10
75.0058455752
 20
132.2121219524
 30
0.0
 10
75.0513430384
 20
132.2282976308
 30
0.0
  0
SPLINE
  5
2C0
100
AcDbEntity
  8
0
100
AcDbSpline
 62
7
  6
BYLAYER
 70
0
 71
3
 72
9
 73
5
 74
0
 42
0.0000001
 43
0.0000001
 44
0.0000000001
 40
0.0
 40
0.0
 40
0.0
 40
0.0
 40
0.5134040302
 40
1.0
 40
1.0
 40
1.0
 40
1.0
 10
75.0513430384
 20
132.2282976308
 30
0.0
 10
75.1405632604
 20
132.2600180283
 30
0.0
 10
75.3292553404
 20
132.2883395753
 30
0.0
 10
75.5122246102
 20
132.231786735
 30
0.0
 10
75.5899392388
 20
132.1868987895
 30
0.0
  0
SPLINE
  5
2C1
100
AcDbEntity
  8
0
100
AcDbSpline
 62
7
  6
BYLAYER
 70
0
 71
3
 72
11
 73
7
 74
0
 42
0.0000001
 43
0.0000001
 44
0.0000000001
 40
0.0
 40
0.0
 40
0.0
 40
0.0
 40
0.2462593307
 40
0.5082136316
 40
0.7662431652
 40
1.0
 40
1.0
 40
1.0
 40
1.0
 10
75.0216407405
 20
132.2894202081
 30
0.0
 10
74.8833418003
 20
132.1628582702
 30
0.0
 10
74.6431792621
 20
131.8517531583
 30
0.0
 10
74.3981360234
 20
131.319024587
 30
0.0
 10
74.2497674456
 20
130.7624681164
 30
0.0
 10
74.2096184025
 20
130.3878940698
 30
0.0
 10
74.2100094847
 20
130.2099434978
 30
0.0
  0
SPLINE
  5
2C2
100
AcDbEntity
  8
0
100
AcDbSpline
 62
7
  6
BYLAYER
 70
0
 71
3
 72
9
 73
5
 74
0
 42
0.0000001
 43
0.0000001
 44
0.0000000001
 40
0.0
 40
0.0
 40
0.0
 40
0.0
 40
0.4759889891
 40
1.0
 40
1.0
 40
1.0
 40
1.0
 10
74.3899651535
 20
130.1084455372
 30
0.0
 10
74.3668873073
 20
130.1217788925
 30
0.0
 10
74.3230800848
 20
130.1584621097
 30
0.0
 10
74.2925813441
 20
130.2062739217
 30
0.0
 10
74.2794376384
 20
130.232507009
 30
0.0
  0
SPLINE
  5
2C3
100
AcDbEntity
  8
0
100
AcDbSpline
 62
7
  6
BYLAYER
 70
0
 71
3
 72
9
 73
5
 74
0
 42
0.0000001
 43
0.0000001
 44
0.0000000001
 40
0.0
 40
0.0
 40
0.0
 40
0.0
 40
0.2308761224
 40
1.0
 40
1.0
 40
1.0
 40
1.0
 10
74.2794376384
 20
130.232507009
 30
0.0
 10
74.2744552453
 20
130.2424512025
 30
0.0
 10
74.2546023365
 20
130.2863901084
 30
0.0
 10
74.241190598
 20
130.3330377129
 30
0.0
 10
74.2333395228
 20
130.369249253
 30
0.0
  0
SPLINE
  5
2C4
100
AcDbEntity
  8
0
100
AcDbSpline
 62
7
  6
BYLAYER
 70
0
 71
3
 72
9
 73
5
 74
0
 42
0.0000001
 43
0.0000001
 44
0.0000000001
 40
0.0
 40
0.0
 40
0.0
 40
0.0
 40
0.2288400746
 40
1.0
 40
1.0
 40
1.0
 40
1.0
 10
74.2333395228
 20
130.369249253
 30
0.0
 10
74.2293667379
 20
130.3875729422
 30
0.0
 10
74.2148001735
 20
130.4682483111
 30
0.0
 10
74.2099980835
 20
130.5504831116
 30
0.0
 10
74.2099998263
 20
130.6136660939
 30
0.0
  0
SPLINE
  5
2C5
100
AcDbEntity
  8
0
100
AcDbSpline
 62
7
  6
BYLAYER
 70
0
 71
3
 72
9
 73
5
 74
0
 42
0.0000001
 43
0.0000001
 44
0.0000000001
 40
0.0
 40
0.0
 40
0.0
 40
0.0
 40
0.2565459483
 40
1.0
 40
1.0
 40
1.0
 40
1.0
 10
67.8064113202
 20
128.0585194069
 30
0.0
 10
67.820339171
 20
128.0676659756
 30
0.0
 10
67.8755974783
 20
128.1018052279
 30
0.0
 10
67.934807203
 20
128.1296804137
 30
0.0
 10
67.9803046663
 20
128.1458560921
 30
0.0
  0
SPLINE
  5
2C6
100
AcDbEntity
  8
0
100
AcDbSpline
 62
7
  6
BYLAYER
 70
0
 71
3
 72
9
 73
5
 74
0
 42
0.0000001
 43
0.0000001
 44
0.0000000001
 40
0.0
 40
0.0
 40
0.0
 40
0.0
 40
0.5134040302
 40
1.0
 40
1.0
 40
1.0
 40
1.0
 10
67.9803046663
 20
128.1458560921
 30
0.0
 10
68.0695248882
 20
128.1775764896
 30
0.0
 10
68.2582169682
 20
128.2058980366
 30
0.0
 10
68.441186238
 20
128.1493451962
 30
0.0
 10
68.5189008667
 20
128.1044572508
 30
0.0
  0
SPLINE
  5
2C7
100
AcDbEntity
  8
0
100
AcDbSpline
 62
7
  6
BYLAYER
 70
0
 71
3
 72
11
 73
7
 74
0
 42
0.0000001
 43
0.0000001
 44
0.0000000001
 40
0.0
 40
0.0
 40
0.0
 40
0.0
 40
0.2462593307
 40
0.5082136316
 40
0.7662431652
 40
1.0
 40
1.0
 40
1.0
 40
1.0
 10
67.9506023683
 20
128.2069786694
 30
0.0
 10
67.8123034282
 20
128.0804167315
 30
0.0
 10
67.57214089
 20
127.7693116196
 30
0.0
 10
67.3270976512
 20
127.2365830483
 30
0.0
 10
67.1787290735
 20
126.6800265777
 30
0.0
 10
67.1385800303
 20
126.3054525311
 30
0.0
 10
67.1389711126
 20
126.1275019591
 30
0.0
  0
SPLINE
  5
2C8
100
AcDbEntity
  8
0
100
AcDbSpline
 62
7
  6
BYLAYER
 70
0
 71
3
 72
9
 73
5
 74
0
 42
0.0000001
 43
0.0000001
 44
0.0000000001
 40
0.0
 40
0.0
 40
0.0
 40
0.0
 40
0.4759889891
 40
1.0
 40
1.0
 40
1.0
 40
1.0
 10
67.3189267814
 20
126.0260039984
 30
0.0
 10
67.2958489352
 20
126.0393373538
 30
0.0
 10
67.2520417127
 20
126.0760205709
 30
0.0
 10
67.2215429719
 20
126.123832383
 30
0.0
 10
67.2083992663
 20
126.1500654703
 30
0.0
  0
SPLINE
  5
2C9
100
AcDbEntity
  8
0
100
AcDbSpline
 62
7
  6
BYLAYER
 70
0
 71
3
 72
9
 73
5
 74
0
 42
0.0000001
 43
0.0000001
 44
0.0000000001
 40
0.0
 40
0.0
 40
0.0
 40
0.0
 40
0.2308761224
 40
1.0
 40
1.0
 40
1.0
 40
1.0
 10
67.2083992663
 20
126.1500654703
 30
0.0
 10
67.2034168732
 20
126.1600096638
 30
0.0
 10
67.1835639643
 20
126.2039485697
 30
0.0
 10
67.1701522259
 20
126.2505961741
 30
0.0
 10
67.1623011507
 20
126.2868077142
 30
0.0
  0
SPLINE
  5
2CA
100
AcDbEntity
  8
0
100
AcDbSpline
 62
7
  6
BYLAYER
 70
0
 71
3
 72
9
 73
5
 74
0
 42
0.0000001
 43
0.0000001
 44
0.0000000001
 40
0.0
 40
0.0
 40
0.0
 40
0.0
 40
0.2288400746
 40
1.0
 40
1.0
 40
1.0
 40
1.0
 10
67.1623011507
 20
126.2868077142
 30
0.0
 10
67.1583283657
 20
126.3051314035
 30
0.0
 10
67.1437618013
 20
126.3858067724
 30
0.0
 10
67.1389597114
 20
126.4680415729
 30
0.0
 10
67.1389614542
 20
126.5312245552
 30
0.0
  0
SPLINE
  5
2CB
100
AcDbEntity
  8
0
100
AcDbSpline
 62
7
  6
BYLAYER
 70
0
 71
3
 72
9
 73
5
 74
0
 42
0.0000001
 43
0.0000001
 44
0.0000000001
 40
0.0
 40
0.0
 40
0.0
 40
0.0
 40
0.2565459483
 40
1.0
 40
1.0
 40
1.0
 40
1.0
 10
53.6643345759
 20
119.8936363294
 30
0.0
 10
53.6782624267
 20
119.9027828981
 30
0.0
 10
53.7335207341
 20
119.9369221504
 30
0.0
 10
53.7927304588
 20
119.9647973362
 30
0.0
 10
53.838227922
 20
119.9809730147
 30
0.0
  0
SPLINE
  5
2CC
100
AcDbEntity
  8
0
100
AcDbSpline
 62
7
  6
BYLAYER
 70
0
 71
3
 72
9
 73
5
 74
0
 42
0.0000001
 43
0.0000001
 44
0.0000000001
 40
0.0
 40
0.0
 40
0.0
 40
0.0
 40
0.5134040302
 40
1.0
 40
1.0
 40
1.0
 40
1.0
 10
53.838227922
 20
119.9809730147
 30
0.0
 10
53.9274481439
 20
120.0126934122
 30
0.0
 10
54.116140224
 20
120.0410149592
 30
0.0
 10
54.2991094938
 20
119.9844621188
 30
0.0
 10
54.3768241224
 20
119.9395741734
 30
0.0
  0
SPLINE
  5
2CD
100
AcDbEntity
  8
0
100
AcDbSpline
 62
7
  6
BYLAYER
 70
0
 71
3
 72
9
 73
5
 74
0
 42
0.0000001
 43
0.0000001
 44
0.0000000001
 40
0.0
 40
0.0
 40
0.0
 40
0.0
 40
0.2304815863
 40
1.0
 40
1.0
 40
1.0
 40
1.0
 10
81.3632088168
 20
132.3669803411
 30
0.0
 10
81.4329844229
 20
132.5258710792
 30
0.0
 10
81.6904601689
 20
133.2352057167
 30
0.0
 10
81.7760205442
 20
133.9987626697
 30
0.0
 10
81.7760205442
 20
134.5781560223
 30
0.0
  0
SPLINE
  5
2CE
100
AcDbEntity
  8
0
100
AcDbSpline
 62
7
  6
BYLAYER
 70
0
 71
3
 72
9
 73
5
 74
0
 42
0.0000001
 43
0.0000001
 44
0.0000000001
 40
0.0
 40
0.0
 40
0.0
 40
0.0
 40
0.4812797267
 40
1.0
 40
1.0
 40
1.0
 40
1.0
 10
81.7760205442
 20
134.5781560223
 30
0.0
 10
81.7760205442
 20
135.01549108
 30
0.0
 10
81.6977442084
 20
135.924896956
 30
0.0
 10
81.4950728477
 20
136.8134583436
 30
0.0
 10
81.3632088168
 20
137.2659948439
 30
0.0
  0
SPLINE
  5
2CF
100
AcDbEntity
  8
0
100
AcDbSpline
 62
7
  6
BYLAYER
 70
0
 71
3
 72
10
 73
6
 74
0
 42
0.0000001
 43
0.0000001
 44
0.0000000001
 40
0.0
 40
0.0
 40
0.0
 40
0.0
 40
0.2280238333
 40
0.4767760881
 40
1.0
 40
1.0
 40
1.0
 40
1.0
 10
80.7962339489
 20
137.5933305311
 30
0.0
 10
80.7053863963
 20
137.6457802035
 30
0.0
 10
80.5271940064
 20
137.7764536104
 30
0.0
 10
80.2059316577
 20
138.107336823
 30
0.0
 10
80.0161544605
 20
138.4151073556
 30
0.0
 10
79.9192793478
 20
138.6354587634
 30
0.0
  0
SPLINE
  5
2D0
100
AcDbEntity
  8
0
100
AcDbSpline
 62
7
  6
BYLAYER
 70
0
 71
3
 72
9
 73
5
 74
0
 42
0.0000001
 43
0.0000001
 44
0.0000000001
 40
0.0
 40
0.0
 40
0.0
 40
0.0
 40
0.5246784734
 40
1.0
 40
1.0
 40
1.0
 40
1.0
 10
78.8768706711
 20
140.497755685
 30
0.0
 10
78.7883917033
 20
140.6254631476
 30
0.0
 10
78.5974727975
 20
140.8542593052
 30
0.0
 10
78.3623639965
 20
141.0397502571
 30
0.0
 10
78.2404719184
 20
141.1101230892
 30
0.0
  0
SPLINE
  5
2D1
100
AcDbEntity
  8
0
100
AcDbSpline
 62
7
  6
BYLAYER
 70
0
 71
3
 72
11
 73
7
 74
0
 42
0.0000001
 43
0.0000001
 44
0.0000000001
 40
0.0
 40
0.0
 40
0.0
 40
0.0
 40
0.284036003
 40
0.543675521
 40
0.7806370344
 40
1.0
 40
1.0
 40
1.0
 40
1.0
 10
73.9978135675
 20
143.5595676163
 30
0.0
 10
73.9433315439
 20
143.5910221157
 30
0.0
 10
73.8348275987
 20
143.6444248764
 30
0.0
 10
73.6684526311
 20
143.6947676888
 30
0.0
 10
73.5094348606
 20
143.710018776
 30
0.0
 10
73.4080940729
 20
143.6955107528
 30
0.0
 10
73.3614148149
 20
143.6820335702
 30
0.0
  0
SPLINE
  5
2D2
100
AcDbEntity
  8
0
100
AcDbSpline
 62
7
  6
BYLAYER
 70
0
 71
3
 72
9
 73
5
 74
0
 42
0.0000001
 43
0.0000001
 44
0.0000000001
 40
0.0
 40
0.0
 40
0.0
 40
0.0
 40
0.2523229051
 40
1.0
 40
1.0
 40
1.0
 40
1.0
 10
73.3614148149
 20
143.6820335702
 30
0.0
 10
73.3181473326
 20
143.6695423665
 30
0.0
 10
73.1481633606
 20
143.6150220584
 30
0.0
 10
72.9847238803
 20
143.5399785885
 30
0.0
 10
72.8691564841
 20
143.473256986
 30
0.0
  0
SPLINE
  5
2D3
100
AcDbEntity
  8
0
100
AcDbSpline
 62
7
  6
BYLAYER
 70
0
 71
3
 72
11
 73
7
 74
0
 42
0.0000001
 43
0.0000001
 44
0.0000000001
 40
0.0
 40
0.0
 40
0.0
 40
0.0
 40
0.2462593307
 40
0.5082136318
 40
0.7662431648
 40
1.0
 40
1.0
 40
1.0
 40
1.0
 10
53.8085256241
 20
120.0420955919
 30
0.0
 10
53.6702266839
 20
119.9155336541
 30
0.0
 10
53.4300641466
 20
119.6044285419
 30
0.0
 10
53.1850209037
 20
119.0716999714
 30
0.0
 10
53.0366523396
 20
118.5151435001
 30
0.0
 10
52.9965032704
 20
118.1405694539
 30
0.0
 10
52.9968943683
 20
117.9626188817
 30
0.0
  0
SPLINE
  5
2D4
100
AcDbEntity
  8
0
100
AcDbSpline
 62
7
  6
BYLAYER
 70
0
 71
3
 72
9
 73
5
 74
0
 42
0.0000001
 43
0.0000001
 44
0.0000000001
 40
0.0
 40
0.0
 40
0.0
 40
0.0
 40
0.4759889891
 40
1.0
 40
1.0
 40
1.0
 40
1.0
 10
53.1768500371
 20
117.861120921
 30
0.0
 10
53.1537721909
 20
117.8744542764
 30
0.0
 10
53.1099649684
 20
117.9111374935
 30
0.0
 10
53.0794662277
 20
117.9589493056
 30
0.0
 10
53.066322522
 20
117.9851823929
 30
0.0
  0
SPLINE
  5
2D5
100
AcDbEntity
  8
0
100
AcDbSpline
 62
7
  6
BYLAYER
 70
0
 71
3
 72
9
 73
5
 74
0
 42
0.0000001
 43
0.0000001
 44
0.0000000001
 40
0.0
 40
0.0
 40
0.0
 40
0.0
 40
0.2308761224
 40
1.0
 40
1.0
 40
1.0
 40
1.0
 10
53.066322522
 20
117.9851823929
 30
0.0
 10
53.0613401289
 20
117.9951265864
 30
0.0
 10
53.04148722
 20
118.0390654923
 30
0.0
 10
53.0280754816
 20
118.0857130967
 30
0.0
 10
53.0202244064
 20
118.1219246368
 30
0.0
  0
SPLINE
  5
2D6
100
AcDbEntity
  8
0
100
AcDbSpline
 62
7
  6
BYLAYER
 70
0
 71
3
 72
9
 73
5
 74
0
 42
0.0000001
 43
0.0000001
 44
0.0000000001
 40
0.0
 40
0.0
 40
0.0
 40
0.0
 40
0.2288400746
 40
1.0
 40
1.0
 40
1.0
 40
1.0
 10
53.0202244064
 20
118.1219246368
 30
0.0
 10
53.0162516215
 20
118.140248326
 30
0.0
 10
53.001685057
 20
118.220923695
 30
0.0
 10
52.9968829671
 20
118.3031584954
 30
0.0
 10
52.9968847099
 20
118.3663414777
 30
0.0
  0
SPLINE
  5
2D7
100
AcDbEntity
  8
0
100
AcDbSpline
 62
7
  6
BYLAYER
 70
0
 71
3
 72
9
 73
5
 74
0
 42
0.0000001
 43
0.0000001
 44
0.0000000001
 40
0.0
 40
0.0
 40
0.0
 40
0.0
 40
0.2301522306
 40
1.0
 40
1.0
 40
1.0
 40
1.0
 10
71.8465532383
 20
142.8528858041
 30
0.0
 10
71.8137137301
 20
142.8562017956
 30
0.0
 10
71.6719799453
 20
142.8802043387
 30
0.0
 10
71.537665703
 20
142.938646473
 30
0.0
 10
71.4420515371
 20
142.9938480887
 30
0.0
  0
SPLINE
  5
2D8
100
AcDbEntity
  8
0
100
AcDbSpline
 62
7
  6
BYLAYER
 70
0
 71
3
 72
10
 73
6
 74
0
 42
0.0000001
 43
0.0000001
 44
0.0000000001
 40
0.0
 40
0.0
 40
0.0
 40
0.0
 40
0.2392137047
 40
0.483157635
 40
1.0
 40
1.0
 40
1.0
 40
1.0
 10
42.9961631597
 20
109.4830681404
 30
0.0
 10
43.1301089341
 20
109.5603801077
 30
0.0
 10
43.3874995375
 20
109.7407530587
 30
0.0
 10
43.8477435648
 20
110.1981617909
 30
0.0
 10
44.1059026472
 20
110.6282140785
 30
0.0
 10
44.2402573631
 20
110.9341622628
 30
0.0
  0
SPLINE
  5
2D9
100
AcDbEntity
  8
0
100
AcDbSpline
 62
7
  6
BYLAYER
 70
0
 71
3
 72
14
 73
10
 74
0
 42
0.0000001
 43
0.0000001
 44
0.0000000001
 40
0.0
 40
0.0
 40
0.0
 40
0.0
 40
0.2601179917
 40
0.3931230609
 40
0.5249810849
 40
0.6534604209
 40
0.7765267523
 40
0.8924566242
 40
1.0
 40
1.0
 40
1.0
 40
1.0
 10
44.2402573631
 20
115.8331767656
 30
0.0
 10
44.0059505545
 20
116.6372806786
 30
0.0
 10
43.5233281339
 20
117.8187298582
 30
0.0
 10
42.6767240821
 20
119.2833588871
 30
0.0
 10
41.9430480564
 20
120.3182661278
 30
0.0
 10
41.1347557083
 20
121.2539225557
 30
0.0
 10
40.2719529495
 20
122.067044157
 30
0.0
 10
39.3765063977
 20
122.7369279432
 30
0.0
 10
38.7468132052
 20
123.0910964965
 30
0.0
 10
38.4324238704
 20
123.2362380716
 30
0.0
  0
SPLINE
  5
2DA
100
AcDbEntity
  8
0
100
AcDbSpline
 62
7
  6
BYLAYER
 70
0
 71
3
 72
20
 73
16
 74
0
 42
0.0000001
 43
0.0000001
 44
0.0000000001
 40
0.0
 40
0.0
 40
0.0
 40
0.0
 40
0.1416371326
 40
0.2890173345
 40
0.4357525944
 40
0.5069363366
 40
0.5756540869
 40
0.6412833289
 40
0.7033290701
 40
0.7614643312
 40
0.8155779613
 40
0.8658296289
 40
0.9127026442
 40
0.957037307
 40
1.0
 40
1.0
 40
1.0
 40
1.0
 10
44.6223335778
 20
112.873988392
 30
0.0
 10
44.3934651592
 20
113.8728126761
 30
0.0
 10
43.7440694649
 20
115.8719494412
 30
0.0
 10
42.3250991223
 20
118.6984544505
 30
0.0
 10
40.8021666929
 20
120.8720583922
 30
0.0
 10
39.4202690681
 20
122.4208067073
 30
0.0
 10
38.3405068579
 20
123.4458998429
 30
0.0
 10
37.2249277188
 20
124.3292036512
 30
0.0
 10
36.0913414904
 20
125.0563813344
 30
0.0
 10
34.9577246857
 20
125.6154771557
 30
0.0
 10
33.8417201325
 20
125.9969752977
 30
0.0
 10
32.7605942582
 20
126.193639065
 30
0.0
 10
31.7311976687
 20
126.2001280535
 30
0.0
 10
30.7717238743
 20
126.0136078097
 30
0.0
 10
30.1869901438
 20
125.7590260362
 30
0.0
 10
29.9178042965
 20
125.6036204208
 30
0.0
  0
SPLINE
  5
2DB
100
AcDbEntity
  8
0
100
AcDbSpline
 62
7
  6
BYLAYER
 70
0
 71
3
 72
9
 73
5
 74
0
 42
0.0000001
 43
0.0000001
 44
0.0000000001
 40
0.0
 40
0.0
 40
0.0
 40
0.0
 40
0.231407616
 40
1.0
 40
1.0
 40
1.0
 40
1.0
 10
26.3741034503
 20
122.4738785721
 30
0.0
 10
26.3613107713
 20
122.4812642836
 30
0.0
 10
26.3077459891
 20
122.5161166274
 30
0.0
 10
26.2620800278
 20
122.5626950159
 30
0.0
 10
26.2329148572
 20
122.6021474419
 30
0.0
  0
SPLINE
  5
2DC
100
AcDbEntity
  8
0
100
AcDbSpline
 62
7
  6
BYLAYER
 70
0
 71
3
 72
11
 73
7
 74
0
 42
0.0000001
 43
0.0000001
 44
0.0000000001
 40
0.0
 40
0.0
 40
0.0
 40
0.0
 40
0.2169541692
 40
0.4783316347
 40
0.7520134533
 40
1.0
 40
1.0
 40
1.0
 40
1.0
 10
44.6223335778
 20
106.9203249338
 30
0.0
 10
44.6404630392
 20
106.9785116452
 30
0.0
 10
44.641514275
 20
107.1179855133
 30
0.0
 10
44.5754843003
 20
107.3207781502
 30
0.0
 10
44.4559125821
 20
107.5080321271
 30
0.0
 10
44.3444816208
 20
107.6080636846
 30
0.0
 10
44.2841512723
 20
107.6428946396
 30
0.0
  0
SPLINE
  5
2DD
100
AcDbEntity
  8
0
100
AcDbSpline
 62
7
  6
BYLAYER
 70
0
 71
3
 72
11
 73
7
 74
0
 42
0.0000001
 43
0.0000001
 44
0.0000000001
 40
0.0
 40
0.0
 40
0.0
 40
0.0
 40
0.2894309032
 40
0.5491252046
 40
0.7822966532
 40
1.0
 40
1.0
 40
1.0
 40
1.0
 10
28.6261929775
 20
115.0498117314
 30
0.0
 10
28.6042747583
 20
115.0624659349
 30
0.0
 10
28.5606135096
 20
115.0831888502
 30
0.0
 10
28.4935431415
 20
115.0994557074
 30
0.0
 10
28.4305719995
 20
115.0978486873
 30
0.0
 10
28.3926874444
 20
115.0840802539
 30
0.0
 10
28.3762063538
 20
115.074552883
 30
0.0
  0
SPLINE
  5
2DE
100
AcDbEntity
  8
0
100
AcDbSpline
 62
7
  6
BYLAYER
 70
0
 71
3
 72
11
 73
7
 74
0
 42
0.0000001
 43
0.0000001
 44
0.0000000001
 40
0.0
 40
0.0
 40
0.0
 40
0.0
 40
0.2376452235
 40
0.4800836148
 40
0.7325667989
 40
1.0
 40
1.0
 40
1.0
 40
1.0
 10
75.5899392388
 20
132.1868987895
 30
0.0
 10
75.6379058059
 20
132.1591933152
 30
0.0
 10
75.7275342911
 20
132.0894526324
 30
0.0
 10
75.8298721754
 20
131.9501740278
 30
0.0
 10
75.8935338137
 20
131.7820879331
 30
0.0
 10
75.9068761851
 20
131.6603080801
 30
0.0
 10
75.9070557523
 20
131.5979720205
 30
0.0
  0
SPLINE
  5
2DF
100
AcDbEntity
  8
0
100
AcDbSpline
 62
7
  6
BYLAYER
 70
0
 71
3
 72
15
 73
11
 74
0
 42
0.0000001
 43
0.0000001
 44
0.0000000001
 40
0.0
 40
0.0
 40
0.0
 40
0.0
 40
0.1335438346
 40
0.2577464982
 40
0.3750032965
 40
0.4888838654
 40
0.6037661714
 40
0.724618645
 40
0.8558872858
 40
1.0
 40
1.0
 40
1.0
 40
1.0
 10
76.6141625331
 20
131.5979739077
 30
0.0
 10
76.6145584706
 20
131.7001024752
 30
0.0
 10
76.5935640295
 20
131.898278907
 30
0.0
 10
76.4924946792
 20
132.1701719925
 30
0.0
 10
76.3275848739
 20
132.3913715666
 30
0.0
 10
76.1072598552
 20
132.5464065469
 30
0.0
 10
75.8450184063
 20
132.6206552687
 30
0.0
 10
75.5598153629
 20
132.6030159844
 30
0.0
 10
75.2738096801
 20
132.4908934483
 30
0.0
 10
75.1029460667
 20
132.3638254034
 30
0.0
 10
75.0216407405
 20
132.2894202081
 30
0.0
  0
SPLINE
  5
2E0
100
AcDbEntity
  8
0
100
AcDbSpline
 62
7
  6
BYLAYER
 70
0
 71
3
 72
15
 73
11
 74
0
 42
0.0000001
 43
0.0000001
 44
0.0000000001
 40
0.0
 40
0.0
 40
0.0
 40
0.0
 40
0.1335438346
 40
0.2577464982
 40
0.3750032965
 40
0.4888838654
 40
0.6037661714
 40
0.724618645
 40
0.8558872858
 40
1.0
 40
1.0
 40
1.0
 40
1.0
 10
69.543124161
 20
127.515532369
 30
0.0
 10
69.5435200984
 20
127.6176609365
 30
0.0
 10
69.5225256573
 20
127.8158373683
 30
0.0
 10
69.4214563071
 20
128.0877304538
 30
0.0
 10
69.2565465018
 20
128.3089300278
 30
0.0
 10
69.0362214831
 20
128.4639650082
 30
0.0
 10
68.7739800342
 20
128.53821373
 30
0.0
 10
68.4887769908
 20
128.5205744457
 30
0.0
 10
68.202771308
 20
128.4084519095
 30
0.0
 10
68.0319076946
 20
128.2813838646
 30
0.0
 10
67.9506023683
 20
128.2069786694
 30
0.0
  0
SPLINE
  5
2E1
100
AcDbEntity
  8
0
100
AcDbSpline
 62
7
  6
BYLAYER
 70
0
 71
3
 72
9
 73
5
 74
0
 42
0.0000001
 43
0.0000001
 44
0.0000000001
 40
0.0
 40
0.0
 40
0.0
 40
0.0
 40
0.2560178093
 40
1.0
 40
1.0
 40
1.0
 40
1.0
 10
52.9968772213
 20
117.9539920495
 30
0.0
 10
52.9968766621
 20
117.9414879248
 30
0.0
 10
52.9972884931
 20
117.8926484379
 30
0.0
 10
52.99937518
 20
117.8438192206
 30
0.0
 10
53.0019755032
 20
117.8075756673
 30
0.0
  0
SPLINE
  5
2E2
100
AcDbEntity
  8
0
100
AcDbSpline
 62
7
  6
BYLAYER
 70
0
 71
3
 72
21
 73
17
 74
0
 42
0.0000001
 43
0.0000001
 44
0.0000000001
 40
0.0
 40
0.0
 40
0.0
 40
0.0
 40
0.0577275146
 40
0.1074430968
 40
0.1501957508
 40
0.1890486089
 40
0.2289881359
 40
0.2749869923
 40
0.3298713983
 40
0.3940514166
 40
0.4661301201
 40
0.5436698089
 40
0.6239801025
 40
0.7046813723
 40
0.8598170748
 40
1.0
 40
1.0
 40
1.0
 40
1.0
 10
53.0019755032
 20
117.8075756673
 30
0.0
 10
53.0076569908
 20
117.728386551
 30
0.0
 10
53.027358706
 20
117.5813179409
 30
0.0
 10
53.0894204146
 20
117.3829107516
 30
0.0
 10
53.1856127951
 20
117.2267769367
 30
0.0
 10
53.3214829133
 20
117.1218531528
 30
0.0
 10
53.4925433901
 20
117.0802859663
 30
0.0
 10
53.6877443261
 20
117.1008303427
 30
0.0
 10
53.9031152366
 20
117.1768080348
 30
0.0
 10
54.1340718757
 20
117.3041982894
 30
0.0
 10
54.3722193266
 20
117.4777423755
 30
0.0
 10
54.6068886633
 20
117.6905073125
 30
0.0
 10
54.8270880284
 20
117.9345090267
 30
0.0
 10
55.0841427886
 20
118.285961322
 30
0.0
 10
55.3208499257
 20
118.7509512192
 30
0.0
 10
55.4014323935
 20
119.1578560616
 30
0.0
 10
55.4010474167
 20
119.3506492916
 30
0.0
  0
SPLINE
  5
2E3
100
AcDbEntity
  8
0
100
AcDbSpline
 62
7
  6
BYLAYER
 70
0
 71
3
 72
9
 73
5
 74
0
 42
0.0000001
 43
0.0000001
 44
0.0000000001
 40
0.0
 40
0.0
 40
0.0
 40
0.0
 40
0.2560178093
 40
1.0
 40
1.0
 40
1.0
 40
1.0
 10
74.2099923377
 20
130.2013166656
 30
0.0
 10
74.2099917785
 20
130.1888125409
 30
0.0
 10
74.2104036095
 20
130.139973054
 30
0.0
 10
74.2124902964
 20
130.0911438368
 30
0.0
 10
74.2150906196
 20
130.0549002835
 30
0.0
  0
SPLINE
  5
2E4
100
AcDbEntity
  8
0
100
AcDbSpline
 62
7
  6
BYLAYER
 70
0
 71
3
 72
21
 73
17
 74
0
 42
0.0000001
 43
0.0000001
 44
0.0000000001
 40
0.0
 40
0.0
 40
0.0
 40
0.0
 40
0.0577275146
 40
0.1074430968
 40
0.1501957508
 40
0.1890486089
 40
0.2289881359
 40
0.2749869923
 40
0.3298713983
 40
0.3940514166
 40
0.4661301201
 40
0.5436698089
 40
0.6239801025
 40
0.7046813723
 40
0.8598170748
 40
1.0
 40
1.0
 40
1.0
 40
1.0
 10
74.2150906196
 20
130.0549002835
 30
0.0
 10
74.2207721072
 20
129.9757111671
 30
0.0
 10
74.2404738224
 20
129.8286425571
 30
0.0
 10
74.302535531
 20
129.6302353678
 30
0.0
 10
74.3987279115
 20
129.4741015528
 30
0.0
 10
74.5345980297
 20
129.3691777689
 30
0.0
 10
74.7056585065
 20
129.3276105825
 30
0.0
 10
74.9008594426
 20
129.3481549588
 30
0.0
 10
75.116230353
 20
129.4241326509
 30
0.0
 10
75.3471869921
 20
129.5515229056
 30
0.0
 10
75.585334443
 20
129.7250669916
 30
0.0
 10
75.8200037797
 20
129.9378319287
 30
0.0
 10
76.0402031448
 20
130.1818336429
 30
0.0
 10
76.297257905
 20
130.5332859381
 30
0.0
 10
76.5339650417
 20
130.9982758354
 30
0.0
 10
76.6145475106
 20
131.4051806777
 30
0.0
 10
76.6141625331
 20
131.5979739077
 30
0.0
  0
SPLINE
  5
2E5
100
AcDbEntity
  8
0
100
AcDbSpline
 62
7
  6
BYLAYER
 70
0
 71
3
 72
14
 73
10
 74
0
 42
0.0000001
 43
0.0000001
 44
0.0000000001
 40
0.0
 40
0.0
 40
0.0
 40
0.0
 40
0.1146989112
 40
0.2319220578
 40
0.3524657403
 40
0.4764772598
 40
0.7333666606
 40
0.8657318288
 40
1.0
 40
1.0
 40
1.0
 40
1.0
 10
35.1077606548
 20
115.416595544
 30
0.0
 10
34.912153111
 20
115.3341648727
 30
0.0
 10
34.4967521572
 20
115.2115179677
 30
0.0
 10
33.8429774108
 20
115.1574153678
 30
0.0
 10
33.173376332
 20
115.2205369284
 30
0.0
 10
32.2701739873
 20
115.4446727064
 30
0.0
 10
31.399226216
 20
115.8454055057
 30
0.0
 10
30.5810551958
 20
116.3649920232
 30
0.0
 10
30.1861765561
 20
116.6620179351
 30
0.0
 10
29.9931734403
 20
116.818521193
 30
0.0
  0
SPLINE
  5
2E6
100
AcDbEntity
  8
0
100
AcDbSpline
 62
7
  6
BYLAYER
 70
0
 71
3
 72
17
 73
13
 74
0
 42
0.0000001
 43
0.0000001
 44
0.0000000001
 40
0.0
 40
0.0
 40
0.0
 40
0.0
 40
0.1305678366
 40
0.273384728
 40
0.4241483884
 40
0.5752157967
 40
0.7162395483
 40
0.8361679165
 40
0.8859440306
 40
0.9288710683
 40
0.966088527
 40
1.0
 40
1.0
 40
1.0
 40
1.0
 10
54.6939406342
 20
119.3506474053
 30
0.0
 10
54.693824537
 20
119.2491820109
 30
0.0
 10
54.6558898414
 20
119.0361867171
 30
0.0
 10
54.5142793051
 20
118.7357437684
 30
0.0
 10
54.3086053951
 20
118.4560018632
 30
0.0
 10
54.0646877459
 20
118.2116151411
 30
0.0
 10
53.8102663292
 20
118.0160611564
 30
0.0
 10
53.5986028184
 20
117.8965544885
 30
0.0
 10
53.4421337136
 20
117.8419724112
 30
0.0
 10
53.3421352443
 20
117.8242328119
 30
0.0
 10
53.2526360504
 20
117.8285030938
 30
0.0
 10
53.1996683257
 20
117.8479375265
 30
0.0
 10
53.1768500371
 20
117.861120921
 30
0.0
  0
SPLINE
  5
2E7
100
AcDbEntity
  8
0
100
AcDbSpline
 62
7
  6
BYLAYER
 70
0
 71
3
 72
17
 73
13
 74
0
 42
0.0000001
 43
0.0000001
 44
0.0000000001
 40
0.0
 40
0.0
 40
0.0
 40
0.0
 40
0.1305678366
 40
0.273384728
 40
0.4241483884
 40
0.5752157967
 40
0.7162395483
 40
0.8361679165
 40
0.8859440306
 40
0.9288710683
 40
0.966088527
 40
1.0
 40
1.0
 40
1.0
 40
1.0
 10
68.8360173785
 20
127.5155304827
 30
0.0
 10
68.835901286
 20
127.4140650883
 30
0.0
 10
68.7979665829
 20
127.2010697947
 30
0.0
 10
68.6563560503
 20
126.9006268457
 30
0.0
 10
68.4506821391
 20
126.6208849407
 30
0.0
 10
68.2067644902
 20
126.3764982185
 30
0.0
 10
67.9523430734
 20
126.1809442339
 30
0.0
 10
67.7406795626
 20
126.0614375659
 30
0.0
 10
67.5842104579
 20
126.0068554886
 30
0.0
 10
67.4842119886
 20
125.9891158893
 30
0.0
 10
67.3947127946
 20
125.9933861712
 30
0.0
 10
67.34174507
 20
126.012820604
 30
0.0
 10
67.3189267814
 20
126.0260039984
 30
0.0
  0
SPLINE
  5
2E8
100
AcDbEntity
  8
0
100
AcDbSpline
 62
7
  6
BYLAYER
 70
0
 71
3
 72
17
 73
13
 74
0
 42
0.0000001
 43
0.0000001
 44
0.0000000001
 40
0.0
 40
0.0
 40
0.0
 40
0.0
 40
0.1305678365
 40
0.273384728
 40
0.4241483884
 40
0.5752157967
 40
0.7162395483
 40
0.8361679165
 40
0.8859440306
 40
0.9288710683
 40
0.966088527
 40
1.0
 40
1.0
 40
1.0
 40
1.0
 10
75.9070557506
 20
131.5979720214
 30
0.0
 10
75.9069396607
 20
131.4965066271
 30
0.0
 10
75.8690049535
 20
131.2835113335
 30
0.0
 10
75.7273944229
 20
130.9830683844
 30
0.0
 10
75.5217205111
 20
130.7033264794
 30
0.0
 10
75.2778028624
 20
130.4589397572
 30
0.0
 10
75.0233814455
 20
130.2633857726
 30
0.0
 10
74.8117179348
 20
130.1438791046
 30
0.0
 10
74.6552488301
 20
130.0892970273
 30
0.0
 10
74.5552503607
 20
130.071557428
 30
0.0
 10
74.4657511668
 20
130.0758277099
 30
0.0
 10
74.4127834421
 20
130.0952621427
 30
0.0
 10
74.3899651535
 20
130.1084455372
 30
0.0
  0
SPLINE
  5
2E9
100
AcDbEntity
  8
0
100
AcDbSpline
 62
7
  6
BYLAYER
 70
0
 71
3
 72
17
 73
13
 74
0
 42
0.0000001
 43
0.0000001
 44
0.0000000001
 40
0.0
 40
0.0
 40
0.0
 40
0.0
 40
0.1305678366
 40
0.273384728
 40
0.4241483884
 40
0.5752157967
 40
0.7162395483
 40
0.8361679165
 40
0.8859440306
 40
0.9288710683
 40
0.966088527
 40
1.0
 40
1.0
 40
1.0
 40
1.0
 10
61.7649790063
 20
123.433088944
 30
0.0
 10
61.764862913
 20
123.3316235496
 30
0.0
 10
61.7269282112
 20
123.1186282559
 30
0.0
 10
61.585317678
 20
122.818185307
 30
0.0
 10
61.379643767
 20
122.538443402
 30
0.0
 10
61.1357261181
 20
122.2940566798
 30
0.0
 10
60.8813047013
 20
122.0985026951
 30
0.0
 10
60.6696411905
 20
121.9789960272
 30
0.0
 10
60.5131720858
 20
121.9244139499
 30
0.0
 10
60.4131736165
 20
121.9066743506
 30
0.0
 10
60.3236744225
 20
121.9109446325
 30
0.0
 10
60.2707066978
 20
121.9303790652
 30
0.0
 10
60.2478884093
 20
121.9435624597
 30
0.0
  0
SPLINE
  5
2EA
100
AcDbEntity
  8
0
100
AcDbSpline
 62
7
  6
BYLAYER
 70
0
 71
3
 72
15
 73
11
 74
0
 42
0.0000001
 43
0.0000001
 44
0.0000000001
 40
0.0
 40
0.0
 40
0.0
 40
0.0
 40
0.1335438346
 40
0.2577464982
 40
0.3750032965
 40
0.4888838654
 40
0.6037661714
 40
0.724618645
 40
0.8558872858
 40
1.0
 40
1.0
 40
1.0
 40
1.0
 10
62.4720857888
 20
123.4330908303
 30
0.0
 10
62.4724817263
 20
123.5352193977
 30
0.0
 10
62.4514872852
 20
123.7333958296
 30
0.0
 10
62.3504179349
 20
124.005288915
 30
0.0
 10
62.1855081296
 20
124.2264884891
 30
0.0
 10
61.9651831109
 20
124.3815234695
 30
0.0
 10
61.702941662
 20
124.4557721913
 30
0.0
 10
61.4177386186
 20
124.438132907
 30
0.0
 10
61.1317329359
 20
124.3260103708
 30
0.0
 10
60.9608693225
 20
124.1989423259
 30
0.0
 10
60.8795639962
 20
124.1245371306
 30
0.0
  0
SPLINE
  5
2EB
100
AcDbEntity
  8
0
100
AcDbSpline
 62
7
  6
BYLAYER
 70
0
 71
3
 72
12
 73
8
 74
0
 42
0.0000001
 43
0.0000001
 44
0.0000000001
 40
0.0
 40
0.0
 40
0.0
 40
0.0
 40
0.027482813
 40
0.0807416067
 40
0.2735301086
 40
0.5825374013
 40
1.0
 40
1.0
 40
1.0
 40
1.0
 10
26.14109256
 20
111.8684688696
 30
0.0
 10
26.1412195281
 20
111.869339466
 30
0.0
 10
26.1435159999
 20
111.8711763711
 30
0.0
 10
26.1511610105
 20
111.8747649466
 30
0.0
 10
26.16854398
 20
111.8799393278
 30
0.0
 10
26.1969653771
 20
111.8867837014
 30
0.0
 10
26.2198052718
 20
111.8915087884
 30
0.0
 10
26.2329148571
 20
111.8941051362
 30
0.0
  0
SPLINE
  5
2EC
100
AcDbEntity
  8
0
100
AcDbSpline
 62
7
  6
BYLAYER
 70
0
 71
3
 72
9
 73
5
 74
0
 42
0.0000001
 43
0.0000001
 44
0.0000000001
 40
0.0
 40
0.0
 40
0.0
 40
0.0
 40
0.5008070325
 40
1.0
 40
1.0
 40
1.0
 40
1.0
 10
28.7431450296
 20
117.3074529608
 30
0.0
 10
28.9330263186
 20
117.1862908026
 30
0.0
 10
29.3346355166
 20
116.9774558609
 30
0.0
 10
29.7714672987
 20
116.8538941735
 30
0.0
 10
29.9931828968
 20
116.8185266542
 30
0.0
  0
SPLINE
  5
2ED
100
AcDbEntity
  8
0
100
AcDbSpline
 62
7
  6
BYLAYER
 70
0
 71
3
 72
11
 73
7
 74
0
 42
0.0000001
 43
0.0000001
 44
0.0000000001
 40
0.0
 40
0.0
 40
0.0
 40
0.0
 40
0.2376452235
 40
0.4800836148
 40
0.7325667989
 40
1.0
 40
1.0
 40
1.0
 40
1.0
 10
68.5189008667
 20
128.1044572508
 30
0.0
 10
68.5668674338
 20
128.0767517765
 30
0.0
 10
68.6564959189
 20
128.0070110937
 30
0.0
 10
68.7588338032
 20
127.8677324891
 30
0.0
 10
68.8224954416
 20
127.6996463944
 30
0.0
 10
68.8358378129
 20
127.5778665414
 30
0.0
 10
68.8360173801
 20
127.5155304817
 30
0.0
  0
SPLINE
  5
2EE
100
AcDbEntity
  8
0
100
AcDbSpline
 62
7
  6
BYLAYER
 70
0
 71
3
 72
15
 73
11
 74
0
 42
0.0000001
 43
0.0000001
 44
0.0000000001
 40
0.0
 40
0.0
 40
0.0
 40
0.0
 40
0.1335438346
 40
0.2577464982
 40
0.3750032965
 40
0.4888838654
 40
0.6037661714
 40
0.724618645
 40
0.8558872858
 40
1.0
 40
1.0
 40
1.0
 40
1.0
 10
55.4010474167
 20
119.3506492916
 30
0.0
 10
55.4014433541
 20
119.452777859
 30
0.0
 10
55.3804489131
 20
119.6509542909
 30
0.0
 10
55.2793795628
 20
119.9228473763
 30
0.0
 10
55.1144697575
 20
120.1440469504
 30
0.0
 10
54.8941447388
 20
120.2990819308
 30
0.0
 10
54.6319032899
 20
120.3733306526
 30
0.0
 10
54.3467002465
 20
120.3556913683
 30
0.0
 10
54.0606945637
 20
120.2435688321
 30
0.0
 10
53.8898309503
 20
120.1165007872
 30
0.0
 10
53.8085256241
 20
120.0420955919
 30
0.0
  0
SPLINE
  5
2EF
100
AcDbEntity
  8
0
100
AcDbSpline
 62
7
  6
BYLAYER
 70
0
 71
3
 72
9
 73
5
 74
0
 42
0.0000001
 43
0.0000001
 44
0.0000000001
 40
0.0
 40
0.0
 40
0.0
 40
0.0
 40
0.2560178093
 40
1.0
 40
1.0
 40
1.0
 40
1.0
 10
67.1389539656
 20
126.1188751269
 30
0.0
 10
67.1389534063
 20
126.1063710022
 30
0.0
 10
67.1393652374
 20
126.0575315153
 30
0.0
 10
67.1414519243
 20
126.0087022981
 30
0.0
 10
67.1440522475
 20
125.9724587448
 30
0.0
  0
SPLINE
  5
2F0
100
AcDbEntity
  8
0
100
AcDbSpline
 62
7
  6
BYLAYER
 70
0
 71
3
 72
21
 73
17
 74
0
 42
0.0000001
 43
0.0000001
 44
0.0000000001
 40
0.0
 40
0.0
 40
0.0
 40
0.0
 40
0.0577275146
 40
0.1074430968
 40
0.1501957508
 40
0.1890486089
 40
0.2289881359
 40
0.2749869923
 40
0.3298713983
 40
0.3940514166
 40
0.4661301201
 40
0.5436698089
 40
0.6239801025
 40
0.7046813723
 40
0.8598170748
 40
1.0
 40
1.0
 40
1.0
 40
1.0
 10
67.1440522475
 20
125.9724587448
 30
0.0
 10
67.149733735
 20
125.8932696284
 30
0.0
 10
67.1694354503
 20
125.7462010184
 30
0.0
 10
67.2314971589
 20
125.547793829
 30
0.0
 10
67.3276895394
 20
125.3916600141
 30
0.0
 10
67.4635596576
 20
125.2867362302
 30
0.0
 10
67.6346201343
 20
125.2451690437
 30
0.0
 10
67.8298210704
 20
125.2657134201
 30
0.0
 10
68.0451919808
 20
125.3416911122
 30
0.0
 10
68.2761486199
 20
125.4690813668
 30
0.0
 10
68.5142960709
 20
125.6426254529
 30
0.0
 10
68.7489654075
 20
125.8553903899
 30
0.0
 10
68.9691647726
 20
126.0993921042
 30
0.0
 10
69.2262195329
 20
126.4508443994
 30
0.0
 10
69.4629266695
 20
126.9158342967
 30
0.0
 10
69.5435091385
 20
127.322739139
 30
0.0
 10
69.543124161
 20
127.515532369
 30
0.0
  0
SPLINE
  5
2F1
100
AcDbEntity
  8
0
100
AcDbSpline
 62
7
  6
BYLAYER
 70
0
 71
3
 72
11
 73
7
 74
0
 42
0.0000001
 43
0.0000001
 44
0.0000000001
 40
0.0
 40
0.0
 40
0.0
 40
0.0
 40
0.2624665784
 40
0.5360233254
 40
0.7916535588
 40
1.0
 40
1.0
 40
1.0
 40
1.0
 10
41.8233914581
 20
112.6589090018
 30
0.0
 10
41.7834979012
 20
112.6078666394
 30
0.0
 10
41.6904848282
 20
112.5124605973
 30
0.0
 10
41.5306697555
 20
112.3980783308
 30
0.0
 10
41.3647284594
 20
112.321411258
 30
0.0
 10
41.2488051894
 20
112.3006676565
 30
0.0
 10
41.1975765175
 20
112.3051540753
 30
0.0
  0
SPLINE
  5
2F2
100
AcDbEntity
  8
0
100
AcDbSpline
 62
7
  6
BYLAYER
 70
0
 71
3
 72
20
 73
16
 74
0
 42
0.0000001
 43
0.0000001
 44
0.0000000001
 40
0.0
 40
0.0
 40
0.0
 40
0.0
 40
0.0451516189
 40
0.0894611636
 40
0.1345251688
 40
0.1818270402
 40
0.2324977547
 40
0.2872432645
 40
0.3463581873
 40
0.4097904466
 40
0.4772113069
 40
0.5480782615
 40
0.6970952036
 40
0.8502072287
 40
1.0
 40
1.0
 40
1.0
 40
1.0
 10
26.2329148572
 20
122.6021474419
 30
0.0
 10
26.4379497647
 20
122.8466351666
 30
0.0
 10
26.8980535329
 20
123.2895206253
 30
0.0
 10
27.7256977672
 20
123.7746992005
 30
0.0
 10
28.6584560082
 20
124.056772405
 30
0.0
 10
29.6737101125
 20
124.1318680388
 30
0.0
 10
30.7509723097
 20
124.00235732
 30
0.0
 10
31.8709937788
 20
123.673716198
 30
0.0
 10
33.0147413651
 20
123.1535222778
 30
0.0
 10
34.1626186403
 20
122.4518341256
 30
0.0
 10
35.294717648
 20
121.5814522048
 30
0.0
 10
36.7805307687
 20
120.1940860448
 30
0.0
 10
38.4612924622
 20
118.1460977882
 30
0.0
 10
40.0861155668
 20
115.3836537687
 30
0.0
 10
40.8776253249
 20
113.3824391848
 30
0.0
 10
41.1791158288
 20
112.3677087553
 30
0.0
  0
SPLINE
  5
2F3
100
AcDbEntity
  8
0
100
AcDbSpline
 62
7
  6
BYLAYER
 70
0
 71
3
 72
9
 73
5
 74
0
 42
0.0000001
 43
0.0000001
 44
0.0000000001
 40
0.0
 40
0.0
 40
0.0
 40
0.0
 40
0.2719679734
 40
1.0
 40
1.0
 40
1.0
 40
1.0
 10
41.0996448225
 20
112.3392707946
 30
0.0
 10
41.1078201107
 20
112.3345520917
 30
0.0
 10
41.1384696739
 20
112.3183886017
 30
0.0
 10
41.1724046097
 20
112.3073585385
 30
0.0
 10
41.1975765175
 20
112.3051540753
 30
0.0
  0
SPLINE
  5
2F4
100
AcDbEntity
  8
0
100
AcDbSpline
 62
7
  6
BYLAYER
 70
0
 71
3
 72
10
 73
6
 74
0
 42
0.0000001
 43
0.0000001
 44
0.0000000001
 40
0.0
 40
0.0
 40
0.0
 40
0.0
 40
0.2788023714
 40
0.5433931973
 40
1.0
 40
1.0
 40
1.0
 40
1.0
 10
43.0010199623
 20
111.9379281272
 30
0.0
 10
42.9969646477
 20
111.8915883009
 30
0.0
 10
42.9814315278
 20
111.8014816958
 30
0.0
 10
42.9247847611
 20
111.6449782462
 30
0.0
 10
42.8460261073
 20
111.5425449765
 30
0.0
 10
42.7800627538
 20
111.5044312445
 30
0.0
  0
SPLINE
  5
2F5
100
AcDbEntity
  8
0
100
AcDbSpline
 62
7
  6
BYLAYER
 70
0
 71
3
 72
11
 73
7
 74
0
 42
0.0000001
 43
0.0000001
 44
0.0000000001
 40
0.0
 40
0.0
 40
0.0
 40
0.0
 40
0.2376452235
 40
0.4800836148
 40
0.7325667989
 40
1.0
 40
1.0
 40
1.0
 40
1.0
 10
54.3768241224
 20
119.9395741734
 30
0.0
 10
54.4247906895
 20
119.9118686991
 30
0.0
 10
54.5144191747
 20
119.8421280163
 30
0.0
 10
54.616757059
 20
119.7028494117
 30
0.0
 10
54.6804186973
 20
119.534763317
 30
0.0
 10
54.6937610687
 20
119.412983464
 30
0.0
 10
54.6939406358
 20
119.3506474043
 30
0.0
  0
SPLINE
  5
2F6
100
AcDbEntity
  8
0
100
AcDbSpline
 62
7
  6
BYLAYER
 70
0
 71
3
 72
11
 73
7
 74
0
 42
0.0000001
 43
0.0000001
 44
0.0000000001
 40
0.0
 40
0.0
 40
0.0
 40
0.0
 40
0.2376452235
 40
0.4800836148
 40
0.7325667989
 40
1.0
 40
1.0
 40
1.0
 40
1.0
 10
61.4478624946
 20
124.0220157121
 30
0.0
 10
61.4958290616
 20
123.9943102378
 30
0.0
 10
61.5854575468
 20
123.924569555
 30
0.0
 10
61.6877954311
 20
123.7852909504
 30
0.0
 10
61.7514570694
 20
123.6172048557
 30
0.0
 10
61.7647994408
 20
123.4954250027
 30
0.0
 10
61.764979008
 20
123.433088943
 30
0.0
  0
SPLINE
  5
2F7
100
AcDbEntity
  8
0
100
AcDbSpline
 62
7
  6
BYLAYER
 70
0
 71
3
 72
12
 73
8
 74
0
 42
0.0000001
 43
0.0000001
 44
0.0000000001
 40
0.0
 40
0.0
 40
0.0
 40
0.0
 40
0.078788265
 40
0.178976747
 40
0.4325129506
 40
0.7255270325
 40
1.0
 40
1.0
 40
1.0
 40
1.0
 10
43.0010199622
 20
105.9842646689
 30
0.0
 10
42.9971655759
 20
106.0043169256
 30
0.0
 10
42.9827636406
 20
106.048717868
 30
0.0
 10
42.9351227002
 20
106.1503042664
 30
0.0
 10
42.8433206696
 20
106.2914520049
 30
0.0
 10
42.7076694886
 20
106.4556903005
 30
0.0
 10
42.6011971551
 20
106.5581006103
 30
0.0
 10
42.5455497388
 20
106.6024116433
 30
0.0
  0
SPLINE
  5
2F8
100
AcDbEntity
  8
0
100
AcDbSpline
 62
7
  6
BYLAYER
 70
0
 71
3
 72
11
 73
7
 74
0
 42
0.0000001
 43
0.0000001
 44
0.0000000001
 40
0.0
 40
0.0
 40
0.0
 40
0.0
 40
0.1917482507
 40
0.4347082515
 40
0.7144247805
 40
1.0
 40
1.0
 40
1.0
 40
1.0
 10
41.8233577519
 20
104.6519337008
 30
0.0
 10
41.7802498907
 20
104.6392151414
 30
0.0
 10
41.6750306586
 20
104.6381690768
 30
0.0
 10
41.5132835691
 20
104.6856871686
 30
0.0
 10
41.3457412257
 20
104.7769723528
 30
0.0
 10
41.2433552211
 20
104.8629573634
 30
0.0
 10
41.1975710047
 20
104.9117881657
 30
0.0
  0
SPLINE
  5
2F9
100
AcDbEntity
  8
0
100
AcDbSpline
 62
7
  6
BYLAYER
 70
0
 71
3
 72
11
 73
7
 74
0
 42
0.0000001
 43
0.0000001
 44
0.0000000001
 40
0.0
 40
0.0
 40
0.0
 40
0.0
 40
0.2637389151
 40
0.5161168375
 40
0.7602021556
 40
1.0
 40
1.0
 40
1.0
 40
1.0
 10
41.8233958077
 20
104.6519098851
 30
0.0
 10
41.715742195
 20
104.422556968
 30
0.0
 10
41.4763076674
 20
103.9863628038
 30
0.0
 10
41.0357471041
 20
103.4006032659
 30
0.0
 10
40.5262703989
 20
102.9058255642
 30
0.0
 10
40.1423711039
 20
102.6393031743
 30
0.0
 10
39.9428715082
 20
102.5241216783
 30
0.0
  0
SPLINE
  5
2FA
100
AcDbEntity
  8
0
100
AcDbSpline
 62
7
  6
BYLAYER
 70
0
 71
3
 72
21
 73
17
 74
0
 42
0.0000001
 43
0.0000001
 44
0.0000000001
 40
0.0
 40
0.0
 40
0.0
 40
0.0
 40
0.0532448555
 40
0.1037267396
 40
0.1524289556
 40
0.2005896758
 40
0.249495676
 40
0.3003436353
 40
0.3541034004
 40
0.4114543887
 40
0.472781987
 40
0.5382059437
 40
0.6076235556
 40
0.6807510116
 40
0.8361859035
 40
1.0
 40
1.0
 40
1.0
 40
1.0
 10
41.1975765174
 20
104.911786537
 30
0.0
 10
41.0771663697
 20
104.6400196797
 30
0.0
 10
40.8021194927
 20
104.1269669327
 30
0.0
 10
40.2726266295
 20
103.4548512297
 30
0.0
 10
39.6449578297
 20
102.914753812
 30
0.0
 10
38.9288683978
 20
102.5164385833
 30
0.0
 10
38.1362091156
 20
102.2665099977
 30
0.0
 10
37.2801680486
 20
102.167675298
 30
0.0
 10
36.3735516041
 20
102.2195523709
 30
0.0
 10
35.4286676463
 20
102.4198429208
 30
0.0
 10
34.4577266577
 20
102.7647977887
 30
0.0
 10
33.473155877
 20
103.2492070991
 30
0.0
 10
32.4875857829
 20
103.866351489
 30
0.0
 10
31.1627876616
 20
104.8756315472
 30
0.0
 10
29.5945567716
 20
106.4183645738
 30
0.0
 10
28.5108854266
 20
107.8411867978
 30
0.0
 10
28.0060342297
 20
108.6037249548
 30
0.0
  0
LINE
  5
2FB
100
AcDbEntity
  8
0
100
AcDbLine
 62
7
  6
BYLAYER
 10
28.0060342297
 20
108.6037249548
 11
27.9860445015
 21
108.6339758887
  0
SPLINE
  5
2FC
100
AcDbEntity
  8
0
100
AcDbSpline
 62
7
  6
BYLAYER
 70
0
 71
3
 72
9
 73
5
 74
0
 42
0.0000001
 43
0.0000001
 44
0.0000000001
 40
0.0
 40
0.0
 40
0.0
 40
0.0
 40
0.250616819
 40
1.0
 40
1.0
 40
1.0
 40
1.0
 10
27.9860445015
 20
108.6339758887
 30
0.0
 10
27.8156646492
 20
108.892311519
 30
0.0
 10
27.1592113391
 20
109.9383214124
 30
0.0
 10
26.5956156786
 20
111.0428120626
 30
0.0
 10
26.2329148571
 20
111.8941051362
 30
0.0
  0
SPLINE
  5
2FD
100
AcDbEntity
  8
0
100
AcDbSpline
 62
7
  6
BYLAYER
 70
0
 71
3
 72
9
 73
5
 74
0
 42
0.0000001
 43
0.0000001
 44
0.0000000001
 40
0.0
 40
0.0
 40
0.0
 40
0.0
 40
0.2353758619
 40
1.0
 40
1.0
 40
1.0
 40
1.0
 10
41.0996448224
 20
104.9907490405
 30
0.0
 10
41.1082103439
 20
104.9858042211
 30
0.0
 10
41.1437454727
 20
104.9633233557
 30
0.0
 10
41.1756007401
 20
104.9352246326
 30
0.0
 10
41.1975765174
 20
104.911786537
 30
0.0
  0
SPLINE
  5
2FE
100
AcDbEntity
  8
0
100
AcDbSpline
 62
7
  6
BYLAYER
 70
0
 71
3
 72
9
 73
5
 74
0
 42
0.0000001
 43
0.0000001
 44
0.0000000001
 40
0.0
 40
0.0
 40
0.0
 40
0.0
 40
0.2834156853
 40
1.0
 40
1.0
 40
1.0
 40
1.0
 10
26.3741034498
 20
111.8593471497
 30
0.0
 10
26.3620864047
 20
111.8662850165
 30
0.0
 10
26.3189259674
 20
111.8885502183
 30
0.0
 10
26.2673302865
 20
111.9009210973
 30
0.0
 10
26.2329148571
 20
111.8941051362
 30
0.0
  0
SPLINE
  5
2FF
100
AcDbEntity
  8
0
100
AcDbSpline
 62
7
  6
BYLAYER
 70
0
 71
3
 72
9
 73
5
 74
0
 42
0.0000001
 43
0.0000001
 44
0.0000000001
 40
0.0
 40
0.0
 40
0.0
 40
0.0
 40
0.248547436
 40
1.0
 40
1.0
 40
1.0
 40
1.0
 10
26.3741029541
 20
111.8593471404
 30
0.0
 10
26.400240446
 20
112.0426696035
 30
0.0
 10
26.5154461326
 20
112.7787931989
 30
0.0
 10
26.6693578639
 20
113.5087356941
 30
0.0
 10
26.8040947142
 20
114.0521388227
 30
0.0
  0
SPLINE
  5
300
100
AcDbEntity
  8
0
100
AcDbSpline
 62
7
  6
BYLAYER
 70
0
 71
3
 72
9
 73
5
 74
0
 42
0.0000001
 43
0.0000001
 44
0.0000000001
 40
0.0
 40
0.0
 40
0.0
 40
0.0
 40
0.2453730228
 40
1.0
 40
1.0
 40
1.0
 40
1.0
 10
38.4996627698
 20
107.510591655
 30
0.0
 10
38.4532251964
 20
107.6042684639
 30
0.0
 10
38.2789979793
 20
107.9934673589
 30
0.0
 10
38.1621586001
 20
108.4070621613
 30
0.0
 10
38.1006065446
 20
108.7226679756
 30
0.0
  0
SPLINE
  5
301
100
AcDbEntity
  8
0
100
AcDbSpline
 62
7
  6
BYLAYER
 70
0
 71
3
 72
19
 73
15
 74
0
 42
0.0000001
 43
0.0000001
 44
0.0000000001
 40
0.0
 40
0.0
 40
0.0
 40
0.0
 40
0.0432139952
 40
0.0876748835
 40
0.1344570682
 40
0.1843609557
 40
0.2378815282
 40
0.2952271645
 40
0.3563621369
 40
0.4210509391
 40
0.5592766904
 40
0.7055905964
 40
0.8544469468
 40
1.0
 40
1.0
 40
1.0
 40
1.0
 10
27.4429382363
 20
124.1747704328
 30
0.0
 10
27.6980268311
 20
124.3220397651
 30
0.0
 10
28.2492961658
 20
124.5660253541
 30
0.0
 10
29.151502083
 20
124.7573184884
 30
0.0
 10
30.118633668
 20
124.7754617239
 30
0.0
 10
31.1351373171
 20
124.6222369435
 30
0.0
 10
32.1865751317
 20
124.3017509045
 30
0.0
 10
33.258200242
 20
123.8196216315
 30
0.0
 10
34.3350518154
 20
123.1833357312
 30
0.0
 10
35.7889870999
 20
122.1185453451
 30
0.0
 10
37.5118330516
 20
120.4589766629
 30
0.0
 10
39.3151695016
 20
118.1069642657
 30
0.0
 10
40.7980374955
 20
115.4839185195
 30
0.0
 10
41.5344844936
 20
113.6080087466
 30
0.0
 10
41.8233903983
 20
112.6589124835
 30
0.0
  0
SPLINE
  5
302
100
AcDbEntity
  8
0
100
AcDbSpline
 62
7
  6
BYLAYER
 70
0
 71
3
 72
9
 73
5
 74
0
 42
0.0000001
 43
0.0000001
 44
0.0000000001
 40
0.0
 40
0.0
 40
0.0
 40
0.0
 40
0.2560178093
 40
1.0
 40
1.0
 40
1.0
 40
1.0
 10
60.0679155935
 20
122.0364335882
 30
0.0
 10
60.0679150342
 20
122.0239294635
 30
0.0
 10
60.0683268652
 20
121.9750899766
 30
0.0
 10
60.0704135521
 20
121.9262607593
 30
0.0
 10
60.0730138753
 20
121.8900172061
 30
0.0
  0
SPLINE
  5
303
100
AcDbEntity
  8
0
100
AcDbSpline
 62
7
  6
BYLAYER
 70
0
 71
3
 72
21
 73
17
 74
0
 42
0.0000001
 43
0.0000001
 44
0.0000000001
 40
0.0
 40
0.0
 40
0.0
 40
0.0
 40
0.0577275146
 40
0.1074430968
 40
0.1501957508
 40
0.1890486089
 40
0.2289881359
 40
0.2749869923
 40
0.3298713983
 40
0.3940514166
 40
0.4661301201
 40
0.5436698089
 40
0.6239801025
 40
0.7046813723
 40
0.8598170748
 40
1.0
 40
1.0
 40
1.0
 40
1.0
 10
60.0730138753
 20
121.8900172061
 30
0.0
 10
60.0786953629
 20
121.8108280897
 30
0.0
 10
60.0983970781
 20
121.6637594797
 30
0.0
 10
60.1604587867
 20
121.4653522903
 30
0.0
 10
60.2566511672
 20
121.3092184754
 30
0.0
 10
60.3925212855
 20
121.2042946915
 30
0.0
 10
60.5635817622
 20
121.162727505
 30
0.0
 10
60.7587826983
 20
121.1832718814
 30
0.0
 10
60.9741536087
 20
121.2592495735
 30
0.0
 10
61.2051102478
 20
121.3866398281
 30
0.0
 10
61.4432576988
 20
121.5601839142
 30
0.0
 10
61.6779270354
 20
121.7729488512
 30
0.0
 10
61.8981264005
 20
122.0169505654
 30
0.0
 10
62.1551811608
 20
122.3684028607
 30
0.0
 10
62.3918882974
 20
122.833392758
 30
0.0
 10
62.4724707663
 20
123.2402976003
 30
0.0
 10
62.4720857888
 20
123.4330908303
 30
0.0
  0
ELLIPSE
  5
304
100
AcDbEntity
  8
0
100
AcDbEllipse
 62
7
  6
BYLAYER
 10
26.5048814659
 20
113.4168280612
 30
0.0
 11
0.353554182
 21
0.6123719788
 31
0.0
 40
0.5773494077
 41
0.0000064018
 42
0.1438635191
  0
ENDSEC
  0
SECTION
  2
OBJECTS
  0
DICTIONARY
  5
C
100
AcDbDictionary
280
0
281
1
  3
ACAD_GROUP
350
D
  3
ACAD_MLINESTYLE
350
17
  3
ACAD_LAYOUT
350
1A
  3
ACAD_PLOTSETTINGS
350
19
  3
ACAD_PLOTSTYLENAME
350
E
  0
DICTIONARY
  5
D
102
{ACAD_REACTORS
330
C
102
}
100
AcDbDictionary
280
0
281
1
  0
ACDBDICTIONARYWDFLT
  5
E
102
{ACAD_REACTORS
330
C
102
}
100
AcDbDictionary
281
1
  3
Normal
350
F
100
AcDbDictionaryWithDefault
340
F
  0
DICTIONARY
  5
17
102
{ACAD_REACTORS
330
C
102
}
100
AcDbDictionary
280
0
281
1
  3
Standard
350
18
  0
DICTIONARY
  5
19
102
{ACAD_REACTORS
330
C
102
}
100
AcDbDictionary
281
1
  0
DICTIONARY
  5
1A
102
{ACAD_REACTORS
330
C
102
}
100
AcDbDictionary
281
1
  3
Model
350
305
  3
Layout1
350
306
  0
ACDBPLACEHOLDER
  5
F
102
{ACAD_REACTORS
330
E
102
}
  0
MLINESTYLE
  5
18
102
{ACAD_REACTORS
330
17
102
}
100
AcDbMlineStyle
  2
STANDARD
 70
0
  3

 62
256
 51
90.0
 52
90.0
 71
2
 49
0.5
 62
256
  6
BYLAYER
 49
-0.5
 62
256
  6
BYLAYER
  0
LAYOUT
  5
305
102
{ACAD_REACTORS
330
1A
102
}
100
AcDbPlotSettings
  1

  2
none_device
  4

  6

 40
0.0
 41
0.0
 42
0.0
 43
0.0
 44
210.0
 45
297.0
 46
0.0
 47
0.0
 48
0.0
 49
0.0
140
0.0
141
0.0
142
1.0
143
1.0
 70
1024
 72
1
 73
0
 74
0
  7

 75
0
147
1.0
148
0.0
149
0.0
100
AcDbLayout
  1
Model
 70
0
 71
0
 10
0.0
 20
0.0
 11
210.0
 21
297.0
 12
0.0
 22
0.0
 32
0.0
 14
0.0
 24
0.0
 34
0.0
 15
0.0
 25
0.0
 35
0.0
146
0.0
 13
0.0
 23
0.0
 33
0.0
 16
1.0
 26
0.0
 36
0.0
 17
0.0
 27
1.0
 37
0.0
 76
0
330
210
345
0
346
0
  0
LAYOUT
  5
306
102
{ACAD_REACTORS
330
1A
102
}
100
AcDbPlotSettings
  1

  2
none_device
  4

  6

 40
0.0
 41
0.0
 42
0.0
 43
0.0
 44
210.0
 45
297.0
 46
0.0
 47
0.0
 48
0.0
 49
0.0
140
0.0
141
0.0
142
1.0
143
1.0
 70
0
 72
1
 73
0
 74
0
  7

 75
0
147
1.0
148
0.0
149
0.0
100
AcDbLayout
  1
Layout1
 70
0
 71
1
 10
0.0
 20
0.0
 11
210.0
 21
297.0
 12
0.0
 22
0.0
 32
0.0
 14
0.0
 24
0.0
 34
0.0
 15
0.0
 25
0.0
 35
0.0
146
0.0
 13
0.0
 23
0.0
 33
0.0
 16
1.0
 26
0.0
 36
0.0
 17
0.0
 27
1.0
 37
0.0
 76
0
330
211
345
0
346
0
  0
ENDSEC
  0
EOF
