999
DXF file: C:\Users\sesa63760\Dev\_Creo\CAD\MCADID0005085_3D-CAD\drw0001_1.dxf
999
Pro/ENGINEER 2019471 by Parametric Technology Corporation
  0
SECTION
  2
HEADER
  9
$ACADVER
  1
AC1024
  9
$DWGCODEPAGE
  3
ANSI_1252
  9
$EXTMAX
 10
147.7311687373
 20
208.9340814999
 30
0.0
  9
$EXTMIN
 10
0.0
 20
0.0
 30
0.0
  9
$LIMMIN
 10
0.0
 20
0.0
  9
$LIMMAX
 10
147.7311687373
 20
208.9340814999
  9
$VIEWCTR
 10
73.8655843687
 20
104.46704075
  9
$VIEWSIZE
 40
208.9340814999
  9
$CLAYER
  8
0
  9
$LTSCALE
 40
13.6194067941
  9
$CELTYPE
  6
BYLAYER
  9
$DIMSCALE
 40
1.0
  9
$DIMASZ
 40
1.7587043897
  9
$DIMEXO
 40
1.0
  9
$DIMDLI
 40
9.4097719668
  9
$DIMEXE
 40
1.0
  9
$DIMCEN
 40
2.2286302027
  9
$DIMLFAC
 40
1.0
  9
$DIMBLK
  1
_FILLED
  9
$DIMALT
 70
0
  9
$DIMALTF
 40
0.0393700787
  9
$DIMTXT
 40
2.4621861456
  9
$DIMTOL
 70
1
  9
$DIMLIM
 70
0
  9
$DIMTFAC
 40
1.0
  9
$DIMTP
 40
0.01
  9
$DIMTM
 40
0.01
  9
$DIMGAP
 40
0.625
  9
$DIMDSEP
 70
46
  9
$AUNITS
 70
0
  9
$PDMODE
 70
3
  9
$PDSIZE
 40
0.3125
  9
$HANDSEED
  5
3A6
  9
$TILEMODE
 70
1
  9
$MEASUREMENT
 70
1
  9
$INSUNITS
 70
4
  0
ENDSEC
  0
SECTION
  2
CLASSES
  0
CLASS
  1
ACDBDICTIONARYWDFLT
  2
AcDbDictionaryWithDefault
  3
AutoCAD 2000
 90
0
 91
1
280
0
281
0
  0
CLASS
  1
ACDBPLACEHOLDER
  2
AcDbPlaceHolder
  3
AutoCAD 2000
 90
0
 91
1
280
0
281
0
  0
CLASS
  1
LAYOUT
  2
AcDbLayout
  3
AutoCAD 2000
 90
0
 91
0
280
0
281
0
  0
ENDSEC
  0
SECTION
  2
TABLES
  0
TABLE
  2
VPORT
  5
8
100
AcDbSymbolTable
 70
2
  0
VPORT
  5
1F4
100
AcDbSymbolTableRecord
100
AcDbViewportTableRecord
  2
*ACTIVE
 70
0
 10
0.0
 20
0.0
 11
1.0
 21
1.0
 12
73.8655843687
 22
104.46704075
 13
0.0
 23
0.0
 14
1.0
 24
1.0
 15
0.0
 25
0.0
 16
0.0
 26
0.0
 36
1.0
 17
0.0
 27
0.0
 37
0.0
 40
208.9340814999
 41
0.7070707071
 42
50.0
 43
0.0
 44
0.0
 50
0.0
 51
0.0
 71
0
 72
100
 73
1
 74
1
 75
0
 76
0
 77
0
 78
0
  0
ENDTAB
  0
TABLE
  2
LTYPE
  5
5
100
AcDbSymbolTable
 70
6
  0
LTYPE
  5
14
100
AcDbSymbolTableRecord
100
AcDbLinetypeTableRecord
  2
BYBLOCK
 70
0
  3

 72
65
 73
0
 40
0.0
  0
LTYPE
  5
15
100
AcDbSymbolTableRecord
100
AcDbLinetypeTableRecord
  2
BYLAYER
 70
0
  3

 72
65
 73
0
 40
0.0
  0
LTYPE
  5
16
100
AcDbSymbolTableRecord
100
AcDbLinetypeTableRecord
  2
CONTINUOUS
 70
64
  3
Solid line
 72
65
 73
0
 40
0.0
  0
LTYPE
  5
1F5
100
AcDbSymbolTableRecord
100
AcDbLinetypeTableRecord
  2
CENTER
 70
64
  3
____ _ ____ _ ____ _ ____ _ ____ _ ____ _ ____
 72
65
 73
4
 40
0.6
 49
0.375
 74
0
 49
-0.075
 74
0
 49
0.075
 74
0
 49
-0.075
 74
0
  0
LTYPE
  5
1F6
100
AcDbSymbolTableRecord
100
AcDbLinetypeTableRecord
  2
HIDDEN
 70
64
  3
- - - - - - - - - - - - - - - - - - - -
 72
65
 73
2
 40
0.2
 49
0.1
 74
0
 49
-0.1
 74
0
  0
LTYPE
  5
1F7
100
AcDbSymbolTableRecord
100
AcDbLinetypeTableRecord
  2
PHANTOM
 70
64
  3
_____ _ _ _____ _ _ _____ _ _ _____
 72
65
 73
6
 40
0.8
 49
0.45
 74
0
 49
-0.05
 74
0
 49
0.1
 74
0
 49
-0.05
 74
0
 49
0.1
 74
0
 49
-0.05
 74
0
  0
LTYPE
  5
1F8
100
AcDbSymbolTableRecord
100
AcDbLinetypeTableRecord
  2
DOT
 70
64
  3
. . . . . . . . . . . . . . . . . . . .
 72
65
 73
2
 40
0.2
 49
0.1
 74
0
 49
-0.1
 74
0
  0
LTYPE
  5
1F9
100
AcDbSymbolTableRecord
100
AcDbLinetypeTableRecord
  2
DASHED
 70
64
  3
- - - - - - - - - - - - - - - - - - - -
 72
65
 73
2
 40
0.2
 49
0.1
 74
0
 49
-0.1
 74
0
  0
ENDTAB
  0
TABLE
  2
LAYER
  5
2
100
AcDbSymbolTable
 70
36
  0
LAYER
  5
10
100
AcDbSymbolTableRecord
100
AcDbLayerTableRecord
  2
0
 70
0
 62
7
  6
CONTINUOUS
370
-3
390
F
  0
LAYER
  5
1FA
100
AcDbSymbolTableRecord
100
AcDbLayerTableRecord
  2
DEFAULT_1
 70
0
 62
7
  6
CENTER
370
-3
390
F
  0
LAYER
  5
1FB
100
AcDbSymbolTableRecord
100
AcDbLayerTableRecord
  2
DEFAULT_2
 70
0
 62
7
  6
HIDDEN
370
-3
390
F
  0
LAYER
  5
1FC
100
AcDbSymbolTableRecord
100
AcDbLayerTableRecord
  2
DEFAULT_3
 70
0
 62
7
  6
PHANTOM
370
-3
390
F
  0
LAYER
  5
1FD
100
AcDbSymbolTableRecord
100
AcDbLayerTableRecord
  2
00_COMPONENTS
 70
0
 62
7
  6
CONTINUOUS
370
-3
390
F
  0
LAYER
  5
1FE
100
AcDbSymbolTableRecord
100
AcDbLayerTableRecord
  2
01_1_DEFAULT_DATUMS
 70
0
 62
7
  6
CONTINUOUS
370
-3
390
F
  0
LAYER
  5
1FF
100
AcDbSymbolTableRecord
100
AcDbLayerTableRecord
  2
01_PLANES
 70
0
 62
7
  6
CONTINUOUS
370
-3
390
F
  0
LAYER
  5
200
100
AcDbSymbolTableRecord
100
AcDbLayerTableRecord
  2
02_COORD_SYS
 70
0
 62
7
  6
CONTINUOUS
370
-3
390
F
  0
LAYER
  5
201
100
AcDbSymbolTableRecord
100
AcDbLayerTableRecord
  2
03_AXES
 70
0
 62
7
  6
CONTINUOUS
370
-3
390
F
  0
LAYER
  5
202
100
AcDbSymbolTableRecord
100
AcDbLayerTableRecord
  2
04_POINTS
 70
0
 62
7
  6
CONTINUOUS
370
-3
390
F
  0
LAYER
  5
203
100
AcDbSymbolTableRecord
100
AcDbLayerTableRecord
  2
05_CURVES
 70
0
 62
7
  6
CONTINUOUS
370
-3
390
F
  0
LAYER
  5
204
100
AcDbSymbolTableRecord
100
AcDbLayerTableRecord
  2
06_SURFS
 70
0
 62
7
  6
CONTINUOUS
370
-3
390
F
  0
LAYER
  5
205
100
AcDbSymbolTableRecord
100
AcDbLayerTableRecord
  2
07_COSMETICS
 70
0
 62
7
  6
CONTINUOUS
370
-3
390
F
  0
LAYER
  5
206
100
AcDbSymbolTableRecord
100
AcDbLayerTableRecord
  2
10_NOTES
 70
0
 62
7
  6
CONTINUOUS
370
-3
390
F
  0
LAYER
  5
207
100
AcDbSymbolTableRecord
100
AcDbLayerTableRecord
  2
11_NOTES_PUB
 70
0
 62
7
  6
CONTINUOUS
370
-3
390
F
  0
LAYER
  5
208
100
AcDbSymbolTableRecord
100
AcDbLayerTableRecord
  2
13_REF_GTOL
 70
0
 62
7
  6
CONTINUOUS
370
-3
390
F
  0
LAYER
  5
209
100
AcDbSymbolTableRecord
100
AcDbLayerTableRecord
  2
16_MISC
 70
0
 62
7
  6
CONTINUOUS
370
-3
390
F
  0
LAYER
  5
20A
100
AcDbSymbolTableRecord
100
AcDbLayerTableRecord
  2
17_NO_PRINT
 70
0
 62
7
  6
CONTINUOUS
370
-3
390
F
  0
LAYER
  5
20B
100
AcDbSymbolTableRecord
100
AcDbLayerTableRecord
  2
18_DATUM_CAMS_JOINTS
 70
0
 62
7
  6
CONTINUOUS
370
-3
390
F
  0
LAYER
  5
20C
100
AcDbSymbolTableRecord
100
AcDbLayerTableRecord
  2
19_DATUM_FUNCTIONAL
 70
0
 62
7
  6
CONTINUOUS
370
-3
390
F
  0
LAYER
  5
20D
100
AcDbSymbolTableRecord
100
AcDbLayerTableRecord
  2
20_DATUM_KINEMATIC_SCHEME
 70
0
 62
7
  6
CONTINUOUS
370
-3
390
F
  0
ENDTAB
  0
TABLE
  2
STYLE
  5
3
100
AcDbSymbolTable
 70
1
  0
STYLE
  5
11
100
AcDbSymbolTableRecord
100
AcDbTextStyleTableRecord
  2
STANDARD
 70
0
 40
0.0
 41
1.0
 50
0.0
 71
0
 42
0.2
  3
ARIAL.TTF
  4

  0
STYLE
  5
20E
100
AcDbSymbolTableRecord
100
AcDbTextStyleTableRecord
  2
TEXTSTYLE_1
 70
0
 40
0.0
 41
0.8
 50
0.0
 71
0
 42
0.2
  3
gdt
  4

  0
ENDTAB
  0
TABLE
  2
VIEW
  5
6
100
AcDbSymbolTable
 70
0
  0
ENDTAB
  0
TABLE
  2
UCS
  5
7
100
AcDbSymbolTable
 70
0
  0
ENDTAB
  0
TABLE
  2
APPID
  5
9
100
AcDbSymbolTable
 70
1
  0
APPID
  5
20F
100
AcDbSymbolTableRecord
100
AcDbRegAppTableRecord
  2
ACAD
 70
0
  0
ENDTAB
  0
TABLE
  2
BLOCK_RECORD
  5
1
100
AcDbSymbolTable
 70
0
  0
BLOCK_RECORD
  5
210
100
AcDbSymbolTableRecord
100
AcDbBlockTableRecord
  2
*Model_Space
  0
BLOCK_RECORD
  5
211
100
AcDbSymbolTableRecord
100
AcDbBlockTableRecord
  2
*Paper_Space
  0
BLOCK_RECORD
  5
212
100
AcDbSymbolTableRecord
100
AcDbBlockTableRecord
  2
_FILLED
  0
ENDTAB
  0
TABLE
  2
DIMSTYLE
  5
A
100
AcDbSymbolTable
 70
1
100
AcDbDimStyleTable
 71
0
  0
DIMSTYLE
105
213
100
AcDbSymbolTableRecord
100
AcDbDimStyleTableRecord
  2
STANDARD
 70
0
  3

  4

 40
1.0
 41
1.7587043897
 42
1.0
 43
0.38
 44
1.0
 45
0.0
 46
0.0
 47
0.01
 48
0.01
140
2.4621861456
141
0.09
142
0.0
143
25.4
144
1.0
145
0.0
146
1.0
147
0.625
 71
1
 72
0
 73
0
 74
0
 75
0
 76
0
 77
1
 78
8
 79
2
170
0
171
1
172
0
173
0
174
0
175
0
176
0
177
0
178
0
270
2
179
2
271
2
272
2
273
2
274
2
275
0
280
0
281
0
282
0
283
1
284
8
285
0
286
0
287
3
288
0
340
11
278
46
341
212
342
212
343
212
344
212
  0
ENDTAB
  0
ENDSEC
  0
SECTION
  2
BLOCKS
  0
BLOCK
  5
20
100
AcDbEntity
  8
0
100
AcDbBlockBegin
  2
*Model_Space
 70
0
 10
0.0
 20
0.0
 30
0.0
  3
*Model_Space
  1

  0
ENDBLK
  5
21
100
AcDbEntity
  8
0
100
AcDbBlockEnd
  0
BLOCK
  5
1C
100
AcDbEntity
  8
0
100
AcDbBlockBegin
  2
*Paper_Space
 70
0
 10
0.0
 20
0.0
 30
0.0
  3
*Paper_Space
  1

  0
ENDBLK
  5
1D
100
AcDbEntity
  8
0
100
AcDbBlockEnd
  0
BLOCK
  5
214
100
AcDbEntity
  8
0
100
AcDbBlockBegin
  2
_FILLED
 70
64
 10
0.0
 20
0.0
  3
_FILLED
  1

  0
SOLID
  5
215
100
AcDbEntity
  8
0
  6
BYBLOCK
 62
0
100
AcDbTrace
 10
0.0
 20
0.0
 11
-1.0
 21
0.25
 12
-1.0
 22
-0.25
 13
-1.0
 23
-0.25
  0
ENDBLK
  5
216
100
AcDbEntity
  8
0
  6
BYBLOCK
 62
0
100
AcDbBlockEnd
  0
ENDSEC
  0
SECTION
  2
ENTITIES
  0
LINE
  5
217
100
AcDbEntity
  8
0
100
AcDbLine
 62
7
  6
BYLAYER
 10
17.136787277
 20
76.9440989106
 11
17.136787277
 21
119.2185395649
  0
LINE
  5
218
100
AcDbEntity
  8
0
100
AcDbLine
 62
7
  6
BYLAYER
 10
17.7470767592
 20
75.2393795277
 11
17.7470767592
 21
117.5543627048
  0
LINE
  5
219
100
AcDbEntity
  8
0
100
AcDbLine
 62
7
  6
BYLAYER
 10
27.8619915858
 20
68.7757385069
 11
27.9260519239
 21
68.742862463
  0
LINE
  5
21A
100
AcDbEntity
  8
0
100
AcDbLine
 62
7
  6
BYLAYER
 10
56.1425336145
 20
52.4479483556
 11
49.0738109421
 21
56.5289849679
  0
LINE
  5
21B
100
AcDbEntity
  8
0
100
AcDbLine
 62
7
  6
BYLAYER
 10
27.8618263449
 20
68.775452933
 11
20.7917990171
 21
72.8572427715
  0
LINE
  5
21C
100
AcDbEntity
  8
0
100
AcDbLine
 62
7
  6
BYLAYER
 10
48.9137697166
 20
56.6653346754
 11
27.9602280324
 21
68.7625939307
  0
LINE
  5
21D
100
AcDbEntity
  8
0
100
AcDbLine
 62
7
  6
BYLAYER
 10
53.6592561136
 20
54.5160016192
 11
48.6599168671
 21
57.402306182
  0
LINE
  5
21E
100
AcDbEntity
  8
0
100
AcDbLine
 62
7
  6
BYLAYER
 10
27.4487854736
 20
69.6482815609
 11
22.4472722931
 21
72.5358412167
  0
LINE
  5
21F
100
AcDbEntity
  8
0
100
AcDbLine
 62
7
  6
BYLAYER
 10
56.142526121
 20
52.4479526821
 11
54.8071560358
 21
53.3004448038
  0
LINE
  5
220
100
AcDbEntity
  8
0
100
AcDbLine
 62
7
  6
BYLAYER
 10
17.1368822954
 20
119.2185745608
 11
17.1461076835
 21
119.1510142679
  0
LINE
  5
221
100
AcDbEntity
  8
0
100
AcDbLine
 62
7
  6
BYLAYER
 10
27.1751975677
 20
81.9384997558
 11
27.4487854736
 21
69.6482815609
  0
LINE
  5
222
100
AcDbEntity
  8
0
100
AcDbLine
 62
7
  6
BYLAYER
 10
22.8629010029
 20
119.7752989334
 11
22.8629010029
 21
119.8966069358
  0
LINE
  5
223
100
AcDbEntity
  8
0
100
AcDbLine
 62
7
  6
BYLAYER
 10
24.5116029601
 20
89.6829459497
 11
24.5116029601
 21
98.4723238291
  0
LINE
  5
224
100
AcDbEntity
  8
0
100
AcDbLine
 62
7
  6
BYLAYER
 10
24.6149534674
 20
121.3985406131
 11
24.6149534674
 21
121.8067918216
  0
LINE
  5
225
100
AcDbEntity
  8
0
100
AcDbLine
 62
7
  6
BYLAYER
 10
25.8022408311
 20
119.4883531777
 11
25.8022408311
 21
120.3048555949
  0
LINE
  5
226
100
AcDbEntity
  8
0
100
AcDbLine
 62
7
  6
BYLAYER
 10
26.8628965869
 20
120.9172218257
 11
26.8628965869
 21
120.1007194085
  0
LINE
  5
227
100
AcDbEntity
  8
0
100
AcDbLine
 62
7
  6
BYLAYER
 10
27.9235611746
 20
119.4883582767
 11
27.9235611746
 21
120.3048606939
  0
LINE
  5
228
100
AcDbEntity
  8
0
100
AcDbLine
 62
7
  6
BYLAYER
 10
21.670940633
 20
72.4312144392
 11
20.7917670337
 21
72.8572612373
  0
LINE
  5
229
100
AcDbEntity
  8
0
100
AcDbLine
 62
7
  6
BYLAYER
 10
29.1108209883
 20
121.8068026284
 11
29.1108209883
 21
121.3985514198
  0
LINE
  5
22A
100
AcDbEntity
  8
0
100
AcDbLine
 62
7
  6
BYLAYER
 10
30.8629010029
 20
119.6603740095
 11
30.8629010029
 21
119.8966069358
  0
LINE
  5
22B
100
AcDbEntity
  8
0
100
AcDbLine
 62
7
  6
BYLAYER
 10
27.9706918866
 20
82.3977758734
 11
27.9602280324
 21
68.7625939307
  0
LINE
  5
22C
100
AcDbEntity
  8
0
100
AcDbLine
 62
7
  6
BYLAYER
 10
17.2545205705
 20
119.5073013664
 11
85.6552038325
 21
158.9982185315
  0
LINE
  5
22D
100
AcDbEntity
  8
0
100
AcDbLine
 62
7
  6
BYLAYER
 10
20.8524933629
 20
120.3864939388
 11
86.9667021423
 21
158.5573223258
  0
LINE
  5
22E
100
AcDbEntity
  8
0
100
AcDbLine
 62
7
  6
BYLAYER
 10
88.8537697584
 20
156.7074554996
 11
86.9667227501
 21
155.6179749047
  0
LINE
  5
22F
100
AcDbEntity
  8
0
100
AcDbLine
 62
7
  6
BYLAYER
 10
85.9060669943
 20
155.0056086739
 11
84.019019986
 21
153.9161280791
  0
LINE
  5
230
100
AcDbEntity
  8
0
100
AcDbLine
 62
7
  6
BYLAYER
 10
28.7499435952
 20
122.0067024205
 11
26.8628965869
 21
120.9172218257
  0
LINE
  5
231
100
AcDbEntity
  8
0
100
AcDbLine
 62
7
  6
BYLAYER
 10
25.8022408311
 20
120.3048555949
 11
23.9151938228
 21
119.215375
  0
LINE
  5
232
100
AcDbEntity
  8
0
100
AcDbLine
 62
7
  6
BYLAYER
 10
24.1629025019
 20
118.5418864017
 11
25.8022408311
 21
119.4883531777
  0
LINE
  5
233
100
AcDbEntity
  8
0
100
AcDbLine
 62
7
  6
BYLAYER
 10
26.8628965869
 20
120.1007194085
 11
29.1108209883
 21
121.3985514198
  0
LINE
  5
234
100
AcDbEntity
  8
0
100
AcDbLine
 62
7
  6
BYLAYER
 10
84.2667286651
 20
153.2426394808
 11
85.9060669943
 21
154.1891062568
  0
LINE
  5
235
100
AcDbEntity
  8
0
100
AcDbLine
 62
7
  6
BYLAYER
 10
86.9667227501
 20
154.8014724876
 11
89.2146471515
 21
156.0993044989
  0
LINE
  5
236
100
AcDbEntity
  8
0
100
AcDbLine
 62
7
  6
BYLAYER
 10
24.9758584106
 20
118.6030138682
 11
26.8629054188
 21
119.6924944631
  0
LINE
  5
237
100
AcDbEntity
  8
0
100
AcDbLine
 62
7
  6
BYLAYER
 10
27.9235611746
 20
120.3048606939
 11
29.8106081829
 21
121.3943412887
  0
LINE
  5
238
100
AcDbEntity
  8
0
100
AcDbLine
 62
7
  6
BYLAYER
 10
85.0796845737
 20
153.3037669473
 11
86.966731582
 21
154.3932475421
  0
LINE
  5
239
100
AcDbEntity
  8
0
100
AcDbLine
 62
7
  6
BYLAYER
 10
88.0273873378
 20
155.005613773
 11
89.9144343461
 21
156.0950943678
  0
LINE
  5
23A
100
AcDbEntity
  8
0
100
AcDbLine
 62
7
  6
BYLAYER
 10
17.1461076835
 20
119.1510142679
 11
20.8524933629
 21
120.3864939388
  0
LINE
  5
23B
100
AcDbEntity
  8
0
100
AcDbLine
 62
7
  6
BYLAYER
 10
49.5611849803
 20
78.8610278079
 11
42.7176980708
 21
82.8120274338
  0
LINE
  5
23C
100
AcDbEntity
  8
0
100
AcDbLine
 62
7
  6
BYLAYER
 10
32.3628734661
 20
88.7902529612
 11
25.5193317713
 21
92.7412842166
  0
LINE
  5
23D
100
AcDbEntity
  8
0
100
AcDbLine
 62
7
  6
BYLAYER
 10
48.6599168671
 20
57.402306182
 11
48.3898887592
 21
69.1284313866
  0
LINE
  5
23E
100
AcDbEntity
  8
0
100
AcDbLine
 62
7
  6
BYLAYER
 10
52.0038738976
 20
66.2109678532
 11
50.7389450944
 21
74.5409254666
  0
LINE
  5
23F
100
AcDbEntity
  8
0
100
AcDbLine
 62
7
  6
BYLAYER
 10
50.7389450944
 20
74.5409254666
 11
50.7389450944
 21
83.3303033461
  0
LINE
  5
240
100
AcDbEntity
  8
0
100
AcDbLine
 62
7
  6
BYLAYER
 10
52.0038738976
 20
93.350296636
 11
52.0038738976
 21
66.2109678532
  0
LINE
  5
241
100
AcDbEntity
  8
0
100
AcDbLine
 62
7
  6
BYLAYER
 10
50.7389450944
 20
83.3303033461
 11
52.0038738976
 21
93.350296636
  0
LINE
  5
242
100
AcDbEntity
  8
0
100
AcDbLine
 62
7
  6
BYLAYER
 10
80.4614619491
 20
135.7364869661
 11
76.2188389258
 21
133.2870220428
  0
LINE
  5
243
100
AcDbEntity
  8
0
100
AcDbLine
 62
7
  6
BYLAYER
 10
59.2483468326
 20
123.4891623499
 11
55.0057238094
 21
121.0396974267
  0
LINE
  5
244
100
AcDbEntity
  8
0
100
AcDbLine
 62
7
  6
BYLAYER
 10
55.0057238094
 20
119.7741186801
 11
59.2483468326
 21
122.2235836034
  0
LINE
  5
245
100
AcDbEntity
  8
0
100
AcDbLine
 62
7
  6
BYLAYER
 10
76.2188389258
 20
132.0214432963
 11
80.4614619491
 21
134.4709082195
  0
LINE
  5
246
100
AcDbEntity
  8
0
100
AcDbLine
 62
7
  6
BYLAYER
 10
54.6770664098
 20
119.963860893
 11
54.6770664098
 21
121.2294396395
  0
LINE
  5
247
100
AcDbEntity
  8
0
100
AcDbLine
 62
7
  6
BYLAYER
 10
54.8071558483
 20
53.3004411961
 11
54.8071558483
 21
94.0065252665
  0
LINE
  5
248
100
AcDbEntity
  8
0
100
AcDbLine
 62
7
  6
BYLAYER
 10
55.0057238094
 20
119.7741186801
 11
55.0057238094
 21
121.0396974267
  0
LINE
  5
249
100
AcDbEntity
  8
0
100
AcDbLine
 62
7
  6
BYLAYER
 10
59.0669189304
 20
98.8733723019
 11
59.0669189304
 21
98.9946803044
  0
LINE
  5
24A
100
AcDbEntity
  8
0
100
AcDbLine
 62
7
  6
BYLAYER
 10
59.2483468326
 20
122.2235836034
 11
59.2483468326
 21
123.4891623499
  0
LINE
  5
24B
100
AcDbEntity
  8
0
100
AcDbLine
 62
7
  6
BYLAYER
 10
70.5267039668
 20
122.9380621466
 11
71.0588098251
 21
123.2452733556
  0
LINE
  5
24C
100
AcDbEntity
  8
0
100
AcDbLine
 62
7
  6
BYLAYER
 10
91.7398190832
 20
135.1853867627
 11
92.2719249415
 21
135.4925979718
  0
LINE
  5
24D
100
AcDbEntity
  8
0
100
AcDbLine
 62
7
  6
BYLAYER
 10
94.6053897752
 20
134.1454018995
 11
94.0732811762
 21
133.8381922728
  0
LINE
  5
24E
100
AcDbEntity
  8
0
100
AcDbLine
 62
7
  6
BYLAYER
 10
73.3922746588
 20
121.8980772834
 11
72.8601660598
 21
121.5908676566
  0
LINE
  5
24F
100
AcDbEntity
  8
0
100
AcDbLine
 62
7
  6
BYLAYER
 10
52.1765310037
 20
94.7762707389
 11
23.4790754557
 21
111.3443796039
  0
LINE
  5
250
100
AcDbEntity
  8
0
100
AcDbLine
 62
7
  6
BYLAYER
 10
60.818971395
 20
100.4966139816
 11
60.818971395
 21
100.9048651902
  0
LINE
  5
251
100
AcDbEntity
  8
0
100
AcDbLine
 62
7
  6
BYLAYER
 10
61.0936928386
 20
50.2125836433
 11
61.0936928386
 21
92.5287347236
  0
LINE
  5
252
100
AcDbEntity
  8
0
100
AcDbLine
 62
7
  6
BYLAYER
 10
62.0062587586
 20
98.5864265463
 11
62.0062587586
 21
99.4029289634
  0
LINE
  5
253
100
AcDbEntity
  8
0
100
AcDbLine
 62
7
  6
BYLAYER
 10
63.0669439541
 20
96.0145208939
 11
63.0669597448
 21
92.6388417597
  0
LINE
  5
254
100
AcDbEntity
  8
0
100
AcDbLine
 62
7
  6
BYLAYER
 10
63.0669145144
 20
100.0152951942
 11
63.0669145144
 21
99.1987927771
  0
LINE
  5
255
100
AcDbEntity
  8
0
100
AcDbLine
 62
7
  6
BYLAYER
 10
64.1275791022
 20
98.5864316453
 11
64.1275791022
 21
99.4029340624
  0
LINE
  5
256
100
AcDbEntity
  8
0
100
AcDbLine
 62
7
  6
BYLAYER
 10
64.4103546223
 20
108.9149857539
 11
64.4103546223
 21
109.6906630502
  0
LINE
  5
257
100
AcDbEntity
  8
0
100
AcDbLine
 62
7
  6
BYLAYER
 10
94.0732811762
 20
132.5726135262
 11
94.6053897752
 21
132.879823153
  0
LINE
  5
258
100
AcDbEntity
  8
0
100
AcDbLine
 62
7
  6
BYLAYER
 10
72.8601660598
 20
120.3252889101
 11
73.3922746588
 21
120.6324985368
  0
LINE
  5
259
100
AcDbEntity
  8
0
100
AcDbLine
 62
7
  6
BYLAYER
 10
20.8524933629
 20
120.3864939388
 11
63.0669439541
 21
96.0145208939
  0
LINE
  5
25A
100
AcDbEntity
  8
0
100
AcDbLine
 62
7
  6
BYLAYER
 10
23.9151781097
 20
121.3943271179
 11
25.8022408311
 21
120.3048555949
  0
LINE
  5
25B
100
AcDbEntity
  8
0
100
AcDbLine
 62
7
  6
BYLAYER
 10
26.8629054188
 20
119.6924944631
 11
28.7499681402
 21
118.60302294
  0
LINE
  5
25C
100
AcDbEntity
  8
0
100
AcDbLine
 62
7
  6
BYLAYER
 10
60.1191960372
 20
100.4924004864
 11
62.0062587586
 21
99.4029289634
  0
LINE
  5
25D
100
AcDbEntity
  8
0
100
AcDbLine
 62
7
  6
BYLAYER
 10
63.0669233463
 20
98.7905678316
 11
64.9539860677
 21
97.7010963086
  0
LINE
  5
25E
100
AcDbEntity
  8
0
100
AcDbLine
 62
7
  6
BYLAYER
 10
24.6149534674
 20
121.3985406131
 11
26.8628965869
 21
120.1007194085
  0
LINE
  5
25F
100
AcDbEntity
  8
0
100
AcDbLine
 62
7
  6
BYLAYER
 10
27.9235611746
 20
119.4883582767
 11
29.5240997257
 21
118.5643078182
  0
LINE
  5
260
100
AcDbEntity
  8
0
100
AcDbLine
 62
7
  6
BYLAYER
 10
60.818971395
 20
100.4966139816
 11
63.0669145144
 21
99.1987927771
  0
LINE
  5
261
100
AcDbEntity
  8
0
100
AcDbLine
 62
7
  6
BYLAYER
 10
64.1275791022
 20
98.5864316453
 11
65.7281176533
 21
97.6623811868
  0
LINE
  5
262
100
AcDbEntity
  8
0
100
AcDbLine
 62
7
  6
BYLAYER
 10
66.0146418235
 20
98.3134625394
 11
64.1275791022
 21
99.4029340624
  0
LINE
  5
263
100
AcDbEntity
  8
0
100
AcDbLine
 62
7
  6
BYLAYER
 10
63.0669145144
 20
100.0152951942
 11
61.1798517931
 21
101.1047667172
  0
LINE
  5
264
100
AcDbEntity
  8
0
100
AcDbLine
 62
7
  6
BYLAYER
 10
29.810623896
 20
119.2153891709
 11
27.9235611746
 21
120.3048606939
  0
LINE
  5
265
100
AcDbEntity
  8
0
100
AcDbLine
 62
7
  6
BYLAYER
 10
26.8628965869
 20
120.9172218257
 11
24.9758338655
 21
122.0066933487
  0
LINE
  5
266
100
AcDbEntity
  8
0
100
AcDbLine
 62
7
  6
BYLAYER
 10
65.3148389159
 20
100.9048759969
 11
65.3148389159
 21
100.4966247883
  0
LINE
  5
267
100
AcDbEntity
  8
0
100
AcDbLine
 62
7
  6
BYLAYER
 10
67.0669189304
 20
98.758447378
 11
67.0669189304
 21
98.9946803044
  0
LINE
  5
268
100
AcDbEntity
  8
0
100
AcDbLine
 62
7
  6
BYLAYER
 10
64.4103546223
 20
109.6906630502
 11
106.8365839068
 21
134.185311735
  0
LINE
  5
269
100
AcDbEntity
  8
0
100
AcDbLine
 62
7
  6
BYLAYER
 10
99.986786175
 20
125.892732471
 11
78.7736715328
 21
113.6454081286
  0
LINE
  5
26A
100
AcDbEntity
  8
0
100
AcDbLine
 62
7
  6
BYLAYER
 10
79.4454373799
 20
113.25757271
 11
99.986786175
 21
125.1170551748
  0
LINE
  5
26B
100
AcDbEntity
  8
0
100
AcDbLine
 62
7
  6
BYLAYER
 10
61.1798517931
 20
101.1047667172
 11
60.9459761574
 21
101.1425010683
  0
LINE
  5
26C
100
AcDbEntity
  8
0
100
AcDbLine
 62
7
  6
BYLAYER
 10
70.5267039668
 20
121.6724834
 11
70.5267039668
 21
122.9380621466
  0
LINE
  5
26D
100
AcDbEntity
  8
0
100
AcDbLine
 62
7
  6
BYLAYER
 10
72.8601660598
 20
120.3252889101
 11
72.8601660598
 21
121.5908676566
  0
LINE
  5
26E
100
AcDbEntity
  8
0
100
AcDbLine
 62
7
  6
BYLAYER
 10
73.3922746588
 20
121.8980772834
 11
73.3922746588
 21
120.6324985368
  0
LINE
  5
26F
100
AcDbEntity
  8
0
100
AcDbLine
 62
7
  6
BYLAYER
 10
74.5311017933
 20
103.0719018385
 11
74.5311017933
 21
103.8475791348
  0
LINE
  5
270
100
AcDbEntity
  8
0
100
AcDbLine
 62
7
  6
BYLAYER
 10
27.1751975677
 20
81.9384997558
 11
27.9706918866
 21
82.3977758734
  0
LINE
  5
271
100
AcDbEntity
  8
0
100
AcDbLine
 62
7
  6
BYLAYER
 10
125.0577876859
 20
135.8055288682
 11
123.1707406776
 21
134.7160482733
  0
LINE
  5
272
100
AcDbEntity
  8
0
100
AcDbLine
 62
7
  6
BYLAYER
 10
122.1100849218
 20
134.1036820425
 11
120.2230379135
 21
133.0142014476
  0
LINE
  5
273
100
AcDbEntity
  8
0
100
AcDbLine
 62
7
  6
BYLAYER
 10
64.9539615227
 20
101.1047757891
 11
63.0669145144
 21
100.0152951942
  0
LINE
  5
274
100
AcDbEntity
  8
0
100
AcDbLine
 62
7
  6
BYLAYER
 10
62.0062587586
 20
99.4029289634
 11
60.1192117504
 21
98.3134483685
  0
LINE
  5
275
100
AcDbEntity
  8
0
100
AcDbLine
 62
7
  6
BYLAYER
 10
60.3669204295
 20
97.6399597703
 11
62.0062587586
 21
98.5864265463
  0
LINE
  5
276
100
AcDbEntity
  8
0
100
AcDbLine
 62
7
  6
BYLAYER
 10
63.0669145144
 20
99.1987927771
 11
65.3148389159
 21
100.4966247883
  0
LINE
  5
277
100
AcDbEntity
  8
0
100
AcDbLine
 62
7
  6
BYLAYER
 10
120.4707465926
 20
132.3407128494
 11
122.1100849218
 21
133.2871796254
  0
LINE
  5
278
100
AcDbEntity
  8
0
100
AcDbLine
 62
7
  6
BYLAYER
 10
123.1707406776
 20
133.8995458562
 11
125.418665079
 21
135.1973778674
  0
LINE
  5
279
100
AcDbEntity
  8
0
100
AcDbLine
 62
7
  6
BYLAYER
 10
61.1798763381
 20
97.7010872368
 11
63.0669233463
 21
98.7905678316
  0
LINE
  5
27A
100
AcDbEntity
  8
0
100
AcDbLine
 62
7
  6
BYLAYER
 10
64.1275791022
 20
99.4029340624
 11
66.0146261104
 21
100.4924146573
  0
LINE
  5
27B
100
AcDbEntity
  8
0
100
AcDbLine
 62
7
  6
BYLAYER
 10
121.2837025013
 20
132.4018403158
 11
123.1707495095
 21
133.4913209107
  0
LINE
  5
27C
100
AcDbEntity
  8
0
100
AcDbLine
 62
7
  6
BYLAYER
 10
124.2314052653
 20
134.1036871415
 11
126.1184522736
 21
135.1931677364
  0
LINE
  5
27D
100
AcDbEntity
  8
0
100
AcDbLine
 62
7
  6
BYLAYER
 10
116.9573310778
 20
128.3422278196
 11
106.3507737567
 21
122.2185656484
  0
LINE
  5
27E
100
AcDbEntity
  8
0
100
AcDbLine
 62
7
  6
BYLAYER
 10
85.1376591144
 20
109.971241306
 11
74.5311017933
 21
103.8475791348
  0
LINE
  5
27F
100
AcDbEntity
  8
0
100
AcDbLine
 62
7
  6
BYLAYER
 10
65.1878342601
 20
101.1425119855
 11
64.9539615227
 21
101.1047757891
  0
LINE
  5
280
100
AcDbEntity
  8
0
100
AcDbLine
 62
7
  6
BYLAYER
 10
64.4103546223
 20
108.9149857539
 11
74.5311017933
 21
103.0719018385
  0
LINE
  5
281
100
AcDbEntity
  8
0
100
AcDbLine
 62
7
  6
BYLAYER
 10
74.5311017933
 20
103.8475791348
 11
64.4103546223
 21
109.6906630502
  0
LINE
  5
282
100
AcDbEntity
  8
0
100
AcDbLine
 62
7
  6
BYLAYER
 10
75.8901815262
 20
132.2111855091
 11
75.8901815262
 21
133.4767642557
  0
LINE
  5
283
100
AcDbEntity
  8
0
100
AcDbLine
 62
7
  6
BYLAYER
 10
76.2188389258
 20
132.0214432963
 11
76.2188389258
 21
133.2870220428
  0
LINE
  5
284
100
AcDbEntity
  8
0
100
AcDbLine
 62
7
  6
BYLAYER
 10
80.4614619491
 20
134.4709082195
 11
80.4614619491
 21
135.7364869661
  0
LINE
  5
285
100
AcDbEntity
  8
0
100
AcDbLine
 62
7
  6
BYLAYER
 10
74.5311017933
 20
103.0719018385
 11
85.1376591144
 21
109.1955640097
  0
LINE
  5
286
100
AcDbEntity
  8
0
100
AcDbLine
 62
7
  6
BYLAYER
 10
106.3507737567
 20
121.4428883521
 11
116.9573310778
 21
127.5665505233
  0
LINE
  5
287
100
AcDbEntity
  8
0
100
AcDbLine
 62
7
  6
BYLAYER
 10
63.0669439541
 20
96.0145208939
 11
129.1811527336
 21
134.1853492809
  0
LINE
  5
288
100
AcDbEntity
  8
0
100
AcDbLine
 62
7
  6
BYLAYER
 10
64.3784435242
 20
92.3002605308
 11
132.7670746426
 21
131.7842194291
  0
LINE
  5
289
100
AcDbEntity
  8
0
100
AcDbLine
 62
7
  6
BYLAYER
 10
32.3628734661
 20
88.7902529612
 11
30.0865311393
 21
88.128645948
  0
LINE
  5
28A
100
AcDbEntity
  8
0
100
AcDbLine
 62
7
  6
BYLAYER
 10
54.6770664098
 20
119.963860893
 11
55.0057238094
 21
119.7741186801
  0
LINE
  5
28B
100
AcDbEntity
  8
0
100
AcDbLine
 62
7
  6
BYLAYER
 10
55.0057238094
 20
121.0396974267
 11
54.6770664098
 21
121.2294396395
  0
LINE
  5
28C
100
AcDbEntity
  8
0
100
AcDbLine
 62
7
  6
BYLAYER
 10
82.9667271661
 20
154.4760520124
 11
82.9667271661
 21
154.5973600149
  0
LINE
  5
28D
100
AcDbEntity
  8
0
100
AcDbLine
 62
7
  6
BYLAYER
 10
84.7187796306
 20
156.0992936921
 11
84.7187796306
 21
156.5075449007
  0
LINE
  5
28E
100
AcDbEntity
  8
0
100
AcDbLine
 62
7
  6
BYLAYER
 10
85.1376591144
 20
109.1955640097
 11
85.1376591144
 21
109.971241306
  0
LINE
  5
28F
100
AcDbEntity
  8
0
100
AcDbLine
 62
7
  6
BYLAYER
 10
85.9060669943
 20
154.1891062568
 11
85.9060669943
 21
155.0056086739
  0
LINE
  5
290
100
AcDbEntity
  8
0
100
AcDbLine
 62
7
  6
BYLAYER
 10
27.9602280324
 20
68.7625939307
 11
27.9260519239
 21
68.742862463
  0
LINE
  5
291
100
AcDbEntity
  8
0
100
AcDbLine
 62
7
  6
BYLAYER
 10
24.9758338655
 20
122.0066933487
 11
24.7419582299
 21
122.0444276998
  0
LINE
  5
292
100
AcDbEntity
  8
0
100
AcDbLine
 62
7
  6
BYLAYER
 10
58.919692873
 20
123.6789073973
 11
59.2483468326
 21
123.4891623499
  0
LINE
  5
293
100
AcDbEntity
  8
0
100
AcDbLine
 62
7
  6
BYLAYER
 10
78.7736715328
 20
113.6454081286
 11
85.1376591144
 21
109.971241306
  0
LINE
  5
294
100
AcDbEntity
  8
0
100
AcDbLine
 62
7
  6
BYLAYER
 10
86.9667227501
 20
155.6179749047
 11
86.9667227501
 21
154.8014724876
  0
LINE
  5
295
100
AcDbEntity
  8
0
100
AcDbLine
 62
7
  6
BYLAYER
 10
86.9667021423
 20
158.5573223258
 11
86.9666868648
 21
159.4617993251
  0
LINE
  5
296
100
AcDbEntity
  8
0
100
AcDbLine
 62
7
  6
BYLAYER
 10
88.0273873378
 20
154.1891113558
 11
88.0273873378
 21
155.005613773
  0
LINE
  5
297
100
AcDbEntity
  8
0
100
AcDbLine
 62
7
  6
BYLAYER
 10
89.2146471515
 20
156.5075557074
 11
89.2146471515
 21
156.0993044989
  0
LINE
  5
298
100
AcDbEntity
  8
0
100
AcDbLine
 62
7
  6
BYLAYER
 10
89.8658976469
 20
134.8899673277
 11
89.8658976469
 21
127.4302686435
  0
LINE
  5
299
100
AcDbEntity
  8
0
100
AcDbLine
 62
7
  6
BYLAYER
 10
90.9667271661
 20
154.3611270885
 11
90.9667271661
 21
154.5973600149
  0
LINE
  5
29A
100
AcDbEntity
  8
0
100
AcDbLine
 62
7
  6
BYLAYER
 10
70.5267039668
 20
121.6724834
 11
72.8601660598
 21
120.3252889101
  0
LINE
  5
29B
100
AcDbEntity
  8
0
100
AcDbLine
 62
7
  6
BYLAYER
 10
72.8601660598
 20
121.5908676566
 11
70.5267039668
 21
122.9380621466
  0
LINE
  5
29C
100
AcDbEntity
  8
0
100
AcDbLine
 62
7
  6
BYLAYER
 10
91.7398190832
 20
133.9198080162
 11
91.7398190832
 21
135.1853867627
  0
LINE
  5
29D
100
AcDbEntity
  8
0
100
AcDbLine
 62
7
  6
BYLAYER
 10
94.0732811762
 20
132.5726135262
 11
94.0732811762
 21
133.8381922728
  0
LINE
  5
29E
100
AcDbEntity
  8
0
100
AcDbLine
 62
7
  6
BYLAYER
 10
94.6053897752
 20
134.1454018995
 11
94.6053897752
 21
132.879823153
  0
LINE
  5
29F
100
AcDbEntity
  8
0
100
AcDbLine
 62
7
  6
BYLAYER
 10
99.986786175
 20
125.1170551748
 11
99.986786175
 21
125.892732471
  0
LINE
  5
2A0
100
AcDbEntity
  8
0
100
AcDbLine
 62
7
  6
BYLAYER
 10
66.5372767686
 20
71.8492626036
 11
131.5796122433
 21
109.4012483435
  0
LINE
  5
2A1
100
AcDbEntity
  8
0
100
AcDbLine
 62
7
  6
BYLAYER
 10
125.2916604233
 20
135.8432650646
 11
125.0577876859
 21
135.8055288682
  0
LINE
  5
2A2
100
AcDbEntity
  8
0
100
AcDbLine
 62
7
  6
BYLAYER
 10
28.9838163325
 20
122.0444386169
 11
28.7499435952
 21
122.0067024205
  0
LINE
  5
2A3
100
AcDbEntity
  8
0
100
AcDbLine
 62
7
  6
BYLAYER
 10
75.8901815262
 20
132.2111855091
 11
76.2188389258
 21
132.0214432963
  0
LINE
  5
2A4
100
AcDbEntity
  8
0
100
AcDbLine
 62
7
  6
BYLAYER
 10
76.2188389258
 20
133.2870220428
 11
75.8901815262
 21
133.4767642557
  0
LINE
  5
2A5
100
AcDbEntity
  8
0
100
AcDbLine
 62
7
  6
BYLAYER
 10
106.3507737567
 20
121.4428883521
 11
106.3507737567
 21
122.2185656484
  0
LINE
  5
2A6
100
AcDbEntity
  8
0
100
AcDbLine
 62
7
  6
BYLAYER
 10
80.1328079894
 20
135.9262320134
 11
80.4614619491
 21
135.7364869661
  0
LINE
  5
2A7
100
AcDbEntity
  8
0
100
AcDbLine
 62
7
  6
BYLAYER
 10
99.986786175
 20
125.1170551748
 11
106.3507737567
 21
121.4428883521
  0
LINE
  5
2A8
100
AcDbEntity
  8
0
100
AcDbLine
 62
7
  6
BYLAYER
 10
106.3507737567
 20
122.2185656484
 11
99.986786175
 21
125.892732471
  0
LINE
  5
2A9
100
AcDbEntity
  8
0
100
AcDbLine
 62
7
  6
BYLAYER
 10
91.7398190832
 20
133.9198080162
 11
94.0732811762
 21
132.5726135262
  0
LINE
  5
2AA
100
AcDbEntity
  8
0
100
AcDbLine
 62
7
  6
BYLAYER
 10
94.0732811762
 20
133.8381922728
 11
91.7398190832
 21
135.1853867627
  0
LINE
  5
2AB
100
AcDbEntity
  8
0
100
AcDbLine
 62
7
  6
BYLAYER
 10
116.9573310778
 20
127.5665505233
 11
116.9573310778
 21
128.3422278196
  0
LINE
  5
2AC
100
AcDbEntity
  8
0
100
AcDbLine
 62
7
  6
BYLAYER
 10
132.744736723
 20
90.9493754913
 11
64.4687494805
 21
51.5304511769
  0
LINE
  5
2AD
100
AcDbEntity
  8
0
100
AcDbLine
 62
7
  6
BYLAYER
 10
63.5040163147
 20
50.3392757391
 11
132.8850870642
 21
90.3962165053
  0
LINE
  5
2AE
100
AcDbEntity
  8
0
100
AcDbLine
 62
7
  6
BYLAYER
 10
121.2836779562
 20
135.8055197963
 11
121.0498023206
 21
135.8432541474
  0
LINE
  5
2AF
100
AcDbEntity
  8
0
100
AcDbLine
 62
7
  6
BYLAYER
 10
106.8365839068
 20
134.185311735
 11
116.9573310778
 21
128.3422278196
  0
LINE
  5
2B0
100
AcDbEntity
  8
0
100
AcDbLine
 62
7
  6
BYLAYER
 10
119.1707450936
 20
133.574125381
 11
119.1707450936
 21
133.6954333834
  0
LINE
  5
2B1
100
AcDbEntity
  8
0
100
AcDbLine
 62
7
  6
BYLAYER
 10
120.9227975581
 20
135.1973670607
 11
120.9227975581
 21
135.6056182693
  0
LINE
  5
2B2
100
AcDbEntity
  8
0
100
AcDbLine
 62
7
  6
BYLAYER
 10
122.1100849218
 20
133.2871796254
 11
122.1100849218
 21
134.1036820425
  0
LINE
  5
2B3
100
AcDbEntity
  8
0
100
AcDbLine
 62
7
  6
BYLAYER
 10
123.1707406776
 20
134.7160482733
 11
123.1707406776
 21
133.8995458562
  0
LINE
  5
2B4
100
AcDbEntity
  8
0
100
AcDbLine
 62
7
  6
BYLAYER
 10
132.8791395036
 20
132.9526871184
 11
129.1811527336
 21
134.1853492809
  0
LINE
  5
2B5
100
AcDbEntity
  8
0
100
AcDbLine
 62
7
  6
BYLAYER
 10
124.2314052653
 20
133.2871847244
 11
124.2314052653
 21
134.1036871415
  0
LINE
  5
2B6
100
AcDbEntity
  8
0
100
AcDbLine
 62
7
  6
BYLAYER
 10
125.418665079
 20
135.605629076
 11
125.418665079
 21
135.1973778674
  0
LINE
  5
2B7
100
AcDbEntity
  8
0
100
AcDbLine
 62
7
  6
BYLAYER
 10
127.1707450936
 20
133.4592004571
 11
127.1707450936
 21
133.6954333834
  0
LINE
  5
2B8
100
AcDbEntity
  8
0
100
AcDbLine
 62
7
  6
BYLAYER
 10
89.0876424957
 20
156.745191696
 11
88.8537697584
 21
156.7074554996
  0
LINE
  5
2B9
100
AcDbEntity
  8
0
100
AcDbLine
 62
7
  6
BYLAYER
 10
85.0796600287
 20
156.7074464278
 11
84.8457843931
 21
156.7451807788
  0
LINE
  5
2BA
100
AcDbEntity
  8
0
100
AcDbLine
 62
7
  6
BYLAYER
 10
84.0190042729
 20
156.095080197
 11
85.9060669943
 21
155.0056086739
  0
LINE
  5
2BB
100
AcDbEntity
  8
0
100
AcDbLine
 62
7
  6
BYLAYER
 10
86.966731582
 20
154.3932475421
 11
88.8537943034
 21
153.3037760191
  0
LINE
  5
2BC
100
AcDbEntity
  8
0
100
AcDbLine
 62
7
  6
BYLAYER
 10
120.2230222004
 20
135.1931535655
 11
122.1100849218
 21
134.1036820425
  0
LINE
  5
2BD
100
AcDbEntity
  8
0
100
AcDbLine
 62
7
  6
BYLAYER
 10
123.1707495095
 20
133.4913209107
 11
125.0578122309
 21
132.4018493877
  0
LINE
  5
2BE
100
AcDbEntity
  8
0
100
AcDbLine
 62
7
  6
BYLAYER
 10
84.7187796306
 20
156.0992936921
 11
86.9667227501
 21
154.8014724876
  0
LINE
  5
2BF
100
AcDbEntity
  8
0
100
AcDbLine
 62
7
  6
BYLAYER
 10
88.0273873378
 20
154.1891113558
 11
89.6279258889
 21
153.2650608973
  0
LINE
  5
2C0
100
AcDbEntity
  8
0
100
AcDbLine
 62
7
  6
BYLAYER
 10
120.9227975581
 20
135.1973670607
 11
123.1707406776
 21
133.8995458562
  0
LINE
  5
2C1
100
AcDbEntity
  8
0
100
AcDbLine
 62
7
  6
BYLAYER
 10
124.2314052653
 20
133.2871847244
 11
125.8319438164
 21
132.3631342659
  0
LINE
  5
2C2
100
AcDbEntity
  8
0
100
AcDbLine
 62
7
  6
BYLAYER
 10
126.1184679867
 20
133.0142156185
 11
124.2314052653
 21
134.1036871415
  0
LINE
  5
2C3
100
AcDbEntity
  8
0
100
AcDbLine
 62
7
  6
BYLAYER
 10
123.1707406776
 20
134.7160482733
 11
121.2836779562
 21
135.8055197963
  0
LINE
  5
2C4
100
AcDbEntity
  8
0
100
AcDbLine
 62
7
  6
BYLAYER
 10
89.9144500592
 20
153.9161422499
 11
88.0273873378
 21
155.005613773
  0
LINE
  5
2C5
100
AcDbEntity
  8
0
100
AcDbLine
 62
7
  6
BYLAYER
 10
86.9667227501
 20
155.6179749047
 11
85.0796600287
 21
156.7074464278
  0
LINE
  5
2C6
100
AcDbEntity
  8
0
100
AcDbLine
 62
7
  6
BYLAYER
 10
129.1811527336
 20
134.1853492809
 11
86.9667021423
 21
158.5573223258
  0
LINE
  5
2C7
100
AcDbEntity
  8
0
100
AcDbLine
 62
7
  6
BYLAYER
 10
132.8879216237
 20
132.6913860538
 11
132.8791395036
 21
132.9526871184
  0
LINE
  5
2C8
100
AcDbEntity
  8
0
100
AcDbLine
 62
7
  6
BYLAYER
 10
132.8880216799
 20
90.4047876683
 11
132.8880216799
 21
132.3848828165
  0
LINE
  5
2C9
100
AcDbEntity
  8
0
100
AcDbLine
 62
7
  6
BYLAYER
 10
126.5545644521
 20
137.718190043
 11
97.8571128425
 21
154.2862966342
  0
LINE
  5
2CA
100
AcDbEntity
  8
0
100
AcDbLine
 62
7
  6
BYLAYER
 10
132.8878812775
 20
90.4047151297
 11
132.8852308381
 21
90.3962995156
  0
ARC
  5
2CB
100
AcDbEntity
  8
0
100
AcDbCircle
 62
7
  6
BYLAYER
 10
-1083.85870558
 20
-100.5311105473
 40
1148.0360273819
100
AcDbArc
 50
7.7617552776
 51
8.3512441764
  0
ARC
  5
2CC
100
AcDbEntity
  8
0
100
AcDbCircle
 62
7
  6
BYLAYER
 10
122.8284663127
 20
137.3570851854
 40
5.557000174
100
AcDbArc
 50
250.7960484976
 51
252.494877232
  0
ARC
  5
2CD
100
AcDbEntity
  8
0
100
AcDbCircle
 62
7
  6
BYLAYER
 10
26.520622222
 20
123.5582587379
 40
5.5570001742
100
AcDbArc
 50
250.7960484976
 51
252.494877232
  0
ARC
  5
2CE
100
AcDbEntity
  8
0
100
AcDbCircle
 62
7
  6
BYLAYER
 10
62.7246401495
 20
102.6563321063
 40
5.557000174
100
AcDbArc
 50
250.7960484975
 51
252.494877232
  0
ARC
  5
2CF
100
AcDbEntity
  8
0
100
AcDbCircle
 62
7
  6
BYLAYER
 10
86.6244483852
 20
158.259011817
 40
5.5570001742
100
AcDbArc
 50
250.7960484977
 51
252.494877232
  0
ARC
  5
2D0
100
AcDbEntity
  8
0
100
AcDbCircle
 62
7
  6
BYLAYER
 10
123.5327553632
 20
137.2979434256
 40
5.4946915897
100
AcDbArc
 50
287.7955973936
 51
289.2843706935
  0
ARC
  5
2D1
100
AcDbEntity
  8
0
100
AcDbCircle
 62
7
  6
BYLAYER
 10
27.2249112726
 20
123.4991169775
 40
5.4946915893
100
AcDbArc
 50
287.7955973935
 51
289.2843706935
  0
ARC
  5
2D2
100
AcDbEntity
  8
0
100
AcDbCircle
 62
7
  6
BYLAYER
 10
63.4289292001
 20
102.5971903462
 40
5.4946915893
100
AcDbArc
 50
287.7955973936
 51
289.2843706935
  0
ARC
  5
2D3
100
AcDbEntity
  8
0
100
AcDbCircle
 62
7
  6
BYLAYER
 10
87.3287374357
 20
158.1998700568
 40
5.4946915895
100
AcDbArc
 50
287.7955973936
 51
289.2843706935
  0
ARC
  5
2D4
100
AcDbEntity
  8
0
100
AcDbCircle
 62
7
  6
BYLAYER
 10
86.5778066374
 20
158.1233774818
 40
5.4135714665
100
AcDbArc
 50
250.4980383901
 51
250.790035496
  0
ARC
  5
2D5
100
AcDbEntity
  8
0
100
AcDbCircle
 62
7
  6
BYLAYER
 10
62.6779983991
 20
102.5206977637
 40
5.4135714585
100
AcDbArc
 50
250.4980383899
 51
250.7900354962
  0
ARC
  5
2D6
100
AcDbEntity
  8
0
100
AcDbCircle
 62
7
  6
BYLAYER
 10
26.4739804699
 20
123.4226243903
 40
5.4135714533
100
AcDbArc
 50
250.4980383898
 51
250.7900354964
  0
ARC
  5
2D7
100
AcDbEntity
  8
0
100
AcDbCircle
 62
7
  6
BYLAYER
 10
122.7818245602
 20
137.2214508369
 40
5.4135714523
100
AcDbArc
 50
250.4980383897
 51
250.7900354963
  0
ARC
  5
2D8
100
AcDbEntity
  8
0
100
AcDbCircle
 62
7
  6
BYLAYER
 10
62.7945849911
 20
55.153403878
 40
5.225376417
100
AcDbArc
 50
251.0039185383
 51
251.6726733939
  0
ARC
  5
2D9
100
AcDbEntity
  8
0
100
AcDbCircle
 62
7
  6
BYLAYER
 10
33.6343907769
 20
84.2677469429
 40
5.1183797123
100
AcDbArc
 50
126.0625747207
 51
131.8455779789
  0
ARC
  5
2DA
100
AcDbEntity
  8
0
100
AcDbCircle
 62
7
  6
BYLAYER
 10
85.4976795668
 20
154.4545508738
 40
2.2085780686
100
AcDbArc
 50
132.0296135567
 51
136.0784061339
  0
ARC
  5
2DB
100
AcDbEntity
  8
0
100
AcDbCircle
 62
7
  6
BYLAYER
 10
61.5978713312
 20
98.8518711633
 40
2.2085780686
100
AcDbArc
 50
132.0296135566
 51
136.0784061339
  0
ARC
  5
2DC
100
AcDbEntity
  8
0
100
AcDbCircle
 62
7
  6
BYLAYER
 10
121.7016974943
 20
133.5526242424
 40
2.2085780685
100
AcDbArc
 50
132.0296135566
 51
136.0784061339
  0
ARC
  5
2DD
100
AcDbEntity
  8
0
100
AcDbCircle
 62
7
  6
BYLAYER
 10
25.3938534037
 20
119.7537977947
 40
2.2085780686
100
AcDbArc
 50
132.0296135566
 51
136.0784061339
  0
ARC
  5
2DE
100
AcDbEntity
  8
0
100
AcDbCircle
 62
7
  6
BYLAYER
 10
88.4607678372
 20
154.4803834201
 40
2.1726568445
100
AcDbArc
 50
43.8885977321
 51
48.0044243535
  0
ARC
  5
2DF
100
AcDbEntity
  8
0
100
AcDbCircle
 62
7
  6
BYLAYER
 10
64.5609596016
 20
98.8777037095
 40
2.1726568445
100
AcDbArc
 50
43.8885977321
 51
48.0044243535
  0
ARC
  5
2E0
100
AcDbEntity
  8
0
100
AcDbCircle
 62
7
  6
BYLAYER
 10
124.6647857648
 20
133.5784567886
 40
2.1726568445
100
AcDbArc
 50
43.8885977321
 51
48.0044243535
  0
ARC
  5
2E1
100
AcDbEntity
  8
0
100
AcDbCircle
 62
7
  6
BYLAYER
 10
28.3569416741
 20
119.779630341
 40
2.1726568445
100
AcDbArc
 50
43.8885977321
 51
48.0044243535
  0
ARC
  5
2E2
100
AcDbEntity
  8
0
100
AcDbCircle
 62
7
  6
BYLAYER
 10
89.6125035622
 20
154.5982616896
 40
1.3541608993
100
AcDbArc
 50
348.7903374134
 51
359.9618493179
  0
ARC
  5
2E3
100
AcDbEntity
  8
0
100
AcDbCircle
 62
7
  6
BYLAYER
 10
65.7126953266
 20
98.9955819791
 40
1.3541608993
100
AcDbArc
 50
348.7903374131
 51
359.9618493178
  0
ARC
  5
2E4
100
AcDbEntity
  8
0
100
AcDbCircle
 62
7
  6
BYLAYER
 10
125.8165214897
 20
133.6963350582
 40
1.3541608993
100
AcDbArc
 50
348.7903374131
 51
359.9618493179
  0
ARC
  5
2E5
100
AcDbEntity
  8
0
100
AcDbCircle
 62
7
  6
BYLAYER
 10
29.508677399
 20
119.8975086106
 40
1.3541608993
100
AcDbArc
 50
348.7903374135
 51
359.9618493179
  0
ARC
  5
2E6
100
AcDbEntity
  8
0
100
AcDbCircle
 62
7
  6
BYLAYER
 10
24.2058369518
 20
119.8967582593
 40
1.3428729344
100
AcDbArc
 50
180.0064564551
 51
185.9841278543
  0
ARC
  5
2E7
100
AcDbEntity
  8
0
100
AcDbCircle
 62
7
  6
BYLAYER
 10
84.3096631149
 20
154.5975113384
 40
1.3428729344
100
AcDbArc
 50
180.0064564551
 51
185.9841278543
  0
ARC
  5
2E8
100
AcDbEntity
  8
0
100
AcDbCircle
 62
7
  6
BYLAYER
 10
120.5136810425
 20
133.695584707
 40
1.3428729344
100
AcDbArc
 50
180.0064564551
 51
185.9841278547
  0
ARC
  5
2E9
100
AcDbEntity
  8
0
100
AcDbCircle
 62
7
  6
BYLAYER
 10
60.4098548793
 20
98.9948316279
 40
1.3428729344
100
AcDbArc
 50
180.0064564551
 51
185.9841278547
  0
ARC
  5
2EA
100
AcDbEntity
  8
0
100
AcDbCircle
 62
7
  6
BYLAYER
 10
89.42172432
 20
153.2116466934
 40
0.8666349844
100
AcDbArc
 50
27.5069419777
 51
30.1739006568
  0
ARC
  5
2EB
100
AcDbEntity
  8
0
100
AcDbCircle
 62
7
  6
BYLAYER
 10
65.5219160843
 20
97.6089669829
 40
0.8666349844
100
AcDbArc
 50
27.5069419773
 51
30.1739006568
  0
ARC
  5
2EC
100
AcDbEntity
  8
0
100
AcDbCircle
 62
7
  6
BYLAYER
 10
125.6257422475
 20
132.309720062
 40
0.8666349844
100
AcDbArc
 50
27.5069419772
 51
30.1739006568
  0
ARC
  5
2ED
100
AcDbEntity
  8
0
100
AcDbCircle
 62
7
  6
BYLAYER
 10
29.3178981567
 20
118.5108936143
 40
0.8666349845
100
AcDbArc
 50
27.5069419779
 51
30.1739006567
  0
SPLINE
  5
2EE
100
AcDbEntity
  8
0
100
AcDbSpline
 62
7
  6
BYLAYER
 70
0
 71
3
 72
11
 73
7
 74
0
 42
0.0000001
 43
0.0000001
 44
0.0000000001
 40
0.0
 40
0.0
 40
0.0
 40
0.0
 40
0.2190079052
 40
0.4494207024
 40
0.7079562341
 40
1.0
 40
1.0
 40
1.0
 40
1.0
 10
83.7354620814
 20
156.1032930446
 30
0.0
 10
83.7521603265
 20
156.117659889
 30
0.0
 10
83.7928057766
 20
156.1405064293
 30
0.0
 10
83.8649914668
 20
156.1490544471
 30
0.0
 10
83.9429309528
 20
156.1332843437
 30
0.0
 10
83.993565365
 20
156.109767025
 30
0.0
 10
84.0190042729
 20
156.095080197
 30
0.0
  0
SPLINE
  5
2EF
100
AcDbEntity
  8
0
100
AcDbSpline
 62
7
  6
BYLAYER
 70
0
 71
3
 72
11
 73
7
 74
0
 42
0.0000001
 43
0.0000001
 44
0.0000000001
 40
0.0
 40
0.0
 40
0.0
 40
0.0
 40
0.2412781855
 40
0.4854484554
 40
0.7372523254
 40
1.0
 40
1.0
 40
1.0
 40
1.0
 10
82.9667271661
 20
154.5973600149
 30
0.0
 10
82.9667271661
 20
154.7374607088
 30
0.0
 10
83.0028491017
 20
155.0205815385
 30
0.0
 10
83.1602864509
 20
155.4226708037
 30
0.0
 10
83.4077403731
 20
155.7908321084
 30
0.0
 10
83.6197478657
 20
156.0038627949
 30
0.0
 10
83.7354537688
 20
156.1033056798
 30
0.0
  0
SPLINE
  5
2F0
100
AcDbEntity
  8
0
100
AcDbSpline
 62
7
  6
BYLAYER
 70
0
 71
3
 72
11
 73
7
 74
0
 42
0.0000001
 43
0.0000001
 44
0.0000000001
 40
0.0
 40
0.0
 40
0.0
 40
0.0
 40
0.2627478779
 40
0.5145495367
 40
0.7587207298
 40
1.0
 40
1.0
 40
1.0
 40
1.0
 10
90.1979812014
 20
156.103322319
 30
0.0
 10
90.313689735
 20
156.0038789023
 30
0.0
 10
90.5257001003
 20
155.7908468632
 30
0.0
 10
90.7731638235
 20
155.4226848425
 30
0.0
 10
90.9306018477
 20
155.020589039
 30
0.0
 10
90.9667271661
 20
154.7374633805
 30
0.0
 10
90.9667271661
 20
154.5973600149
 30
0.0
  0
SPLINE
  5
2F1
100
AcDbEntity
  8
0
100
AcDbSpline
 62
7
  6
BYLAYER
 70
0
 71
3
 72
11
 73
7
 74
0
 42
0.0000001
 43
0.0000001
 44
0.0000000001
 40
0.0
 40
0.0
 40
0.0
 40
0.0
 40
0.2190727486
 40
0.4497467741
 40
0.7081707534
 40
1.0
 40
1.0
 40
1.0
 40
1.0
 10
84.8457140127
 20
156.7453189675
 30
0.0
 10
84.8262259573
 20
156.7378240938
 30
0.0
 10
84.7887668832
 20
156.7146000845
 30
0.0
 10
84.7476650544
 20
156.6594036256
 30
0.0
 10
84.723543617
 20
156.5880216906
 30
0.0
 10
84.7187796306
 20
156.5353588399
 30
0.0
 10
84.7187796306
 20
156.5075449007
 30
0.0
  0
SPLINE
  5
2F2
100
AcDbEntity
  8
0
100
AcDbSpline
 62
7
  6
BYLAYER
 70
0
 71
3
 72
11
 73
7
 74
0
 42
0.0000001
 43
0.0000001
 44
0.0000000001
 40
0.0
 40
0.0
 40
0.0
 40
0.0
 40
0.2440509894
 40
0.500001349
 40
0.7559509973
 40
1.0
 40
1.0
 40
1.0
 40
1.0
 10
84.8457119918
 20
156.7453247636
 30
0.0
 10
85.1740543993
 20
156.8716810497
 30
0.0
 10
85.8758633857
 20
157.0579532058
 30
0.0
 10
86.9667171919
 20
157.1487719721
 30
0.0
 10
88.0575683215
 20
157.0579564824
 30
0.0
 10
88.7593742784
 20
156.8716887185
 30
0.0
 10
89.0877147539
 20
156.7453353861
 30
0.0
  0
SPLINE
  5
2F3
100
AcDbEntity
  8
0
100
AcDbSpline
 62
7
  6
BYLAYER
 70
0
 71
3
 72
11
 73
7
 74
0
 42
0.0000001
 43
0.0000001
 44
0.0000000001
 40
0.0
 40
0.0
 40
0.0
 40
0.0
 40
0.2177793257
 40
0.4509229713
 40
0.7102590466
 40
1.0
 40
1.0
 40
1.0
 40
1.0
 10
91.1667023024
 20
155.0872614731
 30
0.0
 10
91.1667303588
 20
154.9272934175
 30
0.0
 10
91.1075720705
 20
154.5938540665
 30
0.0
 10
90.8548327258
 20
154.1293074827
 30
0.0
 10
90.4552712504
 20
153.7093100148
 30
0.0
 10
90.1209017843
 20
153.4790632672
 30
0.0
 10
89.9365880117
 20
153.3726502962
 30
0.0
  0
SPLINE
  5
2F4
100
AcDbEntity
  8
0
100
AcDbSpline
 62
7
  6
BYLAYER
 70
0
 71
3
 72
11
 73
7
 74
0
 42
0.0000001
 43
0.0000001
 44
0.0000000001
 40
0.0
 40
0.0
 40
0.0
 40
0.0
 40
0.2190079052
 40
0.4494207024
 40
0.7079562341
 40
1.0
 40
1.0
 40
1.0
 40
1.0
 10
59.8356538457
 20
100.5006133341
 30
0.0
 10
59.8523520908
 20
100.5149801785
 30
0.0
 10
59.8929975409
 20
100.5378267188
 30
0.0
 10
59.9651832311
 20
100.5463747366
 30
0.0
 10
60.0431227172
 20
100.5306046332
 30
0.0
 10
60.0937571293
 20
100.5070873145
 30
0.0
 10
60.1191960372
 20
100.4924004864
 30
0.0
  0
SPLINE
  5
2F5
100
AcDbEntity
  8
0
100
AcDbSpline
 62
7
  6
BYLAYER
 70
0
 71
3
 72
11
 73
7
 74
0
 42
0.0000001
 43
0.0000001
 44
0.0000000001
 40
0.0
 40
0.0
 40
0.0
 40
0.0
 40
0.2412781855
 40
0.4854484554
 40
0.7372523254
 40
1.0
 40
1.0
 40
1.0
 40
1.0
 10
59.0669189304
 20
98.9946803044
 30
0.0
 10
59.0669189304
 20
99.1347809982
 30
0.0
 10
59.103040866
 20
99.417901828
 30
0.0
 10
59.2604782153
 20
99.8199910932
 30
0.0
 10
59.5079321374
 20
100.1881523979
 30
0.0
 10
59.71993963
 20
100.4011830844
 30
0.0
 10
59.8356455331
 20
100.5006259693
 30
0.0
  0
SPLINE
  5
2F6
100
AcDbEntity
  8
0
100
AcDbSpline
 62
7
  6
BYLAYER
 70
0
 71
3
 72
11
 73
7
 74
0
 42
0.0000001
 43
0.0000001
 44
0.0000000001
 40
0.0
 40
0.0
 40
0.0
 40
0.0
 40
0.2627478779
 40
0.5145495367
 40
0.7587207298
 40
1.0
 40
1.0
 40
1.0
 40
1.0
 10
66.2981729657
 20
100.5006426084
 30
0.0
 10
66.4138814994
 20
100.4011991918
 30
0.0
 10
66.6258918646
 20
100.1881671527
 30
0.0
 10
66.8733555879
 20
99.820005132
 30
0.0
 10
67.030793612
 20
99.4179093285
 30
0.0
 10
67.0669189304
 20
99.13478367
 30
0.0
 10
67.0669189304
 20
98.9946803044
 30
0.0
  0
SPLINE
  5
2F7
100
AcDbEntity
  8
0
100
AcDbSpline
 62
7
  6
BYLAYER
 70
0
 71
3
 72
11
 73
7
 74
0
 42
0.0000001
 43
0.0000001
 44
0.0000000001
 40
0.0
 40
0.0
 40
0.0
 40
0.0
 40
0.2190727486
 40
0.4497467741
 40
0.7081707534
 40
1.0
 40
1.0
 40
1.0
 40
1.0
 10
60.945905777
 20
101.142639257
 30
0.0
 10
60.9264177217
 20
101.1351443833
 30
0.0
 10
60.8889586475
 20
101.111920374
 30
0.0
 10
60.8478568187
 20
101.0567239151
 30
0.0
 10
60.8237353814
 20
100.9853419801
 30
0.0
 10
60.818971395
 20
100.9326791294
 30
0.0
 10
60.818971395
 20
100.9048651902
 30
0.0
  0
SPLINE
  5
2F8
100
AcDbEntity
  8
0
100
AcDbSpline
 62
7
  6
BYLAYER
 70
0
 71
3
 72
11
 73
7
 74
0
 42
0.0000001
 43
0.0000001
 44
0.0000000001
 40
0.0
 40
0.0
 40
0.0
 40
0.0
 40
0.2440509894
 40
0.500001349
 40
0.7559509973
 40
1.0
 40
1.0
 40
1.0
 40
1.0
 10
60.9459037561
 20
101.1426450531
 30
0.0
 10
61.2742461636
 20
101.2690013392
 30
0.0
 10
61.9760551501
 20
101.4552734953
 30
0.0
 10
63.0669089563
 20
101.5460922616
 30
0.0
 10
64.1577600858
 20
101.4552767719
 30
0.0
 10
64.8595660428
 20
101.269009008
 30
0.0
 10
65.1879065183
 20
101.1426556756
 30
0.0
  0
SPLINE
  5
2F9
100
AcDbEntity
  8
0
100
AcDbSpline
 62
7
  6
BYLAYER
 70
0
 71
3
 72
11
 73
7
 74
0
 42
0.0000001
 43
0.0000001
 44
0.0000000001
 40
0.0
 40
0.0
 40
0.0
 40
0.0
 40
0.2177793257
 40
0.4509229713
 40
0.7102590466
 40
1.0
 40
1.0
 40
1.0
 40
1.0
 10
67.2668940667
 20
99.4845817626
 30
0.0
 10
67.2669221232
 20
99.324613707
 30
0.0
 10
67.2077638348
 20
98.991174356
 30
0.0
 10
66.9550244901
 20
98.5266277721
 30
0.0
 10
66.5554630147
 20
98.1066303042
 30
0.0
 10
66.2210935487
 20
97.8763835567
 30
0.0
 10
66.036779776
 20
97.7699705856
 30
0.0
  0
SPLINE
  5
2FA
100
AcDbEntity
  8
0
100
AcDbSpline
 62
7
  6
BYLAYER
 70
0
 71
3
 72
11
 73
7
 74
0
 42
0.0000001
 43
0.0000001
 44
0.0000000001
 40
0.0
 40
0.0
 40
0.0
 40
0.0
 40
0.2190079052
 40
0.4494207024
 40
0.7079562341
 40
1.0
 40
1.0
 40
1.0
 40
1.0
 10
23.6316359182
 20
121.4025399655
 30
0.0
 10
23.6483341633
 20
121.41690681
 30
0.0
 10
23.6889796134
 20
121.4397533502
 30
0.0
 10
23.7611653036
 20
121.448301368
 30
0.0
 10
23.8391047896
 20
121.4325312646
 30
0.0
 10
23.8897392018
 20
121.409013946
 30
0.0
 10
23.9151781097
 20
121.3943271179
 30
0.0
  0
SPLINE
  5
2FB
100
AcDbEntity
  8
0
100
AcDbSpline
 62
7
  6
BYLAYER
 70
0
 71
3
 72
11
 73
7
 74
0
 42
0.0000001
 43
0.0000001
 44
0.0000000001
 40
0.0
 40
0.0
 40
0.0
 40
0.0
 40
0.2412781855
 40
0.4854484554
 40
0.7372523254
 40
1.0
 40
1.0
 40
1.0
 40
1.0
 10
22.8629010029
 20
119.8966069358
 30
0.0
 10
22.8629010029
 20
120.0367076297
 30
0.0
 10
22.8990229385
 20
120.3198284594
 30
0.0
 10
23.0564602877
 20
120.7219177247
 30
0.0
 10
23.3039142099
 20
121.0900790293
 30
0.0
 10
23.5159217025
 20
121.3031097159
 30
0.0
 10
23.6316276056
 20
121.4025526007
 30
0.0
  0
SPLINE
  5
2FC
100
AcDbEntity
  8
0
100
AcDbSpline
 62
7
  6
BYLAYER
 70
0
 71
3
 72
11
 73
7
 74
0
 42
0.0000001
 43
0.0000001
 44
0.0000000001
 40
0.0
 40
0.0
 40
0.0
 40
0.0
 40
0.2627478779
 40
0.5145495367
 40
0.7587207298
 40
1.0
 40
1.0
 40
1.0
 40
1.0
 10
30.0941550382
 20
121.4025692399
 30
0.0
 10
30.2098635718
 20
121.3031258232
 30
0.0
 10
30.4218739371
 20
121.0900937841
 30
0.0
 10
30.6693376603
 20
120.7219317635
 30
0.0
 10
30.8267756845
 20
120.3198359599
 30
0.0
 10
30.8629010029
 20
120.0367103014
 30
0.0
 10
30.8629010029
 20
119.8966069358
 30
0.0
  0
SPLINE
  5
2FD
100
AcDbEntity
  8
0
100
AcDbSpline
 62
7
  6
BYLAYER
 70
0
 71
3
 72
11
 73
7
 74
0
 42
0.0000001
 43
0.0000001
 44
0.0000000001
 40
0.0
 40
0.0
 40
0.0
 40
0.0
 40
0.2190727486
 40
0.4497467741
 40
0.7081707534
 40
1.0
 40
1.0
 40
1.0
 40
1.0
 10
24.7418878495
 20
122.0445658884
 30
0.0
 10
24.7223997941
 20
122.0370710147
 30
0.0
 10
24.68494072
 20
122.0138470055
 30
0.0
 10
24.6438388912
 20
121.9586505466
 30
0.0
 10
24.6197174538
 20
121.8872686115
 30
0.0
 10
24.6149534674
 20
121.8346057608
 30
0.0
 10
24.6149534674
 20
121.8067918216
 30
0.0
  0
SPLINE
  5
2FE
100
AcDbEntity
  8
0
100
AcDbSpline
 62
7
  6
BYLAYER
 70
0
 71
3
 72
11
 73
7
 74
0
 42
0.0000001
 43
0.0000001
 44
0.0000000001
 40
0.0
 40
0.0
 40
0.0
 40
0.0
 40
0.2440509894
 40
0.500001349
 40
0.7559509973
 40
1.0
 40
1.0
 40
1.0
 40
1.0
 10
24.7418858286
 20
122.0445716845
 30
0.0
 10
25.0702282361
 20
122.1709279707
 30
0.0
 10
25.7720372225
 20
122.3572001268
 30
0.0
 10
26.8628910287
 20
122.448018893
 30
0.0
 10
27.9537421583
 20
122.3572034033
 30
0.0
 10
28.6555481153
 20
122.1709356394
 30
0.0
 10
28.9838885907
 20
122.044582307
 30
0.0
  0
SPLINE
  5
2FF
100
AcDbEntity
  8
0
100
AcDbSpline
 62
7
  6
BYLAYER
 70
0
 71
3
 72
11
 73
7
 74
0
 42
0.0000001
 43
0.0000001
 44
0.0000000001
 40
0.0
 40
0.0
 40
0.0
 40
0.0
 40
0.2177793257
 40
0.4509229713
 40
0.7102590466
 40
1.0
 40
1.0
 40
1.0
 40
1.0
 10
31.0628761392
 20
120.3865083941
 30
0.0
 10
31.0629041957
 20
120.2265403384
 30
0.0
 10
31.0037459073
 20
119.8931009874
 30
0.0
 10
30.7510065626
 20
119.4285544036
 30
0.0
 10
30.3514450872
 20
119.0085569357
 30
0.0
 10
30.0170756212
 20
118.7783101882
 30
0.0
 10
29.8327618485
 20
118.6718972171
 30
0.0
  0
SPLINE
  5
300
100
AcDbEntity
  8
0
100
AcDbSpline
 62
7
  6
BYLAYER
 70
0
 71
3
 72
11
 73
7
 74
0
 42
0.0000001
 43
0.0000001
 44
0.0000000001
 40
0.0
 40
0.0
 40
0.0
 40
0.0
 40
0.2190079052
 40
0.4494207024
 40
0.7079562341
 40
1.0
 40
1.0
 40
1.0
 40
1.0
 10
119.9394800089
 20
135.2013664132
 30
0.0
 10
119.956178254
 20
135.2157332576
 30
0.0
 10
119.9968237041
 20
135.2385797979
 30
0.0
 10
120.0690093943
 20
135.2471278157
 30
0.0
 10
120.1469488803
 20
135.2313577123
 30
0.0
 10
120.1975832925
 20
135.2078403936
 30
0.0
 10
120.2230222004
 20
135.1931535655
 30
0.0
  0
SPLINE
  5
301
100
AcDbEntity
  8
0
100
AcDbSpline
 62
7
  6
BYLAYER
 70
0
 71
3
 72
11
 73
7
 74
0
 42
0.0000001
 43
0.0000001
 44
0.0000000001
 40
0.0
 40
0.0
 40
0.0
 40
0.0
 40
0.2412781855
 40
0.4854484554
 40
0.7372523254
 40
1.0
 40
1.0
 40
1.0
 40
1.0
 10
119.1707450936
 20
133.6954333834
 30
0.0
 10
119.1707450936
 20
133.8355340773
 30
0.0
 10
119.2068670292
 20
134.1186549071
 30
0.0
 10
119.3643043785
 20
134.5207441723
 30
0.0
 10
119.6117583006
 20
134.8889054769
 30
0.0
 10
119.8237657932
 20
135.1019361635
 30
0.0
 10
119.9394716963
 20
135.2013790483
 30
0.0
  0
SPLINE
  5
302
100
AcDbEntity
  8
0
100
AcDbSpline
 62
7
  6
BYLAYER
 70
0
 71
3
 72
11
 73
7
 74
0
 42
0.0000001
 43
0.0000001
 44
0.0000000001
 40
0.0
 40
0.0
 40
0.0
 40
0.0
 40
0.2627478779
 40
0.5145495367
 40
0.7587207298
 40
1.0
 40
1.0
 40
1.0
 40
1.0
 10
126.4019991289
 20
135.2013956875
 30
0.0
 10
126.5177076625
 20
135.1019522709
 30
0.0
 10
126.7297180278
 20
134.8889202317
 30
0.0
 10
126.977181751
 20
134.5207582111
 30
0.0
 10
127.1346197752
 20
134.1186624075
 30
0.0
 10
127.1707450936
 20
133.8355367491
 30
0.0
 10
127.1707450936
 20
133.6954333834
 30
0.0
  0
SPLINE
  5
303
100
AcDbEntity
  8
0
100
AcDbSpline
 62
7
  6
BYLAYER
 70
0
 71
3
 72
11
 73
7
 74
0
 42
0.0000001
 43
0.0000001
 44
0.0000000001
 40
0.0
 40
0.0
 40
0.0
 40
0.0
 40
0.2190727486
 40
0.4497467741
 40
0.7081707534
 40
1.0
 40
1.0
 40
1.0
 40
1.0
 10
121.0497319402
 20
135.8433923361
 30
0.0
 10
121.0302438848
 20
135.8358974624
 30
0.0
 10
120.9927848107
 20
135.8126734531
 30
0.0
 10
120.9516829819
 20
135.7574769942
 30
0.0
 10
120.9275615445
 20
135.6860950592
 30
0.0
 10
120.9227975581
 20
135.6334322084
 30
0.0
 10
120.9227975581
 20
135.6056182693
 30
0.0
  0
SPLINE
  5
304
100
AcDbEntity
  8
0
100
AcDbSpline
 62
7
  6
BYLAYER
 70
0
 71
3
 72
11
 73
7
 74
0
 42
0.0000001
 43
0.0000001
 44
0.0000000001
 40
0.0
 40
0.0
 40
0.0
 40
0.0
 40
0.2440509894
 40
0.500001349
 40
0.7559509973
 40
1.0
 40
1.0
 40
1.0
 40
1.0
 10
121.0497299193
 20
135.8433981321
 30
0.0
 10
121.3780723268
 20
135.9697544183
 30
0.0
 10
122.0798813132
 20
136.1560265744
 30
0.0
 10
123.1707351194
 20
136.2468453406
 30
0.0
 10
124.261586249
 20
136.156029851
 30
0.0
 10
124.963392206
 20
135.9697620871
 30
0.0
 10
125.2917326814
 20
135.8434087547
 30
0.0
  0
SPLINE
  5
305
100
AcDbEntity
  8
0
100
AcDbSpline
 62
7
  6
BYLAYER
 70
0
 71
3
 72
11
 73
7
 74
0
 42
0.0000001
 43
0.0000001
 44
0.0000000001
 40
0.0
 40
0.0
 40
0.0
 40
0.0
 40
0.2177793257
 40
0.4509229713
 40
0.7102590466
 40
1.0
 40
1.0
 40
1.0
 40
1.0
 10
127.3707202299
 20
134.1853348417
 30
0.0
 10
127.3707482864
 20
134.0253667861
 30
0.0
 10
127.311589998
 20
133.6919274351
 30
0.0
 10
127.0588506533
 20
133.2273808512
 30
0.0
 10
126.6592891779
 20
132.8073833833
 30
0.0
 10
126.3249197119
 20
132.5771366358
 30
0.0
 10
126.1406059392
 20
132.4707236647
 30
0.0
  0
SPLINE
  5
306
100
AcDbEntity
  8
0
100
AcDbSpline
 62
7
  6
BYLAYER
 70
0
 71
3
 72
9
 73
5
 74
0
 42
0.0000001
 43
0.0000001
 44
0.0000000001
 40
0.0
 40
0.0
 40
0.0
 40
0.0
 40
0.2350889889
 40
1.0
 40
1.0
 40
1.0
 40
1.0
 10
96.1425681562
 20
131.2189668305
 30
0.0
 10
96.048719715
 20
131.3700700278
 30
0.0
 10
95.615689958
 20
131.9918100076
 30
0.0
 10
95.0617472316
 20
132.5238802368
 30
0.0
 10
94.6053897752
 20
132.879823153
 30
0.0
  0
SPLINE
  5
307
100
AcDbEntity
  8
0
100
AcDbSpline
 62
7
  6
BYLAYER
 70
0
 71
3
 72
12
 73
8
 74
0
 42
0.0000001
 43
0.0000001
 44
0.0000000001
 40
0.0
 40
0.0
 40
0.0
 40
0.0
 40
0.1081590485
 40
0.2183578548
 40
0.451359836
 40
0.7104170827
 40
1.0
 40
1.0
 40
1.0
 40
1.0
 10
96.8233674459
 20
133.4095839168
 30
0.0
 10
96.8233693272
 20
133.1975610355
 30
0.0
 10
96.7864336765
 20
132.7686369737
 30
0.0
 10
96.5637399916
 20
131.9086833845
 30
0.0
 10
95.991678639
 20
130.854271646
 30
0.0
 10
94.9263636987
 20
129.7352756454
 30
0.0
 10
94.034623359
 20
129.1211191507
 30
0.0
 10
93.5430095281
 20
128.8372874673
 30
0.0
  0
SPLINE
  5
308
100
AcDbEntity
  8
0
100
AcDbSpline
 62
7
  6
BYLAYER
 70
0
 71
3
 72
9
 73
5
 74
0
 42
0.0000001
 43
0.0000001
 44
0.0000000001
 40
0.0
 40
0.0
 40
0.0
 40
0.0
 40
0.2350889889
 40
1.0
 40
1.0
 40
1.0
 40
1.0
 10
74.9294530397
 20
118.9716422144
 30
0.0
 10
74.8356045986
 20
119.1227454116
 30
0.0
 10
74.4025748416
 20
119.7444853914
 30
0.0
 10
73.8486321152
 20
120.2765556207
 30
0.0
 10
73.3922746588
 20
120.6324985368
 30
0.0
  0
SPLINE
  5
309
100
AcDbEntity
  8
0
100
AcDbSpline
 62
7
  6
BYLAYER
 70
0
 71
3
 72
12
 73
8
 74
0
 42
0.0000001
 43
0.0000001
 44
0.0000000001
 40
0.0
 40
0.0
 40
0.0
 40
0.0
 40
0.1081590485
 40
0.2183578548
 40
0.451359836
 40
0.7104170827
 40
1.0
 40
1.0
 40
1.0
 40
1.0
 10
75.6102523295
 20
121.1622593007
 30
0.0
 10
75.6102542108
 20
120.9502364194
 30
0.0
 10
75.57331856
 20
120.5213123576
 30
0.0
 10
75.3506248752
 20
119.6613587683
 30
0.0
 10
74.7785635226
 20
118.6069470298
 30
0.0
 10
73.7132485823
 20
117.4879510293
 30
0.0
 10
72.8215082426
 20
116.8737945346
 30
0.0
 10
72.3298944117
 20
116.5899628512
 30
0.0
  0
SPLINE
  5
30A
100
AcDbEntity
  8
0
100
AcDbSpline
 62
7
  6
BYLAYER
 70
0
 71
3
 72
10
 73
6
 74
0
 42
0.0000001
 43
0.0000001
 44
0.0000000001
 40
0.0
 40
0.0
 40
0.0
 40
0.0
 40
0.2379720834
 40
0.4846531078
 40
1.0
 40
1.0
 40
1.0
 40
1.0
 10
20.791800948
 20
72.8572265187
 30
0.0
 10
20.5321251582
 20
73.0071696488
 30
0.0
 10
20.0176309984
 20
73.3376303904
 30
0.0
 10
19.0037681782
 20
74.0865658265
 30
0.0
 10
18.280211451
 20
74.7214859763
 30
0.0
 10
17.8137953529
 20
75.1732934884
 30
0.0
  0
SPLINE
  5
30B
100
AcDbEntity
  8
0
100
AcDbSpline
 62
7
  6
BYLAYER
 70
0
 71
3
 72
9
 73
5
 74
0
 42
0.0000001
 43
0.0000001
 44
0.0000000001
 40
0.0
 40
0.0
 40
0.0
 40
0.0
 40
0.2541398501
 40
1.0
 40
1.0
 40
1.0
 40
1.0
 10
61.7851215541
 20
50.0232301331
 30
0.0
 10
61.7307774554
 20
50.0349300689
 30
0.0
 10
61.5175147264
 20
50.0835698247
 30
0.0
 10
61.3066101872
 20
50.1426911386
 30
0.0
 10
61.1514507372
 20
50.1931102204
 30
0.0
  0
SPLINE
  5
30C
100
AcDbEntity
  8
0
100
AcDbSpline
 62
7
  6
BYLAYER
 70
0
 71
3
 72
9
 73
5
 74
0
 42
0.0000001
 43
0.0000001
 44
0.0000000001
 40
0.0
 40
0.0
 40
0.0
 40
0.0
 40
0.2469158418
 40
1.0
 40
1.0
 40
1.0
 40
1.0
 10
49.0738280251
 20
56.5290143957
 30
0.0
 10
49.0562111851
 20
56.5392016942
 30
0.0
 10
48.9867595056
 20
56.583692429
 30
0.0
 10
48.9257152235
 20
56.6410129089
 30
0.0
 10
48.8861243212
 20
56.6888140512
 30
0.0
  0
SPLINE
  5
30D
100
AcDbEntity
  8
0
100
AcDbSpline
 62
7
  6
BYLAYER
 70
0
 71
3
 72
9
 73
5
 74
0
 42
0.0000001
 43
0.0000001
 44
0.0000000001
 40
0.0
 40
0.0
 40
0.0
 40
0.0
 40
0.4614616168
 40
1.0
 40
1.0
 40
1.0
 40
1.0
 10
48.8861243212
 20
56.6888140512
 30
0.0
 10
48.8116699699
 20
56.7787085176
 30
0.0
 10
48.696263508
 20
57.0120752879
 30
0.0
 10
48.6630547387
 20
57.2661223466
 30
0.0
 10
48.6599168671
 20
57.402306182
 30
0.0
  0
SPLINE
  5
30E
100
AcDbEntity
  8
0
100
AcDbSpline
 62
7
  6
BYLAYER
 70
0
 71
3
 72
11
 73
7
 74
0
 42
0.0000001
 43
0.0000001
 44
0.0000000001
 40
0.0
 40
0.0
 40
0.0
 40
0.0
 40
0.2500962559
 40
0.4999740715
 40
0.7496293305
 40
1.0
 40
1.0
 40
1.0
 40
1.0
 10
63.504019795
 20
50.3392726677
 30
0.0
 10
63.3751709847
 20
50.2648914687
 30
0.0
 10
63.1055667897
 20
50.1359547583
 30
0.0
 10
62.6756542302
 20
50.009960981
 30
0.0
 10
62.2295161116
 20
49.9623474305
 30
0.0
 10
61.9307297156
 20
49.9918921157
 30
0.0
 10
61.7851240211
 20
50.0232315575
 30
0.0
  0
SPLINE
  5
30F
100
AcDbEntity
  8
0
100
AcDbSpline
 62
7
  6
BYLAYER
 70
0
 71
3
 72
10
 73
6
 74
0
 42
0.0000001
 43
0.0000001
 44
0.0000000001
 40
0.0
 40
0.0
 40
0.0
 40
0.0
 40
0.4956107936
 40
0.7465566408
 40
1.0
 40
1.0
 40
1.0
 40
1.0
 10
61.0937067394
 20
50.2125970743
 30
0.0
 10
60.2440441109
 20
50.5049472001
 30
0.0
 10
58.9842195725
 20
51.006455616
 30
0.0
 10
57.3467618062
 20
51.7854804469
 30
0.0
 10
56.5404770327
 20
52.2182029409
 30
0.0
 10
56.142530185
 20
52.4479339567
 30
0.0
  0
SPLINE
  5
310
100
AcDbEntity
  8
0
100
AcDbSpline
 62
7
  6
BYLAYER
 70
0
 71
3
 72
9
 73
5
 74
0
 42
0.0000001
 43
0.0000001
 44
0.0000000001
 40
0.0
 40
0.0
 40
0.0
 40
0.0
 40
0.2604997365
 40
1.0
 40
1.0
 40
1.0
 40
1.0
 10
17.7470767592
 20
75.239369047
 30
0.0
 10
17.7113972516
 20
75.2747794571
 30
0.0
 10
17.5781712864
 20
75.4143674337
 30
0.0
 10
17.4606439738
 20
75.5694040282
 30
0.0
 10
17.386946915
 20
75.6916019549
 30
0.0
  0
LINE
  5
311
100
AcDbEntity
  8
0
100
AcDbLine
 62
7
  6
BYLAYER
 10
17.8137206078
 20
75.1733452619
 11
17.7470767592
 21
75.239369047
  0
SPLINE
  5
312
100
AcDbEntity
  8
0
100
AcDbSpline
 62
7
  6
BYLAYER
 70
0
 71
3
 72
10
 73
6
 74
0
 42
0.0000001
 43
0.0000001
 44
0.0000000001
 40
0.0
 40
0.0
 40
0.0
 40
0.0
 40
0.2185872518
 40
0.4605414529
 40
1.0
 40
1.0
 40
1.0
 40
1.0
 10
17.386956608
 20
75.6916075511
 30
0.0
 10
17.3404978323
 20
75.7732268229
 30
0.0
 10
17.262269457
 20
75.9565423816
 30
0.0
 10
17.1579968198
 20
76.3744193596
 30
0.0
 10
17.1367919144
 20
76.7123191727
 30
0.0
 10
17.1367892099
 20
76.9440963012
 30
0.0
  0
SPLINE
  5
313
100
AcDbEntity
  8
0
100
AcDbSpline
 62
7
  6
BYLAYER
 70
0
 71
3
 72
21
 73
17
 74
0
 42
0.0000001
 43
0.0000001
 44
0.0000000001
 40
0.0
 40
0.0
 40
0.0
 40
0.0
 40
0.0624003455
 40
0.1287841891
 40
0.1984007678
 40
0.2704102741
 40
0.4174488386
 40
0.5616836084
 40
0.6303111475
 40
0.6954267583
 40
0.7564009265
 40
0.8128631298
 40
0.8647856866
 40
0.9125805752
 40
0.9571742909
 40
1.0
 40
1.0
 40
1.0
 40
1.0
 10
72.3298944117
 20
116.5899628512
 30
0.0
 10
71.9275652873
 20
116.3576794095
 30
0.0
 10
71.0651599179
 20
115.9325472389
 30
0.0
 10
69.6741629528
 20
115.4284209578
 30
0.0
 10
68.1707576612
 20
115.0468198887
 30
0.0
 10
66.045754578
 20
114.7099643488
 30
0.0
 10
63.3286269394
 20
114.6353594087
 30
0.0
 10
60.660350154
 20
115.0095388683
 30
0.0
 10
58.6688485723
 20
115.583280167
 30
0.0
 10
57.3215431104
 20
116.1261213104
 30
0.0
 10
56.1246067217
 20
116.7771023763
 30
0.0
 10
55.1030349234
 20
117.5235388798
 30
0.0
 10
54.2786520783
 20
118.3514265473
 30
0.0
 10
53.6704224439
 20
119.2460864083
 30
0.0
 10
53.2955601536
 20
120.1898189779
 30
0.0
 10
53.2102814795
 20
120.8434230035
 30
0.0
 10
53.2102786505
 20
121.162259303
 30
0.0
  0
SPLINE
  5
314
100
AcDbEntity
  8
0
100
AcDbSpline
 62
7
  6
BYLAYER
 70
0
 71
3
 72
21
 73
17
 74
0
 42
0.0000001
 43
0.0000001
 44
0.0000000001
 40
0.0
 40
0.0
 40
0.0
 40
0.0
 40
0.0624003455
 40
0.1287841891
 40
0.1984007678
 40
0.2704102741
 40
0.4174488386
 40
0.5616836084
 40
0.6303111475
 40
0.6954267583
 40
0.7564009265
 40
0.8128631298
 40
0.8647856866
 40
0.9125805752
 40
0.9571742909
 40
1.0
 40
1.0
 40
1.0
 40
1.0
 10
93.5430095281
 20
128.8372874673
 30
0.0
 10
93.1406804037
 20
128.6050040256
 30
0.0
 10
92.2782750343
 20
128.1798718551
 30
0.0
 10
90.8872780692
 20
127.675745574
 30
0.0
 10
89.3838727776
 20
127.2941445049
 30
0.0
 10
87.2588696944
 20
126.9572889649
 30
0.0
 10
84.5417420559
 20
126.8826840248
 30
0.0
 10
81.8734652704
 20
127.2568634844
 30
0.0
 10
79.8819636887
 20
127.8306047831
 30
0.0
 10
78.5346582268
 20
128.3734459266
 30
0.0
 10
77.3377218381
 20
129.0244269925
 30
0.0
 10
76.3161500398
 20
129.7708634959
 30
0.0
 10
75.4917671948
 20
130.5987511635
 30
0.0
 10
74.8835375603
 20
131.4934110245
 30
0.0
 10
74.50867527
 20
132.4371435941
 30
0.0
 10
74.4233965959
 20
133.0907476196
 30
0.0
 10
74.4233937669
 20
133.4095839191
 30
0.0
  0
SPLINE
  5
315
100
AcDbEntity
  8
0
100
AcDbSpline
 62
7
  6
BYLAYER
 70
0
 71
3
 72
9
 73
5
 74
0
 42
0.0000001
 43
0.0000001
 44
0.0000000001
 40
0.0
 40
0.0
 40
0.0
 40
0.0
 40
0.2398407082
 40
1.0
 40
1.0
 40
1.0
 40
1.0
 10
126.1406059392
 20
132.4707236647
 30
0.0
 10
126.0802704001
 20
132.4358891329
 30
0.0
 10
125.8248467583
 20
132.2973688457
 30
0.0
 10
125.5558315219
 20
132.1844971858
 30
0.0
 10
125.3474153263
 20
132.1115530735
 30
0.0
  0
SPLINE
  5
316
100
AcDbEntity
  8
0
100
AcDbSpline
 62
7
  6
BYLAYER
 70
0
 71
3
 72
11
 73
7
 74
0
 42
0.0000001
 43
0.0000001
 44
0.0000000001
 40
0.0
 40
0.0
 40
0.0
 40
0.0
 40
0.2444774339
 40
0.4996905472
 40
0.7550487791
 40
1.0
 40
1.0
 40
1.0
 40
1.0
 10
125.212054779
 20
132.0661570062
 30
0.0
 10
124.8930376787
 20
131.9637267292
 30
0.0
 10
124.2217143501
 20
131.8117735782
 30
0.0
 10
123.1863112564
 20
131.7354817779
 30
0.0
 10
122.1499472375
 20
131.8073912476
 30
0.0
 10
121.4771202707
 20
131.9564174324
 30
0.0
 10
121.156970288
 20
132.05742935
 30
0.0
  0
SPLINE
  5
317
100
AcDbEntity
  8
0
100
AcDbSpline
 62
7
  6
BYLAYER
 70
0
 71
3
 72
13
 73
9
 74
0
 42
0.0000001
 43
0.0000001
 44
0.0000000001
 40
0.0
 40
0.0
 40
0.0
 40
0.0
 40
0.300524283
 40
0.4375524401
 40
0.5651541478
 40
0.793587698
 40
0.8983860397
 40
1.0
 40
1.0
 40
1.0
 40
1.0
 10
120.9745625665
 20
132.1184556425
 30
0.0
 10
120.6861385355
 20
132.2206041491
 30
0.0
 10
120.2764156659
 20
132.4053447365
 30
0.0
 10
119.7987714262
 20
132.7288009761
 30
0.0
 10
119.4219659501
 20
133.0614111273
 30
0.0
 10
119.1382081808
 20
133.4492171464
 30
0.0
 10
118.9944758016
 20
133.8710085155
 30
0.0
 10
118.9707881026
 20
134.0818767318
 30
0.0
 10
118.9707699573
 20
134.1853348257
 30
0.0
  0
SPLINE
  5
318
100
AcDbEntity
  8
0
100
AcDbSpline
 62
7
  6
BYLAYER
 70
0
 71
3
 72
9
 73
5
 74
0
 42
0.0000001
 43
0.0000001
 44
0.0000000001
 40
0.0
 40
0.0
 40
0.0
 40
0.0
 40
0.2398407082
 40
1.0
 40
1.0
 40
1.0
 40
1.0
 10
29.8327618485
 20
118.6718972171
 30
0.0
 10
29.7724263094
 20
118.6370626853
 30
0.0
 10
29.5170026676
 20
118.498542398
 30
0.0
 10
29.2479874312
 20
118.3856707382
 30
0.0
 10
29.0395712355
 20
118.3127266259
 30
0.0
  0
SPLINE
  5
319
100
AcDbEntity
  8
0
100
AcDbSpline
 62
7
  6
BYLAYER
 70
0
 71
3
 72
11
 73
7
 74
0
 42
0.0000001
 43
0.0000001
 44
0.0000000001
 40
0.0
 40
0.0
 40
0.0
 40
0.0
 40
0.2444774339
 40
0.4996905472
 40
0.7550487791
 40
1.0
 40
1.0
 40
1.0
 40
1.0
 10
28.9042106883
 20
118.2673305586
 30
0.0
 10
28.585193588
 20
118.1649002815
 30
0.0
 10
27.9138702594
 20
118.0129471305
 30
0.0
 10
26.8784671657
 20
117.9366553303
 30
0.0
 10
25.8421031468
 20
118.0085648
 30
0.0
 10
25.16927618
 20
118.1575909848
 30
0.0
 10
24.8491261973
 20
118.2586029024
 30
0.0
  0
SPLINE
  5
31A
100
AcDbEntity
  8
0
100
AcDbSpline
 62
7
  6
BYLAYER
 70
0
 71
3
 72
13
 73
9
 74
0
 42
0.0000001
 43
0.0000001
 44
0.0000000001
 40
0.0
 40
0.0
 40
0.0
 40
0.0
 40
0.300524283
 40
0.4375524401
 40
0.5651541478
 40
0.793587698
 40
0.8983860397
 40
1.0
 40
1.0
 40
1.0
 40
1.0
 10
24.6667184758
 20
118.3196291948
 30
0.0
 10
24.3782944448
 20
118.4217777015
 30
0.0
 10
23.9685715752
 20
118.6065182889
 30
0.0
 10
23.4909273355
 20
118.9299745285
 30
0.0
 10
23.1141218594
 20
119.2625846797
 30
0.0
 10
22.8303640901
 20
119.6503906988
 30
0.0
 10
22.6866317109
 20
120.0721820679
 30
0.0
 10
22.6629440119
 20
120.2830502842
 30
0.0
 10
22.6629258666
 20
120.3865083781
 30
0.0
  0
SPLINE
  5
31B
100
AcDbEntity
  8
0
100
AcDbSpline
 62
7
  6
BYLAYER
 70
0
 71
3
 72
9
 73
5
 74
0
 42
0.0000001
 43
0.0000001
 44
0.0000000001
 40
0.0
 40
0.0
 40
0.0
 40
0.0
 40
0.2398407082
 40
1.0
 40
1.0
 40
1.0
 40
1.0
 10
66.036779776
 20
97.7699705856
 30
0.0
 10
65.976444237
 20
97.7351360539
 30
0.0
 10
65.7210205952
 20
97.5966157666
 30
0.0
 10
65.4520053587
 20
97.4837441067
 30
0.0
 10
65.2435891631
 20
97.4107999944
 30
0.0
  0
SPLINE
  5
31C
100
AcDbEntity
  8
0
100
AcDbSpline
 62
7
  6
BYLAYER
 70
0
 71
3
 72
11
 73
7
 74
0
 42
0.0000001
 43
0.0000001
 44
0.0000000001
 40
0.0
 40
0.0
 40
0.0
 40
0.0
 40
0.2444774339
 40
0.4996905472
 40
0.7550487791
 40
1.0
 40
1.0
 40
1.0
 40
1.0
 10
65.1082286158
 20
97.3654039271
 30
0.0
 10
64.7892115155
 20
97.2629736501
 30
0.0
 10
64.117888187
 20
97.1110204991
 30
0.0
 10
63.0824850932
 20
97.0347286988
 30
0.0
 10
62.0461210743
 20
97.1066381685
 30
0.0
 10
61.3732941075
 20
97.2556643533
 30
0.0
 10
61.0531441248
 20
97.3566762709
 30
0.0
  0
SPLINE
  5
31D
100
AcDbEntity
  8
0
100
AcDbSpline
 62
7
  6
BYLAYER
 70
0
 71
3
 72
13
 73
9
 74
0
 42
0.0000001
 43
0.0000001
 44
0.0000000001
 40
0.0
 40
0.0
 40
0.0
 40
0.0
 40
0.300524283
 40
0.4375524401
 40
0.5651541478
 40
0.793587698
 40
0.8983860397
 40
1.0
 40
1.0
 40
1.0
 40
1.0
 10
60.8707364033
 20
97.4177025634
 30
0.0
 10
60.5823123723
 20
97.51985107
 30
0.0
 10
60.1725895027
 20
97.7045916574
 30
0.0
 10
59.694945263
 20
98.028047897
 30
0.0
 10
59.3181397869
 20
98.3606580482
 30
0.0
 10
59.0343820176
 20
98.7484640673
 30
0.0
 10
58.8906496384
 20
99.1702554364
 30
0.0
 10
58.8669619394
 20
99.3811236528
 30
0.0
 10
58.8669437941
 20
99.4845817467
 30
0.0
  0
SPLINE
  5
31E
100
AcDbEntity
  8
0
100
AcDbSpline
 62
7
  6
BYLAYER
 70
0
 71
3
 72
9
 73
5
 74
0
 42
0.0000001
 43
0.0000001
 44
0.0000000001
 40
0.0
 40
0.0
 40
0.0
 40
0.0
 40
0.2398407082
 40
1.0
 40
1.0
 40
1.0
 40
1.0
 10
89.9365880117
 20
153.3726502962
 30
0.0
 10
89.8762524726
 20
153.3378157644
 30
0.0
 10
89.6208288308
 20
153.1992954771
 30
0.0
 10
89.3518135943
 20
153.0864238173
 30
0.0
 10
89.1433973987
 20
153.0134797049
 30
0.0
  0
SPLINE
  5
31F
100
AcDbEntity
  8
0
100
AcDbSpline
 62
7
  6
BYLAYER
 70
0
 71
3
 72
11
 73
7
 74
0
 42
0.0000001
 43
0.0000001
 44
0.0000000001
 40
0.0
 40
0.0
 40
0.0
 40
0.0
 40
0.2444774339
 40
0.4996905472
 40
0.7550487791
 40
1.0
 40
1.0
 40
1.0
 40
1.0
 10
89.0080368515
 20
152.9680836376
 30
0.0
 10
88.6890197512
 20
152.8656533606
 30
0.0
 10
88.0176964226
 20
152.7137002096
 30
0.0
 10
86.9822933289
 20
152.6374084093
 30
0.0
 10
85.94592931
 20
152.709317879
 30
0.0
 10
85.2731023432
 20
152.8583440639
 30
0.0
 10
84.9529523605
 20
152.9593559815
 30
0.0
  0
SPLINE
  5
320
100
AcDbEntity
  8
0
100
AcDbSpline
 62
7
  6
BYLAYER
 70
0
 71
3
 72
13
 73
9
 74
0
 42
0.0000001
 43
0.0000001
 44
0.0000000001
 40
0.0
 40
0.0
 40
0.0
 40
0.0
 40
0.300524283
 40
0.4375524401
 40
0.5651541478
 40
0.793587698
 40
0.8983860397
 40
1.0
 40
1.0
 40
1.0
 40
1.0
 10
84.7705446389
 20
153.0203822739
 30
0.0
 10
84.4821206079
 20
153.1225307806
 30
0.0
 10
84.0723977383
 20
153.3072713679
 30
0.0
 10
83.5947534987
 20
153.6307276076
 30
0.0
 10
83.2179480225
 20
153.9633377587
 30
0.0
 10
82.9341902533
 20
154.3511437778
 30
0.0
 10
82.790457874
 20
154.772935147
 30
0.0
 10
82.766770175
 20
154.9838033633
 30
0.0
 10
82.7667520297
 20
155.0872614572
 30
0.0
  0
SPLINE
  5
321
100
AcDbEntity
  8
0
100
AcDbSpline
 62
7
  6
BYLAYER
 70
0
 71
3
 72
9
 73
5
 74
0
 42
0.0000001
 43
0.0000001
 44
0.0000000001
 40
0.0
 40
0.0
 40
0.0
 40
0.0
 40
0.2674859603
 40
1.0
 40
1.0
 40
1.0
 40
1.0
 10
84.8382206578
 20
153.0597258281
 30
0.0
 10
84.8545650173
 20
153.0857907546
 30
0.0
 10
84.9206584577
 20
153.1797579272
 30
0.0
 10
85.0067202117
 20
153.2616412046
 30
0.0
 10
85.0796845737
 20
153.3037669473
 30
0.0
  0
SPLINE
  5
322
100
AcDbEntity
  8
0
100
AcDbSpline
 62
7
  6
BYLAYER
 70
0
 71
3
 72
9
 73
5
 74
0
 42
0.0000001
 43
0.0000001
 44
0.0000000001
 40
0.0
 40
0.0
 40
0.0
 40
0.0
 40
0.2599459188
 40
1.0
 40
1.0
 40
1.0
 40
1.0
 10
54.6770664098
 20
119.963860893
 30
0.0
 10
54.5925608106
 20
119.8773714115
 30
0.0
 10
54.2766046345
 20
119.5359883478
 30
0.0
 10
53.9986223396
 20
119.1583937854
 30
0.0
 10
53.8245508571
 20
118.8613928486
 30
0.0
  0
SPLINE
  5
323
100
AcDbEntity
  8
0
100
AcDbSpline
 62
7
  6
BYLAYER
 70
0
 71
3
 72
11
 73
7
 74
0
 42
0.0000001
 43
0.0000001
 44
0.0000000001
 40
0.0
 40
0.0
 40
0.0
 40
0.0
 40
0.2407984124
 40
0.4955328962
 40
0.7525846798
 40
1.0
 40
1.0
 40
1.0
 40
1.0
 10
70.5804059147
 20
122.1731389658
 30
0.0
 10
69.7148343408
 20
122.5039933032
 30
0.0
 10
67.8636656763
 20
123.0086129804
 30
0.0
 10
64.9726411262
 20
123.3122301776
 30
0.0
 10
62.0435290691
 20
123.1759498823
 30
0.0
 10
60.1313689929
 20
122.7835222484
 30
0.0
 10
59.2200901203
 20
122.5076794131
 30
0.0
  0
SPLINE
  5
324
100
AcDbEntity
  8
0
100
AcDbSpline
 62
7
  6
BYLAYER
 70
0
 71
3
 72
9
 73
5
 74
0
 42
0.0000001
 43
0.0000001
 44
0.0000000001
 40
0.0
 40
0.0
 40
0.0
 40
0.0
 40
0.2296185111
 40
1.0
 40
1.0
 40
1.0
 40
1.0
 10
88.8537943034
 20
153.3037760191
 30
0.0
 10
88.8751596484
 20
153.2914410105
 30
0.0
 10
88.9640984555
 20
153.230693316
 30
0.0
 10
89.0369077296
 20
153.1480796927
 30
0.0
 10
89.0827260112
 20
153.0791475042
 30
0.0
  0
SPLINE
  5
325
100
AcDbEntity
  8
0
100
AcDbSpline
 62
7
  6
BYLAYER
 70
0
 71
3
 72
9
 73
5
 74
0
 42
0.0000001
 43
0.0000001
 44
0.0000000001
 40
0.0
 40
0.0
 40
0.0
 40
0.0
 40
0.5249247207
 40
1.0
 40
1.0
 40
1.0
 40
1.0
 10
89.0827260112
 20
153.0791475042
 30
0.0
 10
89.1231864906
 20
153.0182759634
 30
0.0
 10
89.186200855
 20
152.8925090211
 30
0.0
 10
89.2146747015
 20
152.7533256699
 30
0.0
 10
89.2146747015
 20
152.6871751291
 30
0.0
  0
SPLINE
  5
326
100
AcDbEntity
  8
0
100
AcDbSpline
 62
7
  6
BYLAYER
 70
0
 71
3
 72
9
 73
5
 74
0
 42
0.0000001
 43
0.0000001
 44
0.0000000001
 40
0.0
 40
0.0
 40
0.0
 40
0.0
 40
0.2599459188
 40
1.0
 40
1.0
 40
1.0
 40
1.0
 10
75.8901815262
 20
132.2111855091
 30
0.0
 10
75.805675927
 20
132.1246960276
 30
0.0
 10
75.489719751
 20
131.7833129639
 30
0.0
 10
75.211737456
 20
131.4057184015
 30
0.0
 10
75.0376659735
 20
131.1087174647
 30
0.0
  0
SPLINE
  5
327
100
AcDbEntity
  8
0
100
AcDbSpline
 62
7
  6
BYLAYER
 70
0
 71
3
 72
11
 73
7
 74
0
 42
0.0000001
 43
0.0000001
 44
0.0000000001
 40
0.0
 40
0.0
 40
0.0
 40
0.0
 40
0.2407984124
 40
0.4955328962
 40
0.7525846798
 40
1.0
 40
1.0
 40
1.0
 40
1.0
 10
91.7935210312
 20
134.420463582
 30
0.0
 10
90.9279494573
 20
134.7513179193
 30
0.0
 10
89.0767807928
 20
135.2559375966
 30
0.0
 10
86.1857562426
 20
135.5595547938
 30
0.0
 10
83.2566441855
 20
135.4232744984
 30
0.0
 10
81.3444841093
 20
135.0308468646
 30
0.0
 10
80.4332052367
 20
134.7550040293
 30
0.0
  0
SPLINE
  5
328
100
AcDbEntity
  8
0
100
AcDbSpline
 62
7
  6
BYLAYER
 70
0
 71
3
 72
11
 73
7
 74
0
 42
0.0000001
 43
0.0000001
 44
0.0000000001
 40
0.0
 40
0.0
 40
0.0
 40
0.0
 40
0.2920439094
 40
0.5505785477
 40
0.7809915653
 40
1.0
 40
1.0
 40
1.0
 40
1.0
 10
89.9144343461
 20
156.0950943678
 30
0.0
 10
89.9398728391
 20
156.109781201
 30
0.0
 10
89.9905062563
 20
156.1332988259
 30
0.0
 10
90.0684445949
 20
156.1490692355
 30
0.0
 10
90.1406294429
 20
156.1405221672
 30
0.0
 10
90.1812746689
 20
156.1176762183
 30
0.0
 10
90.1979728539
 20
156.1033096491
 30
0.0
  0
SPLINE
  5
329
100
AcDbEntity
  8
0
100
AcDbSpline
 62
7
  6
BYLAYER
 70
0
 71
3
 72
11
 73
7
 74
0
 42
0.0000001
 43
0.0000001
 44
0.0000000001
 40
0.0
 40
0.0
 40
0.0
 40
0.0
 40
0.2918308336
 40
0.5502554463
 40
0.7809286025
 40
1.0
 40
1.0
 40
1.0
 40
1.0
 10
89.2146471515
 20
156.5075557074
 30
0.0
 10
89.2146471515
 20
156.5353698054
 30
0.0
 10
89.2098830986
 20
156.5880328786
 30
0.0
 10
89.1857616652
 20
156.6594149626
 30
0.0
 10
89.1446598476
 20
156.7146113215
 30
0.0
 10
89.1072007179
 20
156.7378349017
 30
0.0
 10
89.0877127178
 20
156.7453295762
 30
0.0
  0
SPLINE
  5
32A
100
AcDbEntity
  8
0
100
AcDbSpline
 62
7
  6
BYLAYER
 70
0
 71
3
 72
9
 73
5
 74
0
 42
0.0000001
 43
0.0000001
 44
0.0000000001
 40
0.0
 40
0.0
 40
0.0
 40
0.0
 40
0.2550484127
 40
1.0
 40
1.0
 40
1.0
 40
1.0
 10
84.7187796306
 20
156.0992936921
 30
0.0
 10
84.6843289867
 20
156.085779987
 30
0.0
 10
84.5498665963
 20
156.0312539795
 30
0.0
 10
84.4179172211
 20
155.9704744267
 30
0.0
 10
84.3215873604
 20
155.9214461176
 30
0.0
  0
SPLINE
  5
32B
100
AcDbEntity
  8
0
100
AcDbSpline
 62
7
  6
BYLAYER
 70
0
 71
3
 72
9
 73
5
 74
0
 42
0.0000001
 43
0.0000001
 44
0.0000000001
 40
0.0
 40
0.0
 40
0.0
 40
0.0
 40
0.2449652151
 40
1.0
 40
1.0
 40
1.0
 40
1.0
 10
89.6117142299
 20
155.9215234028
 30
0.0
 10
89.5800468603
 20
155.9376384898
 30
0.0
 10
89.4499268763
 20
156.0017511601
 30
0.0
 10
89.3166010807
 20
156.0593124842
 30
0.0
 10
89.2146471515
 20
156.0993044989
 30
0.0
  0
SPLINE
  5
32C
100
AcDbEntity
  8
0
100
AcDbSpline
 62
7
  6
BYLAYER
 70
0
 71
3
 72
9
 73
5
 74
0
 42
0.0000001
 43
0.0000001
 44
0.0000000001
 40
0.0
 40
0.0
 40
0.0
 40
0.0
 40
0.2674859603
 40
1.0
 40
1.0
 40
1.0
 40
1.0
 10
60.9384124222
 20
97.4570461175
 30
0.0
 10
60.9547567816
 20
97.4831110441
 30
0.0
 10
61.0208502221
 20
97.5770782167
 30
0.0
 10
61.106911976
 20
97.6589614941
 30
0.0
 10
61.1798763381
 20
97.7010872368
 30
0.0
  0
SPLINE
  5
32D
100
AcDbEntity
  8
0
100
AcDbSpline
 62
7
  6
BYLAYER
 70
0
 71
3
 72
9
 73
5
 74
0
 42
0.0000001
 43
0.0000001
 44
0.0000000001
 40
0.0
 40
0.0
 40
0.0
 40
0.0
 40
0.2296185111
 40
1.0
 40
1.0
 40
1.0
 40
1.0
 10
64.9539860677
 20
97.7010963086
 30
0.0
 10
64.9753514127
 20
97.6887613
 30
0.0
 10
65.0642902199
 20
97.6280136055
 30
0.0
 10
65.137099494
 20
97.5453999822
 30
0.0
 10
65.1829177755
 20
97.4764677937
 30
0.0
  0
SPLINE
  5
32E
100
AcDbEntity
  8
0
100
AcDbSpline
 62
7
  6
BYLAYER
 70
0
 71
3
 72
9
 73
5
 74
0
 42
0.0000001
 43
0.0000001
 44
0.0000000001
 40
0.0
 40
0.0
 40
0.0
 40
0.0
 40
0.5249247207
 40
1.0
 40
1.0
 40
1.0
 40
1.0
 10
65.1829177755
 20
97.4764677937
 30
0.0
 10
65.2233782549
 20
97.4155962528
 30
0.0
 10
65.2863926193
 20
97.2898293105
 30
0.0
 10
65.3148664658
 20
97.1506459594
 30
0.0
 10
65.3148664658
 20
97.0844954185
 30
0.0
  0
SPLINE
  5
32F
100
AcDbEntity
  8
0
100
AcDbSpline
 62
7
  6
BYLAYER
 70
0
 71
3
 72
9
 73
5
 74
0
 42
0.0000001
 43
0.0000001
 44
0.0000000001
 40
0.0
 40
0.0
 40
0.0
 40
0.0
 40
0.2449652151
 40
1.0
 40
1.0
 40
1.0
 40
1.0
 10
125.8157321575
 20
135.0195967714
 30
0.0
 10
125.7840647878
 20
135.0357118584
 30
0.0
 10
125.6539448039
 20
135.0998245287
 30
0.0
 10
125.5206190083
 20
135.1573858528
 30
0.0
 10
125.418665079
 20
135.1973778674
 30
0.0
  0
SPLINE
  5
330
100
AcDbEntity
  8
0
100
AcDbSpline
 62
7
  6
BYLAYER
 70
0
 71
3
 72
9
 73
5
 74
0
 42
0.0000001
 43
0.0000001
 44
0.0000000001
 40
0.0
 40
0.0
 40
0.0
 40
0.0
 40
0.2550484127
 40
1.0
 40
1.0
 40
1.0
 40
1.0
 10
120.9227975581
 20
135.1973670607
 30
0.0
 10
120.8883469142
 20
135.1838533556
 30
0.0
 10
120.7538845238
 20
135.129327348
 30
0.0
 10
120.6219351487
 20
135.0685477952
 30
0.0
 10
120.5256052879
 20
135.0195194861
 30
0.0
  0
SPLINE
  5
331
100
AcDbEntity
  8
0
100
AcDbSpline
 62
7
  6
BYLAYER
 70
0
 71
3
 72
11
 73
7
 74
0
 42
0.0000001
 43
0.0000001
 44
0.0000000001
 40
0.0
 40
0.0
 40
0.0
 40
0.0
 40
0.2918308336
 40
0.5502554463
 40
0.7809286025
 40
1.0
 40
1.0
 40
1.0
 40
1.0
 10
125.418665079
 20
135.605629076
 30
0.0
 10
125.418665079
 20
135.633443174
 30
0.0
 10
125.4139010261
 20
135.6861062472
 30
0.0
 10
125.3897795927
 20
135.7574883312
 30
0.0
 10
125.3486777751
 20
135.81268469
 30
0.0
 10
125.3112186455
 20
135.8359082703
 30
0.0
 10
125.2917306454
 20
135.8434029448
 30
0.0
  0
SPLINE
  5
332
100
AcDbEntity
  8
0
100
AcDbSpline
 62
7
  6
BYLAYER
 70
0
 71
3
 72
11
 73
7
 74
0
 42
0.0000001
 43
0.0000001
 44
0.0000000001
 40
0.0
 40
0.0
 40
0.0
 40
0.0
 40
0.2920439094
 40
0.5505785477
 40
0.7809915653
 40
1.0
 40
1.0
 40
1.0
 40
1.0
 10
126.1184522736
 20
135.1931677364
 30
0.0
 10
126.1438907666
 20
135.2078545695
 30
0.0
 10
126.1945241839
 20
135.2313721944
 30
0.0
 10
126.2724625224
 20
135.247142604
 30
0.0
 10
126.3446473705
 20
135.2385955357
 30
0.0
 10
126.3852925965
 20
135.2157495868
 30
0.0
 10
126.4019907814
 20
135.2013830177
 30
0.0
  0
SPLINE
  5
333
100
AcDbEntity
  8
0
100
AcDbSpline
 62
7
  6
BYLAYER
 70
0
 71
3
 72
9
 73
5
 74
0
 42
0.0000001
 43
0.0000001
 44
0.0000000001
 40
0.0
 40
0.0
 40
0.0
 40
0.0
 40
0.2296185111
 40
1.0
 40
1.0
 40
1.0
 40
1.0
 10
125.0578122309
 20
132.4018493877
 30
0.0
 10
125.0791775759
 20
132.389514379
 30
0.0
 10
125.1681163831
 20
132.3287666845
 30
0.0
 10
125.2409256572
 20
132.2461530613
 30
0.0
 10
125.2867439387
 20
132.1772208728
 30
0.0
  0
SPLINE
  5
334
100
AcDbEntity
  8
0
100
AcDbSpline
 62
7
  6
BYLAYER
 70
0
 71
3
 72
9
 73
5
 74
0
 42
0.0000001
 43
0.0000001
 44
0.0000000001
 40
0.0
 40
0.0
 40
0.0
 40
0.0
 40
0.5249247207
 40
1.0
 40
1.0
 40
1.0
 40
1.0
 10
125.2867439387
 20
132.1772208728
 30
0.0
 10
125.3272044181
 20
132.1163493319
 30
0.0
 10
125.3902187825
 20
131.9905823896
 30
0.0
 10
125.418692629
 20
131.8513990384
 30
0.0
 10
125.418692629
 20
131.7852484976
 30
0.0
  0
SPLINE
  5
335
100
AcDbEntity
  8
0
100
AcDbSpline
 62
7
  6
BYLAYER
 70
0
 71
3
 72
11
 73
7
 74
0
 42
0.0000001
 43
0.0000001
 44
0.0000000001
 40
0.0
 40
0.0
 40
0.0
 40
0.0
 40
0.2920439094
 40
0.5505785477
 40
0.7809915653
 40
1.0
 40
1.0
 40
1.0
 40
1.0
 10
66.0146261104
 20
100.4924146573
 30
0.0
 10
66.0400646035
 20
100.5071014904
 30
0.0
 10
66.0906980207
 20
100.5306191154
 30
0.0
 10
66.1686363593
 20
100.546389525
 30
0.0
 10
66.2408212073
 20
100.5378424566
 30
0.0
 10
66.2814664333
 20
100.5149965078
 30
0.0
 10
66.2981646183
 20
100.5006299386
 30
0.0
  0
SPLINE
  5
336
100
AcDbEntity
  8
0
100
AcDbSpline
 62
7
  6
BYLAYER
 70
0
 71
3
 72
9
 73
5
 74
0
 42
0.0000001
 43
0.0000001
 44
0.0000000001
 40
0.0
 40
0.0
 40
0.0
 40
0.0
 40
0.2674859603
 40
1.0
 40
1.0
 40
1.0
 40
1.0
 10
121.0422385853
 20
132.1577991966
 30
0.0
 10
121.0585829448
 20
132.1838641231
 30
0.0
 10
121.1246763852
 20
132.2778312958
 30
0.0
 10
121.2107381392
 20
132.3597145732
 30
0.0
 10
121.2837025013
 20
132.4018403158
 30
0.0
  0
SPLINE
  5
337
100
AcDbEntity
  8
0
100
AcDbSpline
 62
7
  6
BYLAYER
 70
0
 71
3
 72
11
 73
7
 74
0
 42
0.0000001
 43
0.0000001
 44
0.0000000001
 40
0.0
 40
0.0
 40
0.0
 40
0.0
 40
0.2918308336
 40
0.5502554463
 40
0.7809286025
 40
1.0
 40
1.0
 40
1.0
 40
1.0
 10
65.3148389159
 20
100.9048759969
 30
0.0
 10
65.3148389159
 20
100.9326900949
 30
0.0
 10
65.3100748629
 20
100.9853531681
 30
0.0
 10
65.2859534295
 20
101.0567352521
 30
0.0
 10
65.244851612
 20
101.1119316109
 30
0.0
 10
65.2073924823
 20
101.1351551912
 30
0.0
 10
65.1879044822
 20
101.1426498657
 30
0.0
  0
SPLINE
  5
338
100
AcDbEntity
  8
0
100
AcDbSpline
 62
7
  6
BYLAYER
 70
0
 71
3
 72
9
 73
5
 74
0
 42
0.0000001
 43
0.0000001
 44
0.0000000001
 40
0.0
 40
0.0
 40
0.0
 40
0.0
 40
0.2449652151
 40
1.0
 40
1.0
 40
1.0
 40
1.0
 10
29.5078880668
 20
121.2207703237
 30
0.0
 10
29.4762206971
 20
121.2368854108
 30
0.0
 10
29.3461007132
 20
121.300998081
 30
0.0
 10
29.2127749176
 20
121.3585594051
 30
0.0
 10
29.1108209883
 20
121.3985514198
 30
0.0
  0
SPLINE
  5
339
100
AcDbEntity
  8
0
100
AcDbSpline
 62
7
  6
BYLAYER
 70
0
 71
3
 72
9
 73
5
 74
0
 42
0.0000001
 43
0.0000001
 44
0.0000000001
 40
0.0
 40
0.0
 40
0.0
 40
0.0
 40
0.2550484127
 40
1.0
 40
1.0
 40
1.0
 40
1.0
 10
24.6149534674
 20
121.3985406131
 30
0.0
 10
24.5805028235
 20
121.3850269079
 30
0.0
 10
24.4460404331
 20
121.3305009004
 30
0.0
 10
24.314091058
 20
121.2697213476
 30
0.0
 10
24.2177611972
 20
121.2206930385
 30
0.0
  0
SPLINE
  5
33A
100
AcDbEntity
  8
0
100
AcDbSpline
 62
7
  6
BYLAYER
 70
0
 71
3
 72
11
 73
7
 74
0
 42
0.0000001
 43
0.0000001
 44
0.0000000001
 40
0.0
 40
0.0
 40
0.0
 40
0.0
 40
0.2918308336
 40
0.5502554463
 40
0.7809286025
 40
1.0
 40
1.0
 40
1.0
 40
1.0
 10
29.1108209883
 20
121.8068026284
 30
0.0
 10
29.1108209883
 20
121.8346167263
 30
0.0
 10
29.1060569354
 20
121.8872797996
 30
0.0
 10
29.081935502
 20
121.9586618836
 30
0.0
 10
29.0408336844
 20
122.0138582424
 30
0.0
 10
29.0033745548
 20
122.0370818226
 30
0.0
 10
28.9838865547
 20
122.0445764971
 30
0.0
  0
SPLINE
  5
33B
100
AcDbEntity
  8
0
100
AcDbSpline
 62
7
  6
BYLAYER
 70
0
 71
3
 72
9
 73
5
 74
0
 42
0.0000001
 43
0.0000001
 44
0.0000000001
 40
0.0
 40
0.0
 40
0.0
 40
0.0
 40
0.2550484127
 40
1.0
 40
1.0
 40
1.0
 40
1.0
 10
60.818971395
 20
100.4966139816
 30
0.0
 10
60.7845207511
 20
100.4831002765
 30
0.0
 10
60.6500583607
 20
100.428574269
 30
0.0
 10
60.5181089855
 20
100.3677947162
 30
0.0
 10
60.4217791247
 20
100.318766407
 30
0.0
  0
SPLINE
  5
33C
100
AcDbEntity
  8
0
100
AcDbSpline
 62
7
  6
BYLAYER
 70
0
 71
3
 72
11
 73
7
 74
0
 42
0.0000001
 43
0.0000001
 44
0.0000000001
 40
0.0
 40
0.0
 40
0.0
 40
0.0
 40
0.2920439094
 40
0.5505785477
 40
0.7809915653
 40
1.0
 40
1.0
 40
1.0
 40
1.0
 10
29.8106081829
 20
121.3943412887
 30
0.0
 10
29.8360466759
 20
121.4090281219
 30
0.0
 10
29.8866800931
 20
121.4325457468
 30
0.0
 10
29.9646184317
 20
121.4483161564
 30
0.0
 10
30.0368032798
 20
121.4397690881
 30
0.0
 10
30.0774485058
 20
121.4169231392
 30
0.0
 10
30.0941466907
 20
121.4025565701
 30
0.0
  0
SPLINE
  5
33D
100
AcDbEntity
  8
0
100
AcDbSpline
 62
7
  6
BYLAYER
 70
0
 71
3
 72
9
 73
5
 74
0
 42
0.0000001
 43
0.0000001
 44
0.0000000001
 40
0.0
 40
0.0
 40
0.0
 40
0.0
 40
0.2296185111
 40
1.0
 40
1.0
 40
1.0
 40
1.0
 10
28.7499681402
 20
118.60302294
 30
0.0
 10
28.7713334852
 20
118.5906879314
 30
0.0
 10
28.8602722924
 20
118.5299402369
 30
0.0
 10
28.9330815665
 20
118.4473266137
 30
0.0
 10
28.978899848
 20
118.3783944251
 30
0.0
  0
SPLINE
  5
33E
100
AcDbEntity
  8
0
100
AcDbSpline
 62
7
  6
BYLAYER
 70
0
 71
3
 72
9
 73
5
 74
0
 42
0.0000001
 43
0.0000001
 44
0.0000000001
 40
0.0
 40
0.0
 40
0.0
 40
0.0
 40
0.5249247207
 40
1.0
 40
1.0
 40
1.0
 40
1.0
 10
28.978899848
 20
118.3783944251
 30
0.0
 10
29.0193603274
 20
118.3175228843
 30
0.0
 10
29.0823746918
 20
118.191755942
 30
0.0
 10
29.1108485383
 20
118.0525725908
 30
0.0
 10
29.1108485383
 20
117.98642205
 30
0.0
  0
SPLINE
  5
33F
100
AcDbEntity
  8
0
100
AcDbSpline
 62
7
  6
BYLAYER
 70
0
 71
3
 72
9
 73
5
 74
0
 42
0.0000001
 43
0.0000001
 44
0.0000000001
 40
0.0
 40
0.0
 40
0.0
 40
0.0
 40
0.2674859603
 40
1.0
 40
1.0
 40
1.0
 40
1.0
 10
24.7343944946
 20
118.358972749
 30
0.0
 10
24.7507388541
 20
118.3850376755
 30
0.0
 10
24.8168322946
 20
118.4790048481
 30
0.0
 10
24.9028940485
 20
118.5608881256
 30
0.0
 10
24.9758584106
 20
118.6030138682
 30
0.0
  0
SPLINE
  5
340
100
AcDbEntity
  8
0
100
AcDbSpline
 62
7
  6
BYLAYER
 70
0
 71
3
 72
9
 73
5
 74
0
 42
0.0000001
 43
0.0000001
 44
0.0000000001
 40
0.0
 40
0.0
 40
0.0
 40
0.0
 40
0.2449652151
 40
1.0
 40
1.0
 40
1.0
 40
1.0
 10
65.7119059943
 20
100.3188436923
 30
0.0
 10
65.6802386247
 20
100.3349587793
 30
0.0
 10
65.5501186407
 20
100.3990714496
 30
0.0
 10
65.4167928451
 20
100.4566327737
 30
0.0
 10
65.3148389159
 20
100.4966247883
 30
0.0
  0
SPLINE
  5
341
100
AcDbEntity
  8
0
100
AcDbSpline
 62
7
  6
BYLAYER
 70
0
 71
3
 72
11
 73
7
 74
0
 42
0.0000001
 43
0.0000001
 44
0.0000000001
 40
0.0
 40
0.0
 40
0.0
 40
0.0
 40
0.230500322
 40
0.469617824
 40
0.7244552426
 40
1.0
 40
1.0
 40
1.0
 40
1.0
 10
22.6629258666
 20
120.3865083781
 30
0.0
 10
22.6629059577
 20
120.5000214718
 30
0.0
 10
22.6916884658
 20
120.7321768719
 30
0.0
 10
22.8181496572
 20
121.0688437882
 30
0.0
 10
23.0241313915
 20
121.3897778964
 30
0.0
 10
23.2035250151
 20
121.5815528817
 30
0.0
 10
23.3033162333
 20
121.6735043793
 30
0.0
  0
SPLINE
  5
342
100
AcDbEntity
  8
0
100
AcDbSpline
 62
7
  6
BYLAYER
 70
0
 71
3
 72
9
 73
5
 74
0
 42
0.0000001
 43
0.0000001
 44
0.0000000001
 40
0.0
 40
0.0
 40
0.0
 40
0.0
 40
0.2388394478
 40
1.0
 40
1.0
 40
1.0
 40
1.0
 10
23.3033162333
 20
121.6735043793
 30
0.0
 10
23.3460148533
 20
121.7128485434
 30
0.0
 10
23.5300369301
 20
121.8718616837
 30
0.0
 10
23.7327932739
 20
122.0086015261
 30
0.0
 10
23.8930401573
 20
122.1011195551
 30
0.0
  0
SPLINE
  5
343
100
AcDbEntity
  8
0
100
AcDbSpline
 62
7
  6
BYLAYER
 70
0
 71
3
 72
18
 73
14
 74
0
 42
0.0000001
 43
0.0000001
 44
0.0000000001
 40
0.0
 40
0.0
 40
0.0
 40
0.0
 40
0.2462079917
 40
0.3697391928
 40
0.4936586601
 40
0.6181031087
 40
0.6805926035
 40
0.7433227743
 40
0.8063734861
 40
0.8698837195
 40
0.9341406836
 40
0.9667571431
 40
1.0
 40
1.0
 40
1.0
 40
1.0
 10
64.4687494805
 20
51.5304511769
 30
0.0
 10
64.5654242652
 20
53.1323393206
 30
0.0
 10
64.717077752
 20
55.5375753177
 30
0.0
 10
64.938642371
 20
58.7476530058
 30
0.0
 10
65.1178665819
 20
61.1650714566
 30
0.0
 10
65.2813150096
 20
63.1846603601
 30
0.0
 10
65.4245534162
 20
64.8056825547
 30
0.0
 10
65.5402504413
 20
66.0273857219
 30
0.0
 10
65.6666805439
 20
67.254730601
 30
0.0
 10
65.8086517132
 20
68.4903825395
 30
0.0
 10
65.9464550035
 20
69.526816293
 30
0.0
 10
66.0807969711
 20
70.3642377963
 30
0.0
 10
66.161402355
 20
70.7860811806
 30
0.0
 10
66.2090125054
 20
70.9974653842
 30
0.0
  0
SPLINE
  5
344
100
AcDbEntity
  8
0
100
AcDbSpline
 62
7
  6
BYLAYER
 70
0
 71
3
 72
14
 73
10
 74
0
 42
0.0000001
 43
0.0000001
 44
0.0000000001
 40
0.0
 40
0.0
 40
0.0
 40
0.0
 40
0.2417809859
 40
0.4883024038
 40
0.6142503011
 40
0.742803361
 40
0.8743873614
 40
0.9400582641
 40
1.0
 40
1.0
 40
1.0
 40
1.0
 10
66.2090125054
 20
70.9974653842
 30
0.0
 10
66.2253999583
 20
71.0702240006
 30
0.0
 10
66.2602777699
 20
71.216774773
 30
0.0
 10
66.310749519
 20
71.3994819971
 30
0.0
 10
66.3591545874
 20
71.5463268075
 30
0.0
 10
66.4022101978
 20
71.6573532197
 30
0.0
 10
66.4466507796
 20
71.7480425483
 30
0.0
 10
66.4923549945
 20
71.8129804042
 30
0.0
 10
66.5212636611
 20
71.8400182814
 30
0.0
 10
66.5372768386
 20
71.8492626441
 30
0.0
  0
SPLINE
  5
345
100
AcDbEntity
  8
0
100
AcDbSpline
 62
7
  6
BYLAYER
 70
0
 71
3
 72
9
 73
5
 74
0
 42
0.0000001
 43
0.0000001
 44
0.0000000001
 40
0.0
 40
0.0
 40
0.0
 40
0.0
 40
0.4980311996
 40
1.0
 40
1.0
 40
1.0
 40
1.0
 10
24.5116029602
 20
89.6829459497
 30
0.0
 10
24.1259864282
 20
86.8417761471
 30
0.0
 10
23.4030867012
 20
81.129952767
 30
0.0
 10
22.7567150084
 20
75.4091146346
 30
0.0
 10
22.4472722931
 20
72.5358412167
 30
0.0
  0
SPLINE
  5
346
100
AcDbEntity
  8
0
100
AcDbSpline
 62
7
  6
BYLAYER
 70
0
 71
3
 72
14
 73
10
 74
0
 42
0.0000001
 43
0.0000001
 44
0.0000000001
 40
0.0
 40
0.0
 40
0.0
 40
0.0
 40
0.0173715545
 40
0.057007815
 40
0.122919374
 40
0.2182479606
 40
0.516506484
 40
0.7328367167
 40
1.0
 40
1.0
 40
1.0
 40
1.0
 10
132.8850852082
 20
90.3962105767
 30
0.0
 10
132.8821561815
 20
90.3945135411
 30
0.0
 10
132.8701623547
 20
90.4022282881
 30
0.0
 10
132.8570956898
 20
90.4198377844
 30
0.0
 10
132.8360258487
 20
90.4542640028
 30
0.0
 10
132.8002851091
 20
90.535792721
 30
0.0
 10
132.7700561425
 20
90.6520706865
 30
0.0
 10
132.750102033
 20
90.8030511239
 30
0.0
 10
132.7455951519
 20
90.897325983
 30
0.0
 10
132.7447448794
 20
90.9493802004
 30
0.0
  0
SPLINE
  5
347
100
AcDbEntity
  8
0
100
AcDbSpline
 62
7
  6
BYLAYER
 70
0
 71
3
 72
21
 73
17
 74
0
 42
0.0000001
 43
0.0000001
 44
0.0000000001
 40
0.0
 40
0.0
 40
0.0
 40
0.0
 40
0.0624003455
 40
0.1287841891
 40
0.1984007678
 40
0.2704102741
 40
0.4174488386
 40
0.5616836084
 40
0.6303111475
 40
0.6954267583
 40
0.7564009265
 40
0.8128631298
 40
0.8647856866
 40
0.9125805752
 40
0.9571742909
 40
1.0
 40
1.0
 40
1.0
 40
1.0
 10
56.4906365684
 20
125.7345557524
 30
0.0
 10
56.8929656927
 20
125.9668391941
 30
0.0
 10
57.7553710622
 20
126.3919713647
 30
0.0
 10
59.1463680272
 20
126.8960976458
 30
0.0
 10
60.6497733189
 20
127.2776987149
 30
0.0
 10
62.774776402
 20
127.6145542549
 30
0.0
 10
65.4919040406
 20
127.689159195
 30
0.0
 10
68.1601808261
 20
127.3149797354
 30
0.0
 10
70.1516824077
 20
126.7412384367
 30
0.0
 10
71.4989878697
 20
126.1983972932
 30
0.0
 10
72.6959242584
 20
125.5474162273
 30
0.0
 10
73.7174960566
 20
124.8009797238
 30
0.0
 10
74.5418789017
 20
123.9730920563
 30
0.0
 10
75.1501085362
 20
123.0784321953
 30
0.0
 10
75.5249708264
 20
122.1346996257
 30
0.0
 10
75.6102495005
 20
121.4810956002
 30
0.0
 10
75.6102523295
 20
121.1622593007
 30
0.0
  0
SPLINE
  5
348
100
AcDbEntity
  8
0
100
AcDbSpline
 62
7
  6
BYLAYER
 70
0
 71
3
 72
21
 73
17
 74
0
 42
0.0000001
 43
0.0000001
 44
0.0000000001
 40
0.0
 40
0.0
 40
0.0
 40
0.0
 40
0.0624003455
 40
0.1287841891
 40
0.1984007678
 40
0.2704102741
 40
0.4174488386
 40
0.5616836084
 40
0.6303111475
 40
0.6954267583
 40
0.7564009265
 40
0.8128631298
 40
0.8647856866
 40
0.9125805752
 40
0.9571742909
 40
1.0
 40
1.0
 40
1.0
 40
1.0
 10
77.7037516848
 20
137.9818803686
 30
0.0
 10
78.1060808091
 20
138.2141638103
 30
0.0
 10
78.9684861786
 20
138.6392959808
 30
0.0
 10
80.3594831436
 20
139.143422262
 30
0.0
 10
81.8628884353
 20
139.525023331
 30
0.0
 10
83.9878915185
 20
139.861878871
 30
0.0
 10
86.705019157
 20
139.9364838111
 30
0.0
 10
89.3732959425
 20
139.5623043515
 30
0.0
 10
91.3647975241
 20
138.9885630528
 30
0.0
 10
92.7121029861
 20
138.4457219094
 30
0.0
 10
93.9090393748
 20
137.7947408435
 30
0.0
 10
94.930611173
 20
137.04830434
 30
0.0
 10
95.7549940181
 20
136.2204166724
 30
0.0
 10
96.3632236526
 20
135.3257568114
 30
0.0
 10
96.7380859428
 20
134.3820242419
 30
0.0
 10
96.8233646169
 20
133.7284202163
 30
0.0
 10
96.8233674459
 20
133.4095839168
 30
0.0
  0
SPLINE
  5
349
100
AcDbEntity
  8
0
100
AcDbSpline
 62
7
  6
BYLAYER
 70
0
 71
3
 72
9
 73
5
 74
0
 42
0.0000001
 43
0.0000001
 44
0.0000000001
 40
0.0
 40
0.0
 40
0.0
 40
0.0
 40
0.241027996
 40
1.0
 40
1.0
 40
1.0
 40
1.0
 10
120.200884248
 20
135.8999460027
 30
0.0
 10
120.2526812952
 20
135.9298508633
 30
0.0
 10
120.4704119337
 20
136.0489957498
 30
0.0
 10
120.6983171564
 20
136.1492025416
 30
0.0
 10
120.8745342442
 20
136.215668818
 30
0.0
  0
SPLINE
  5
34A
100
AcDbEntity
  8
0
100
AcDbSpline
 62
7
  6
BYLAYER
 70
0
 71
3
 72
11
 73
7
 74
0
 42
0.0000001
 43
0.0000001
 44
0.0000000001
 40
0.0
 40
0.0
 40
0.0
 40
0.0
 40
0.2427829424
 40
0.4994467516
 40
0.756396047
 40
1.0
 40
1.0
 40
1.0
 40
1.0
 10
120.8745342442
 20
136.215668818
 30
0.0
 10
121.2252974322
 20
136.347971101
 30
0.0
 10
121.9768272837
 20
136.5436507495
 30
0.0
 10
123.1455422654
 20
136.6422008813
 30
0.0
 10
124.3161859244
 20
136.5516450709
 30
0.0
 10
125.0707527526
 20
136.3612651125
 30
0.0
 10
125.4238799261
 20
136.231681069
 30
0.0
  0
SPLINE
  5
34B
100
AcDbEntity
  8
0
100
AcDbSpline
 62
7
  6
BYLAYER
 70
0
 71
3
 72
9
 73
5
 74
0
 42
0.0000001
 43
0.0000001
 44
0.0000000001
 40
0.0
 40
0.0
 40
0.0
 40
0.0
 40
0.5286753907
 40
1.0
 40
1.0
 40
1.0
 40
1.0
 10
125.4238799261
 20
136.231681069
 30
0.0
 10
125.6810493649
 20
136.1373098106
 30
0.0
 10
126.1549699953
 20
135.9211774818
 30
0.0
 10
126.5796576164
 20
135.615338019
 30
0.0
 10
126.7569698878
 20
135.4473964872
 30
0.0
  0
SPLINE
  5
34C
100
AcDbEntity
  8
0
100
AcDbSpline
 62
7
  6
BYLAYER
 70
0
 71
3
 72
11
 73
7
 74
0
 42
0.0000001
 43
0.0000001
 44
0.0000000001
 40
0.0
 40
0.0
 40
0.0
 40
0.0
 40
0.2746712594
 40
0.5293546941
 40
0.7688251485
 40
1.0
 40
1.0
 40
1.0
 40
1.0
 10
126.7569698878
 20
135.4473964872
 30
0.0
 10
126.8527610033
 20
135.3566678165
 30
0.0
 10
127.0250165232
 20
135.1677998619
 30
0.0
 10
127.2222002787
 20
134.8528642295
 30
0.0
 10
127.3433221003
 20
134.5232999663
 30
0.0
 10
127.370700754
 20
134.296379374
 30
0.0
 10
127.3707202299
 20
134.1853348417
 30
0.0
  0
SPLINE
  5
34D
100
AcDbEntity
  8
0
100
AcDbSpline
 62
7
  6
BYLAYER
 70
0
 71
3
 72
9
 73
5
 74
0
 42
0.0000001
 43
0.0000001
 44
0.0000000001
 40
0.0
 40
0.0
 40
0.0
 40
0.0
 40
0.241027996
 40
1.0
 40
1.0
 40
1.0
 40
1.0
 10
23.8930401573
 20
122.1011195551
 30
0.0
 10
23.9448372045
 20
122.1310244157
 30
0.0
 10
24.162567843
 20
122.2501693022
 30
0.0
 10
24.3904730657
 20
122.350376094
 30
0.0
 10
24.5666901535
 20
122.4168423704
 30
0.0
  0
SPLINE
  5
34E
100
AcDbEntity
  8
0
100
AcDbSpline
 62
7
  6
BYLAYER
 70
0
 71
3
 72
11
 73
7
 74
0
 42
0.0000001
 43
0.0000001
 44
0.0000000001
 40
0.0
 40
0.0
 40
0.0
 40
0.0
 40
0.2427829424
 40
0.4994467516
 40
0.756396047
 40
1.0
 40
1.0
 40
1.0
 40
1.0
 10
24.5666901535
 20
122.4168423704
 30
0.0
 10
24.9174533415
 20
122.5491446533
 30
0.0
 10
25.668983193
 20
122.7448243019
 30
0.0
 10
26.8376981747
 20
122.8433744337
 30
0.0
 10
28.0083418337
 20
122.7528186233
 30
0.0
 10
28.7629086619
 20
122.5624386648
 30
0.0
 10
29.1160358354
 20
122.4328546213
 30
0.0
  0
SPLINE
  5
34F
100
AcDbEntity
  8
0
100
AcDbSpline
 62
7
  6
BYLAYER
 70
0
 71
3
 72
9
 73
5
 74
0
 42
0.0000001
 43
0.0000001
 44
0.0000000001
 40
0.0
 40
0.0
 40
0.0
 40
0.0
 40
0.5286753907
 40
1.0
 40
1.0
 40
1.0
 40
1.0
 10
29.1160358354
 20
122.4328546213
 30
0.0
 10
29.3732052742
 20
122.338483363
 30
0.0
 10
29.8471259046
 20
122.1223510342
 30
0.0
 10
30.2718135257
 20
121.8165115714
 30
0.0
 10
30.4491257971
 20
121.6485700396
 30
0.0
  0
SPLINE
  5
350
100
AcDbEntity
  8
0
100
AcDbSpline
 62
7
  6
BYLAYER
 70
0
 71
3
 72
11
 73
7
 74
0
 42
0.0000001
 43
0.0000001
 44
0.0000000001
 40
0.0
 40
0.0
 40
0.0
 40
0.0
 40
0.2746712594
 40
0.5293546941
 40
0.7688251485
 40
1.0
 40
1.0
 40
1.0
 40
1.0
 10
30.4491257971
 20
121.6485700396
 30
0.0
 10
30.5449169126
 20
121.5578413689
 30
0.0
 10
30.7171724325
 20
121.3689734143
 30
0.0
 10
30.914356188
 20
121.0540377818
 30
0.0
 10
31.0354780096
 20
120.7244735187
 30
0.0
 10
31.0628566633
 20
120.4975529264
 30
0.0
 10
31.0628761392
 20
120.3865083941
 30
0.0
  0
SPLINE
  5
351
100
AcDbEntity
  8
0
100
AcDbSpline
 62
7
  6
BYLAYER
 70
0
 71
3
 72
11
 73
7
 74
0
 42
0.0000001
 43
0.0000001
 44
0.0000000001
 40
0.0
 40
0.0
 40
0.0
 40
0.0
 40
0.230500322
 40
0.469617824
 40
0.7244552426
 40
1.0
 40
1.0
 40
1.0
 40
1.0
 10
118.9707699573
 20
134.1853348257
 30
0.0
 10
118.9707500484
 20
134.2988479194
 30
0.0
 10
118.9995325565
 20
134.5310033195
 30
0.0
 10
119.1259937479
 20
134.8676702358
 30
0.0
 10
119.3319754822
 20
135.1886043441
 30
0.0
 10
119.5113691058
 20
135.3803793293
 30
0.0
 10
119.611160324
 20
135.4723308269
 30
0.0
  0
SPLINE
  5
352
100
AcDbEntity
  8
0
100
AcDbSpline
 62
7
  6
BYLAYER
 70
0
 71
3
 72
9
 73
5
 74
0
 42
0.0000001
 43
0.0000001
 44
0.0000000001
 40
0.0
 40
0.0
 40
0.0
 40
0.0
 40
0.2388394478
 40
1.0
 40
1.0
 40
1.0
 40
1.0
 10
119.611160324
 20
135.4723308269
 30
0.0
 10
119.653858944
 20
135.511674991
 30
0.0
 10
119.8378810208
 20
135.6706881314
 30
0.0
 10
120.0406373646
 20
135.8074279737
 30
0.0
 10
120.200884248
 20
135.8999460027
 30
0.0
  0
SPLINE
  5
353
100
AcDbEntity
  8
0
100
AcDbSpline
 62
7
  6
BYLAYER
 70
0
 71
3
 72
9
 73
5
 74
0
 42
0.0000001
 43
0.0000001
 44
0.0000000001
 40
0.0
 40
0.0
 40
0.0
 40
0.0
 40
0.241027996
 40
1.0
 40
1.0
 40
1.0
 40
1.0
 10
60.0970580848
 20
101.1991929236
 30
0.0
 10
60.148855132
 20
101.2290977843
 30
0.0
 10
60.3665857705
 20
101.3482426707
 30
0.0
 10
60.5944909933
 20
101.4484494625
 30
0.0
 10
60.770708081
 20
101.5149157389
 30
0.0
  0
SPLINE
  5
354
100
AcDbEntity
  8
0
100
AcDbSpline
 62
7
  6
BYLAYER
 70
0
 71
3
 72
11
 73
7
 74
0
 42
0.0000001
 43
0.0000001
 44
0.0000000001
 40
0.0
 40
0.0
 40
0.0
 40
0.0
 40
0.2427829424
 40
0.4994467516
 40
0.756396047
 40
1.0
 40
1.0
 40
1.0
 40
1.0
 10
60.770708081
 20
101.5149157389
 30
0.0
 10
61.121471269
 20
101.6472180219
 30
0.0
 10
61.8730011205
 20
101.8428976705
 30
0.0
 10
63.0417161022
 20
101.9414478022
 30
0.0
 10
64.2123597613
 20
101.8508919918
 30
0.0
 10
64.9669265894
 20
101.6605120334
 30
0.0
 10
65.320053763
 20
101.5309279899
 30
0.0
  0
SPLINE
  5
355
100
AcDbEntity
  8
0
100
AcDbSpline
 62
7
  6
BYLAYER
 70
0
 71
3
 72
9
 73
5
 74
0
 42
0.0000001
 43
0.0000001
 44
0.0000000001
 40
0.0
 40
0.0
 40
0.0
 40
0.0
 40
0.5286753907
 40
1.0
 40
1.0
 40
1.0
 40
1.0
 10
65.320053763
 20
101.5309279899
 30
0.0
 10
65.5772232017
 20
101.4365567315
 30
0.0
 10
66.0511438321
 20
101.2204244027
 30
0.0
 10
66.4758314532
 20
100.9145849399
 30
0.0
 10
66.6531437246
 20
100.7466434082
 30
0.0
  0
SPLINE
  5
356
100
AcDbEntity
  8
0
100
AcDbSpline
 62
7
  6
BYLAYER
 70
0
 71
3
 72
11
 73
7
 74
0
 42
0.0000001
 43
0.0000001
 44
0.0000000001
 40
0.0
 40
0.0
 40
0.0
 40
0.0
 40
0.2746712594
 40
0.5293546941
 40
0.7688251485
 40
1.0
 40
1.0
 40
1.0
 40
1.0
 10
66.6531437246
 20
100.7466434082
 30
0.0
 10
66.7489348401
 20
100.6559147375
 30
0.0
 10
66.9211903601
 20
100.4670467828
 30
0.0
 10
67.1183741155
 20
100.1521111504
 30
0.0
 10
67.2394959371
 20
99.8225468872
 30
0.0
 10
67.2668745908
 20
99.5956262949
 30
0.0
 10
67.2668940667
 20
99.4845817626
 30
0.0
  0
SPLINE
  5
357
100
AcDbEntity
  8
0
100
AcDbSpline
 62
7
  6
BYLAYER
 70
0
 71
3
 72
11
 73
7
 74
0
 42
0.0000001
 43
0.0000001
 44
0.0000000001
 40
0.0
 40
0.0
 40
0.0
 40
0.0
 40
0.230500322
 40
0.469617824
 40
0.7244552426
 40
1.0
 40
1.0
 40
1.0
 40
1.0
 10
82.7667520297
 20
155.0872614572
 30
0.0
 10
82.7667321209
 20
155.2007745508
 30
0.0
 10
82.795514629
 20
155.432929951
 30
0.0
 10
82.9219758204
 20
155.7695968673
 30
0.0
 10
83.1279575546
 20
156.0905309755
 30
0.0
 10
83.3073511783
 20
156.2823059608
 30
0.0
 10
83.4071423965
 20
156.3742574584
 30
0.0
  0
SPLINE
  5
358
100
AcDbEntity
  8
0
100
AcDbSpline
 62
7
  6
BYLAYER
 70
0
 71
3
 72
9
 73
5
 74
0
 42
0.0000001
 43
0.0000001
 44
0.0000000001
 40
0.0
 40
0.0
 40
0.0
 40
0.0
 40
0.2388394478
 40
1.0
 40
1.0
 40
1.0
 40
1.0
 10
83.4071423965
 20
156.3742574584
 30
0.0
 10
83.4498410165
 20
156.4136016224
 30
0.0
 10
83.6338630933
 20
156.5726147628
 30
0.0
 10
83.8366194371
 20
156.7093546052
 30
0.0
 10
83.9968663204
 20
156.8018726341
 30
0.0
  0
SPLINE
  5
359
100
AcDbEntity
  8
0
100
AcDbSpline
 62
7
  6
BYLAYER
 70
0
 71
3
 72
9
 73
5
 74
0
 42
0.0000001
 43
0.0000001
 44
0.0000000001
 40
0.0
 40
0.0
 40
0.0
 40
0.0
 40
0.241027996
 40
1.0
 40
1.0
 40
1.0
 40
1.0
 10
83.9968663204
 20
156.8018726341
 30
0.0
 10
84.0486633677
 20
156.8317774948
 30
0.0
 10
84.2663940062
 20
156.9509223813
 30
0.0
 10
84.4942992289
 20
157.051129173
 30
0.0
 10
84.6705163167
 20
157.1175954495
 30
0.0
  0
SPLINE
  5
35A
100
AcDbEntity
  8
0
100
AcDbSpline
 62
7
  6
BYLAYER
 70
0
 71
3
 72
11
 73
7
 74
0
 42
0.0000001
 43
0.0000001
 44
0.0000000001
 40
0.0
 40
0.0
 40
0.0
 40
0.0
 40
0.2427829424
 40
0.4994467516
 40
0.756396047
 40
1.0
 40
1.0
 40
1.0
 40
1.0
 10
84.6705163167
 20
157.1175954495
 30
0.0
 10
85.0212795047
 20
157.2498977324
 30
0.0
 10
85.7728093562
 20
157.445577381
 30
0.0
 10
86.9415243379
 20
157.5441275127
 30
0.0
 10
88.1121679969
 20
157.4535717024
 30
0.0
 10
88.8667348251
 20
157.2631917439
 30
0.0
 10
89.2198619986
 20
157.1336077004
 30
0.0
  0
SPLINE
  5
35B
100
AcDbEntity
  8
0
100
AcDbSpline
 62
7
  6
BYLAYER
 70
0
 71
3
 72
9
 73
5
 74
0
 42
0.0000001
 43
0.0000001
 44
0.0000000001
 40
0.0
 40
0.0
 40
0.0
 40
0.0
 40
0.5286753907
 40
1.0
 40
1.0
 40
1.0
 40
1.0
 10
89.2198619986
 20
157.1336077004
 30
0.0
 10
89.4770314374
 20
157.0392364421
 30
0.0
 10
89.9509520677
 20
156.8231041133
 30
0.0
 10
90.3756396889
 20
156.5172646505
 30
0.0
 10
90.5529519602
 20
156.3493231187
 30
0.0
  0
SPLINE
  5
35C
100
AcDbEntity
  8
0
100
AcDbSpline
 62
7
  6
BYLAYER
 70
0
 71
3
 72
11
 73
7
 74
0
 42
0.0000001
 43
0.0000001
 44
0.0000000001
 40
0.0
 40
0.0
 40
0.0
 40
0.0
 40
0.2746712594
 40
0.5293546941
 40
0.7688251485
 40
1.0
 40
1.0
 40
1.0
 40
1.0
 10
90.5529519602
 20
156.3493231187
 30
0.0
 10
90.6487430758
 20
156.258594448
 30
0.0
 10
90.8209985957
 20
156.0697264934
 30
0.0
 10
91.0181823512
 20
155.7547908609
 30
0.0
 10
91.1393041728
 20
155.4252265978
 30
0.0
 10
91.1666828265
 20
155.1983060054
 30
0.0
 10
91.1667023024
 20
155.0872614731
 30
0.0
  0
SPLINE
  5
35D
100
AcDbEntity
  8
0
100
AcDbSpline
 62
7
  6
BYLAYER
 70
0
 71
3
 72
13
 73
9
 74
0
 42
0.0000001
 43
0.0000001
 44
0.0000000001
 40
0.0
 40
0.0
 40
0.0
 40
0.0
 40
0.2592610301
 40
0.3780069879
 40
0.493644512
 40
0.6102328776
 40
0.7317201572
 40
1.0
 40
1.0
 40
1.0
 40
1.0
 10
83.9068634696
 20
155.9865826065
 30
0.0
 10
83.7659880112
 20
155.8400425449
 30
0.0
 10
83.5883595669
 20
155.5913546463
 30
0.0
 10
83.4753180211
 20
155.2182122404
 30
0.0
 10
83.4577380847
 20
154.9409963738
 30
0.0
 10
83.5057908833
 20
154.6653032884
 30
0.0
 10
83.6599106832
 20
154.2965574122
 30
0.0
 10
83.8628155433
 20
154.056999707
 30
0.0
 10
84.019019986
 20
153.9161280791
 30
0.0
  0
SPLINE
  5
35E
100
AcDbEntity
  8
0
100
AcDbSpline
 62
7
  6
BYLAYER
 70
0
 71
3
 72
11
 73
7
 74
0
 42
0.0000001
 43
0.0000001
 44
0.0000000001
 40
0.0
 40
0.0
 40
0.0
 40
0.0
 40
0.2787684743
 40
0.5376688937
 40
0.7771820289
 40
1.0
 40
1.0
 40
1.0
 40
1.0
 10
56.4906365684
 20
122.6318465674
 30
0.0
 10
56.1479752635
 20
122.4340121517
 30
0.0
 10
55.5075528395
 20
122.0148602644
 30
0.0
 10
54.6701518595
 20
121.2910459703
 30
0.0
 10
54.0060092763
 20
120.5060967648
 30
0.0
 10
53.6777713306
 20
119.9320955934
 30
0.0
 10
53.5510283955
 20
119.6423460322
 30
0.0
  0
SPLINE
  5
35F
100
AcDbEntity
  8
0
100
AcDbSpline
 62
7
  6
BYLAYER
 70
0
 71
3
 72
12
 73
8
 74
0
 42
0.0000001
 43
0.0000001
 44
0.0000000001
 40
0.0
 40
0.0
 40
0.0
 40
0.0
 40
0.2473800407
 40
0.5056842433
 40
0.7609453379
 40
0.8833055408
 40
1.0
 40
1.0
 40
1.0
 40
1.0
 10
58.919692873
 20
123.6789073973
 30
0.0
 10
59.8900229677
 20
123.9949290379
 30
0.0
 10
61.9420763455
 20
124.4406226335
 30
0.0
 10
65.0900221248
 20
124.585824132
 30
0.0
 10
67.7098459415
 20
124.279451786
 30
0.0
 10
69.687202471
 20
123.771731318
 30
0.0
 10
70.6161476373
 20
123.434444978
 30
0.0
 10
71.0588098251
 20
123.2452733556
 30
0.0
  0
SPLINE
  5
360
100
AcDbEntity
  8
0
100
AcDbSpline
 62
7
  6
BYLAYER
 70
0
 71
3
 72
9
 73
5
 74
0
 42
0.0000001
 43
0.0000001
 44
0.0000000001
 40
0.0
 40
0.0
 40
0.0
 40
0.0
 40
0.5257399177
 40
1.0
 40
1.0
 40
1.0
 40
1.0
 10
73.3922746588
 20
121.8980772834
 30
0.0
 10
73.7758644747
 20
121.5988905915
 30
0.0
 10
74.4587675849
 20
120.9646065697
 30
0.0
 10
74.9833485709
 20
120.1883530691
 30
0.0
 10
75.1742419529
 20
119.7932114859
 30
0.0
  0
SPLINE
  5
361
100
AcDbEntity
  8
0
100
AcDbSpline
 62
7
  6
BYLAYER
 70
0
 71
3
 72
9
 73
5
 74
0
 42
0.0000001
 43
0.0000001
 44
0.0000000001
 40
0.0
 40
0.0
 40
0.0
 40
0.0
 40
0.4760807359
 40
1.0
 40
1.0
 40
1.0
 40
1.0
 10
84.019019986
 20
153.9161280791
 30
0.0
 10
83.952995265
 20
153.8780089161
 30
0.0
 10
83.8319878962
 20
153.7675763587
 30
0.0
 10
83.7475125843
 20
153.6289952116
 30
0.0
 10
83.7146887501
 20
153.5517830903
 30
0.0
  0
SPLINE
  5
362
100
AcDbEntity
  8
0
100
AcDbSpline
 62
7
  6
BYLAYER
 70
0
 71
3
 72
11
 73
7
 74
0
 42
0.0000001
 43
0.0000001
 44
0.0000000001
 40
0.0
 40
0.0
 40
0.0
 40
0.0
 40
0.2432720693
 40
0.5000004334
 40
0.756728573
 40
1.0
 40
1.0
 40
1.0
 40
1.0
 10
85.0796845737
 20
153.3037669473
 30
0.0
 10
85.3719283648
 20
153.1957545748
 30
0.0
 10
85.9966754286
 20
153.0364396898
 30
0.0
 10
86.9667416842
 20
152.9585050342
 30
0.0
 10
87.9368067488
 20
153.0364442708
 30
0.0
 10
88.561551928
 20
153.1957621892
 30
0.0
 10
88.8537943034
 20
153.3037760191
 30
0.0
  0
SPLINE
  5
363
100
AcDbEntity
  8
0
100
AcDbSpline
 62
7
  6
BYLAYER
 70
0
 71
3
 72
13
 73
9
 74
0
 42
0.0000001
 43
0.0000001
 44
0.0000000001
 40
0.0
 40
0.0
 40
0.0
 40
0.0
 40
0.2682787669
 40
0.389765713
 40
0.5063539434
 40
0.62199158
 40
0.7407378708
 40
1.0
 40
1.0
 40
1.0
 40
1.0
 10
89.9144500592
 20
153.9161422499
 30
0.0
 10
90.0706524268
 20
154.0570145897
 30
0.0
 10
90.2735539157
 20
154.2965734225
 30
0.0
 10
90.4276683062
 20
154.6653198187
 30
0.0
 10
90.4757171692
 20
154.9410130219
 30
0.0
 10
90.4581332927
 20
155.2182285832
 30
0.0
 10
90.3450866263
 20
155.5913702447
 30
0.0
 10
90.1674551518
 20
155.8400568147
 30
0.0
 10
90.0265779199
 20
155.9865960707
 30
0.0
  0
SPLINE
  5
364
100
AcDbEntity
  8
0
100
AcDbSpline
 62
7
  6
BYLAYER
 70
0
 71
3
 72
9
 73
5
 74
0
 42
0.0000001
 43
0.0000001
 44
0.0000000001
 40
0.0
 40
0.0
 40
0.0
 40
0.0
 40
0.5256979153
 40
1.0
 40
1.0
 40
1.0
 40
1.0
 10
90.1709335985
 20
153.6472401428
 30
0.0
 10
90.1379411589
 20
153.7039856136
 30
0.0
 10
90.0630931653
 20
153.8053011234
 30
0.0
 10
89.9657382538
 20
153.8865316669
 30
0.0
 10
89.9144500592
 20
153.9161422499
 30
0.0
  0
SPLINE
  5
365
100
AcDbEntity
  8
0
100
AcDbSpline
 62
7
  6
BYLAYER
 70
0
 71
3
 72
11
 73
7
 74
0
 42
0.0000001
 43
0.0000001
 44
0.0000000001
 40
0.0
 40
0.0
 40
0.0
 40
0.0
 40
0.2432720693
 40
0.5000004334
 40
0.756728573
 40
1.0
 40
1.0
 40
1.0
 40
1.0
 10
88.8537697584
 20
156.7074554996
 30
0.0
 10
88.5615259673
 20
156.8154678721
 30
0.0
 10
87.9367789035
 20
156.974782757
 30
0.0
 10
86.9667126479
 20
157.0527174126
 30
0.0
 10
85.9966475833
 20
156.9747781761
 30
0.0
 10
85.3719024041
 20
156.8154602577
 30
0.0
 10
85.0796600287
 20
156.7074464278
 30
0.0
  0
SPLINE
  5
366
100
AcDbEntity
  8
0
100
AcDbSpline
 62
7
  6
BYLAYER
 70
0
 71
3
 72
9
 73
5
 74
0
 42
0.0000001
 43
0.0000001
 44
0.0000000001
 40
0.0
 40
0.0
 40
0.0
 40
0.0
 40
0.482284445
 40
1.0
 40
1.0
 40
1.0
 40
1.0
 10
74.7887260176
 20
131.8870151416
 30
0.0
 10
74.9138543827
 20
132.1730300297
 30
0.0
 10
75.2371655502
 20
132.739260767
 30
0.0
 10
75.6559785444
 20
133.2370630447
 30
0.0
 10
75.8901815262
 20
133.4767642557
 30
0.0
  0
SPLINE
  5
367
100
AcDbEntity
  8
0
100
AcDbSpline
 62
7
  6
BYLAYER
 70
0
 71
3
 72
18
 73
14
 74
0
 42
0.0000001
 43
0.0000001
 44
0.0000000001
 40
0.0
 40
0.0
 40
0.0
 40
0.0
 40
0.0448515817
 40
0.0929878102
 40
0.144913042
 40
0.2007983232
 40
0.2605340169
 40
0.3237846783
 40
0.4585612553
 40
0.5998784289
 40
0.7413424837
 40
0.8765363515
 40
1.0
 40
1.0
 40
1.0
 40
1.0
 10
96.4861351695
 20
131.8816164779
 30
0.0
 10
96.3626036222
 20
132.1655805153
 30
0.0
 10
96.043807098
 20
132.7283219817
 30
0.0
 10
95.3999763629
 20
133.4997670115
 30
0.0
 10
94.5888542869
 20
134.2134883845
 30
0.0
 10
93.6248220328
 20
134.8580535345
 30
0.0
 10
92.5241613505
 20
135.4235246823
 30
0.0
 10
90.8646523942
 20
136.0732083273
 30
0.0
 10
88.5736446228
 20
136.6203919509
 30
0.0
 10
85.6891622287
 20
136.8461636048
 30
0.0
 10
82.7991560153
 20
136.63951622
 30
0.0
 10
80.0966829202
 20
136.0151540231
 30
0.0
 10
78.4419822186
 20
135.3053862367
 30
0.0
 10
77.7037516848
 20
134.8791711835
 30
0.0
  0
SPLINE
  5
368
100
AcDbEntity
  8
0
100
AcDbSpline
 62
7
  6
BYLAYER
 70
0
 71
3
 72
12
 73
8
 74
0
 42
0.0000001
 43
0.0000001
 44
0.0000000001
 40
0.0
 40
0.0
 40
0.0
 40
0.0
 40
0.1081590485
 40
0.2183578548
 40
0.451359836
 40
0.7104170827
 40
1.0
 40
1.0
 40
1.0
 40
1.0
 10
74.4233937669
 20
133.4095839191
 30
0.0
 10
74.4233918857
 20
133.6216068004
 30
0.0
 10
74.4603275364
 20
134.0505308622
 30
0.0
 10
74.6830212212
 20
134.9104844515
 30
0.0
 10
75.2550825738
 20
135.96489619
 30
0.0
 10
76.3203975141
 20
137.0838921905
 30
0.0
 10
77.2121378538
 20
137.6980486852
 30
0.0
 10
77.7037516848
 20
137.9818803686
 30
0.0
  0
SPLINE
  5
369
100
AcDbEntity
  8
0
100
AcDbSpline
 62
7
  6
BYLAYER
 70
0
 71
3
 72
9
 73
5
 74
0
 42
0.0000001
 43
0.0000001
 44
0.0000000001
 40
0.0
 40
0.0
 40
0.0
 40
0.0
 40
0.482284445
 40
1.0
 40
1.0
 40
1.0
 40
1.0
 10
53.5756109011
 20
119.6396905255
 30
0.0
 10
53.7007392663
 20
119.9257054135
 30
0.0
 10
54.0240504338
 20
120.4919361509
 30
0.0
 10
54.442863428
 20
120.9897384286
 30
0.0
 10
54.6770664098
 20
121.2294396395
 30
0.0
  0
SPLINE
  5
36A
100
AcDbEntity
  8
0
100
AcDbSpline
 62
7
  6
BYLAYER
 70
0
 71
3
 72
12
 73
8
 74
0
 42
0.0000001
 43
0.0000001
 44
0.0000000001
 40
0.0
 40
0.0
 40
0.0
 40
0.0
 40
0.2488962096
 40
0.5005695278
 40
0.7550383479
 40
0.8816063115
 40
1.0
 40
1.0
 40
1.0
 40
1.0
 10
54.8071560358
 20
53.3004448038
 30
0.0
 10
54.6927738642
 20
53.3829467666
 30
0.0
 10
54.4658694769
 20
53.5534689787
 30
0.0
 10
54.1391689753
 20
53.8296034924
 30
0.0
 10
53.8862748706
 20
54.0865570404
 30
0.0
 10
53.7232891478
 20
54.3179898586
 30
0.0
 10
53.6683333626
 20
54.4495296809
 30
0.0
 10
53.6592614273
 20
54.5159985514
 30
0.0
  0
SPLINE
  5
36B
100
AcDbEntity
  8
0
100
AcDbSpline
 62
7
  6
BYLAYER
 70
0
 71
3
 72
11
 73
7
 74
0
 42
0.0000001
 43
0.0000001
 44
0.0000000001
 40
0.0
 40
0.0
 40
0.0
 40
0.0
 40
0.2787684743
 40
0.5376688937
 40
0.7771820289
 40
1.0
 40
1.0
 40
1.0
 40
1.0
 10
77.7037516848
 20
134.8791711835
 30
0.0
 10
77.3610903799
 20
134.6813367678
 30
0.0
 10
76.7206679559
 20
134.2621848805
 30
0.0
 10
75.8832669759
 20
133.5383705865
 30
0.0
 10
75.2191243927
 20
132.753421381
 30
0.0
 10
74.890886447
 20
132.1794202095
 30
0.0
 10
74.7641435119
 20
131.8896706483
 30
0.0
  0
SPLINE
  5
36C
100
AcDbEntity
  8
0
100
AcDbSpline
 62
7
  6
BYLAYER
 70
0
 71
3
 72
12
 73
8
 74
0
 42
0.0000001
 43
0.0000001
 44
0.0000000001
 40
0.0
 40
0.0
 40
0.0
 40
0.0
 40
0.2473800407
 40
0.5056842433
 40
0.7609453379
 40
0.8833055408
 40
1.0
 40
1.0
 40
1.0
 40
1.0
 10
80.1328079894
 20
135.9262320134
 30
0.0
 10
81.1031380841
 20
136.2422536541
 30
0.0
 10
83.1551914619
 20
136.6879472496
 30
0.0
 10
86.3031372413
 20
136.8331487482
 30
0.0
 10
88.9229610579
 20
136.5267764022
 30
0.0
 10
90.9003175874
 20
136.0190559341
 30
0.0
 10
91.8292627538
 20
135.6817695941
 30
0.0
 10
92.2719249415
 20
135.4925979718
 30
0.0
  0
SPLINE
  5
36D
100
AcDbEntity
  8
0
100
AcDbSpline
 62
7
  6
BYLAYER
 70
0
 71
3
 72
9
 73
5
 74
0
 42
0.0000001
 43
0.0000001
 44
0.0000000001
 40
0.0
 40
0.0
 40
0.0
 40
0.0
 40
0.5257399177
 40
1.0
 40
1.0
 40
1.0
 40
1.0
 10
94.6053897752
 20
134.1454018995
 30
0.0
 10
94.9889795911
 20
133.8462152077
 30
0.0
 10
95.6718827013
 20
133.2119311859
 30
0.0
 10
96.1964636873
 20
132.4356776852
 30
0.0
 10
96.3873570693
 20
132.040536102
 30
0.0
  0
SPLINE
  5
36E
100
AcDbEntity
  8
0
100
AcDbSpline
 62
7
  6
BYLAYER
 70
0
 71
3
 72
14
 73
10
 74
0
 42
0.0000001
 43
0.0000001
 44
0.0000000001
 40
0.0
 40
0.0
 40
0.0
 40
0.0
 40
0.1465636736
 40
0.2606996322
 40
0.3723046238
 40
0.488622478
 40
0.6102247264
 40
0.7364716399
 40
1.0
 40
1.0
 40
1.0
 40
1.0
 10
22.4472669792
 20
72.5358442846
 30
0.0
 10
22.4425614183
 20
72.4921792904
 30
0.0
 10
22.4169151858
 20
72.412121596
 30
0.0
 10
22.3215234739
 20
72.3448910387
 30
0.0
 10
22.2201186967
 20
72.3228597475
 30
0.0
 10
22.1149782759
 20
72.3222012576
 30
0.0
 10
22.00650601
 20
72.3359252303
 30
0.0
 10
21.8566629701
 20
72.3685562222
 30
0.0
 10
21.7451957709
 20
72.4043472058
 30
0.0
 10
21.670940633
 20
72.4312144392
 30
0.0
  0
SPLINE
  5
36F
100
AcDbEntity
  8
0
100
AcDbSpline
 62
7
  6
BYLAYER
 70
0
 71
3
 72
13
 73
9
 74
0
 42
0.0000001
 43
0.0000001
 44
0.0000000001
 40
0.0
 40
0.0
 40
0.0
 40
0.0
 40
0.2592610301
 40
0.3780069879
 40
0.493644512
 40
0.6102328776
 40
0.7317201572
 40
1.0
 40
1.0
 40
1.0
 40
1.0
 10
60.007055234
 20
100.383902896
 30
0.0
 10
59.8661797756
 20
100.2373628344
 30
0.0
 10
59.6885513313
 20
99.9886749358
 30
0.0
 10
59.5755097854
 20
99.6155325299
 30
0.0
 10
59.557929849
 20
99.3383166633
 30
0.0
 10
59.6059826476
 20
99.0626235779
 30
0.0
 10
59.7601024476
 20
98.6938777017
 30
0.0
 10
59.9630073077
 20
98.4543199965
 30
0.0
 10
60.1192117504
 20
98.3134483685
 30
0.0
  0
SPLINE
  5
370
100
AcDbEntity
  8
0
100
AcDbSpline
 62
7
  6
BYLAYER
 70
0
 71
3
 72
9
 73
5
 74
0
 42
0.0000001
 43
0.0000001
 44
0.0000000001
 40
0.0
 40
0.0
 40
0.0
 40
0.0
 40
0.4760807359
 40
1.0
 40
1.0
 40
1.0
 40
1.0
 10
60.1192117504
 20
98.3134483685
 30
0.0
 10
60.0531870293
 20
98.2753292056
 30
0.0
 10
59.9321796606
 20
98.1648966482
 30
0.0
 10
59.8477043487
 20
98.0263155011
 30
0.0
 10
59.8148805145
 20
97.9491033798
 30
0.0
  0
SPLINE
  5
371
100
AcDbEntity
  8
0
100
AcDbSpline
 62
7
  6
BYLAYER
 70
0
 71
3
 72
11
 73
7
 74
0
 42
0.0000001
 43
0.0000001
 44
0.0000000001
 40
0.0
 40
0.0
 40
0.0
 40
0.0
 40
0.2432720693
 40
0.5000004334
 40
0.756728573
 40
1.0
 40
1.0
 40
1.0
 40
1.0
 10
61.1798763381
 20
97.7010872368
 30
0.0
 10
61.4721201291
 20
97.5930748643
 30
0.0
 10
62.096867193
 20
97.4337599793
 30
0.0
 10
63.0669334486
 20
97.3558253237
 30
0.0
 10
64.0369985132
 20
97.4337645603
 30
0.0
 10
64.6617436924
 20
97.5930824787
 30
0.0
 10
64.9539860677
 20
97.7010963086
 30
0.0
  0
SPLINE
  5
372
100
AcDbEntity
  8
0
100
AcDbSpline
 62
7
  6
BYLAYER
 70
0
 71
3
 72
11
 73
7
 74
0
 42
0.0000001
 43
0.0000001
 44
0.0000000001
 40
0.0
 40
0.0
 40
0.0
 40
0.0
 40
0.230500322
 40
0.469617824
 40
0.7244552426
 40
1.0
 40
1.0
 40
1.0
 40
1.0
 10
58.8669437941
 20
99.4845817467
 30
0.0
 10
58.8669238853
 20
99.5980948403
 30
0.0
 10
58.8957063933
 20
99.8302502405
 30
0.0
 10
59.0221675847
 20
100.1669171567
 30
0.0
 10
59.228149319
 20
100.487851265
 30
0.0
 10
59.4075429427
 20
100.6796262503
 30
0.0
 10
59.5073341608
 20
100.7715777479
 30
0.0
  0
SPLINE
  5
373
100
AcDbEntity
  8
0
100
AcDbSpline
 62
7
  6
BYLAYER
 70
0
 71
3
 72
9
 73
5
 74
0
 42
0.0000001
 43
0.0000001
 44
0.0000000001
 40
0.0
 40
0.0
 40
0.0
 40
0.0
 40
0.2388394478
 40
1.0
 40
1.0
 40
1.0
 40
1.0
 10
59.5073341608
 20
100.7715777479
 30
0.0
 10
59.5500327809
 20
100.8109219119
 30
0.0
 10
59.7340548576
 20
100.9699350523
 30
0.0
 10
59.9368112015
 20
101.1066748946
 30
0.0
 10
60.0970580848
 20
101.1991929236
 30
0.0
  0
SPLINE
  5
374
100
AcDbEntity
  8
0
100
AcDbSpline
 62
7
  6
BYLAYER
 70
0
 71
3
 72
13
 73
9
 74
0
 42
0.0000001
 43
0.0000001
 44
0.0000000001
 40
0.0
 40
0.0
 40
0.0
 40
0.0
 40
0.2682787669
 40
0.389765713
 40
0.5063539434
 40
0.62199158
 40
0.7407378708
 40
1.0
 40
1.0
 40
1.0
 40
1.0
 10
66.0146418235
 20
98.3134625394
 30
0.0
 10
66.1708441911
 20
98.4543348791
 30
0.0
 10
66.3737456801
 20
98.693893712
 30
0.0
 10
66.5278600706
 20
99.0626401082
 30
0.0
 10
66.5759089335
 20
99.3383333114
 30
0.0
 10
66.558325057
 20
99.6155488726
 30
0.0
 10
66.4452783906
 20
99.9886905342
 30
0.0
 10
66.2676469162
 20
100.2373771042
 30
0.0
 10
66.1267696842
 20
100.3839163602
 30
0.0
  0
SPLINE
  5
375
100
AcDbEntity
  8
0
100
AcDbSpline
 62
7
  6
BYLAYER
 70
0
 71
3
 72
12
 73
8
 74
0
 42
0.0000001
 43
0.0000001
 44
0.0000000001
 40
0.0
 40
0.0
 40
0.0
 40
0.0
 40
0.1081590485
 40
0.2183578548
 40
0.451359836
 40
0.7104170827
 40
1.0
 40
1.0
 40
1.0
 40
1.0
 10
53.2102786505
 20
121.162259303
 30
0.0
 10
53.2102767693
 20
121.3742821843
 30
0.0
 10
53.24721242
 20
121.803206246
 30
0.0
 10
53.4699061048
 20
122.6631598353
 30
0.0
 10
54.0419674574
 20
123.7175715738
 30
0.0
 10
55.1072823977
 20
124.8365675744
 30
0.0
 10
55.9990227374
 20
125.4507240691
 30
0.0
 10
56.4906365684
 20
125.7345557524
 30
0.0
  0
SPLINE
  5
376
100
AcDbEntity
  8
0
100
AcDbSpline
 62
7
  6
BYLAYER
 70
0
 71
3
 72
33
 73
29
 74
0
 42
0.0000001
 43
0.0000001
 44
0.0000000001
 40
0.0
 40
0.0
 40
0.0
 40
0.0
 40
0.122702895
 40
0.2456328902
 40
0.3688449043
 40
0.4305812114
 40
0.4924228314
 40
0.5543891119
 40
0.6165065052
 40
0.6788128863
 40
0.7100538864
 40
0.74136614
 40
0.7727629782
 40
0.8042626198
 40
0.8358910987
 40
0.8676880047
 40
0.8836686181
 40
0.8997193624
 40
0.9158578406
 40
0.9321105686
 40
0.9485209491
 40
0.9568080704
 40
0.9651700729
 40
0.9736330038
 40
0.9822411721
 40
0.9910727252
 40
0.9955963475
 40
1.0
 40
1.0
 40
1.0
 40
1.0
 10
132.7670746426
 20
131.7842194291
 30
0.0
 10
132.7546498817
 20
130.8654120107
 30
0.0
 10
132.727200426
 20
129.0261298794
 30
0.0
 10
132.6766970811
 20
126.264398383
 30
0.0
 10
132.6249856258
 20
123.95934457
 30
0.0
 10
132.5761119697
 20
122.1118401397
 30
0.0
 10
132.5350267428
 20
120.7229506818
 30
0.0
 10
132.4887292709
 20
119.3313685481
 30
0.0
 10
132.4361007007
 20
117.9365271858
 30
0.0
 10
132.3856999138
 20
116.7718736731
 30
0.0
 10
132.340227252
 20
115.8379351604
 30
0.0
 10
132.3030474474
 20
115.1353468891
 30
0.0
 10
132.2622489031
 20
114.4310183817
 30
0.0
 10
132.2170372425
 20
113.7245842838
 30
0.0
 10
132.1662691236
 20
113.015521925
 30
0.0
 10
132.1179877793
 20
112.4228182262
 30
0.0
 10
132.0743254285
 20
111.9468183658
 30
0.0
 10
132.0383834484
 20
111.5878764563
 30
0.0
 10
131.9984889032
 20
111.2272983252
 30
0.0
 10
131.9533770586
 20
110.8646173436
 30
0.0
 10
131.909875386
 20
110.5610222828
 30
0.0
 10
131.8695707876
 20
110.3167369589
 30
0.0
 10
131.835488461
 20
110.1317891033
 30
0.0
 10
131.7962024981
 20
109.9453535663
 30
0.0
 10
131.7488339514
 20
109.7573229358
 30
0.0
 10
131.6984193469
 20
109.6000839573
 30
0.0
 10
131.6428953714
 20
109.4795695072
 30
0.0
 10
131.6046022719
 20
109.4227666502
 30
0.0
 10
131.5796122433
 20
109.4012483435
 30
0.0
  0
SPLINE
  5
377
100
AcDbEntity
  8
0
100
AcDbSpline
 62
7
  6
BYLAYER
 70
0
 71
3
 72
11
 73
7
 74
0
 42
0.0000001
 43
0.0000001
 44
0.0000000001
 40
0.0
 40
0.0
 40
0.0
 40
0.0
 40
0.2432720693
 40
0.5000004334
 40
0.756728573
 40
1.0
 40
1.0
 40
1.0
 40
1.0
 10
125.0577876859
 20
135.8055288682
 30
0.0
 10
124.7655438948
 20
135.9135412406
 30
0.0
 10
124.140796831
 20
136.0728561256
 30
0.0
 10
123.1707305754
 20
136.1507907812
 30
0.0
 10
122.2006655108
 20
136.0728515446
 30
0.0
 10
121.5759203316
 20
135.9135336262
 30
0.0
 10
121.2836779562
 20
135.8055197963
 30
0.0
  0
SPLINE
  5
378
100
AcDbEntity
  8
0
100
AcDbSpline
 62
7
  6
BYLAYER
 70
0
 71
3
 72
9
 73
5
 74
0
 42
0.0000001
 43
0.0000001
 44
0.0000000001
 40
0.0
 40
0.0
 40
0.0
 40
0.0
 40
0.5256979153
 40
1.0
 40
1.0
 40
1.0
 40
1.0
 10
66.2711253628
 20
98.0445604323
 30
0.0
 10
66.2381329233
 20
98.1013059031
 30
0.0
 10
66.1632849296
 20
98.2026214129
 30
0.0
 10
66.0659300181
 20
98.2838519563
 30
0.0
 10
66.0146418235
 20
98.3134625394
 30
0.0
  0
SPLINE
  5
379
100
AcDbEntity
  8
0
100
AcDbSpline
 62
7
  6
BYLAYER
 70
0
 71
3
 72
18
 73
14
 74
0
 42
0.0000001
 43
0.0000001
 44
0.0000000001
 40
0.0
 40
0.0
 40
0.0
 40
0.0
 40
0.0448515817
 40
0.0929878102
 40
0.144913042
 40
0.2007983232
 40
0.2605340169
 40
0.3237846783
 40
0.4585612553
 40
0.5998784289
 40
0.7413424837
 40
0.8765363515
 40
1.0
 40
1.0
 40
1.0
 40
1.0
 10
75.2730200531
 20
119.6342918618
 30
0.0
 10
75.1494885058
 20
119.9182558991
 30
0.0
 10
74.8306919816
 20
120.4809973656
 30
0.0
 10
74.1868612465
 20
121.2524423954
 30
0.0
 10
73.3757391705
 20
121.9661637684
 30
0.0
 10
72.4117069164
 20
122.6107289183
 30
0.0
 10
71.3110462341
 20
123.1762000661
 30
0.0
 10
69.6515372778
 20
123.8258837111
 30
0.0
 10
67.3605295064
 20
124.3730673348
 30
0.0
 10
64.4760471123
 20
124.5988389887
 30
0.0
 10
61.5860408988
 20
124.3921916038
 30
0.0
 10
58.8835678037
 20
123.767829407
 30
0.0
 10
57.2288671022
 20
123.0580616206
 30
0.0
 10
56.4906365684
 20
122.6318465674
 30
0.0
  0
SPLINE
  5
37A
100
AcDbEntity
  8
0
100
AcDbSpline
 62
7
  6
BYLAYER
 70
0
 71
3
 72
35
 73
31
 74
0
 42
0.0000001
 43
0.0000001
 44
0.0000000001
 40
0.0
 40
0.0
 40
0.0
 40
0.0
 40
0.127843048
 40
0.2554275437
 40
0.382689308
 40
0.4461704507
 40
0.509529869
 40
0.5727445102
 40
0.635782623
 40
0.6985983336
 40
0.7611208585
 40
0.7922380125
 40
0.8232305306
 40
0.8540651657
 40
0.8846904386
 40
0.9150186536
 40
0.9300239198
 40
0.9374728442
 40
0.9448775332
 40
0.9595147642
 40
0.9738090892
 40
0.9807465085
 40
0.9841338306
 40
0.9874455967
 40
0.9906563232
 40
0.9937298301
 40
0.9952110138
 40
0.9966724502
 40
0.9981987889
 40
1.0
 40
1.0
 40
1.0
 40
1.0
 10
64.3784435242
 20
92.3002605308
 30
0.0
 10
64.4309509488
 20
91.4196721133
 30
0.0
 10
64.5385184787
 20
89.6604329056
 30
0.0
 10
64.709319569
 20
87.0252938144
 30
0.0
 10
64.8613601609
 20
84.8340033922
 30
0.0
 10
64.990531876
 20
83.0853886546
 30
0.0
 10
65.0917134068
 20
81.7778609323
 30
0.0
 10
65.1980745243
 20
80.4738103148
 30
0.0
 10
65.3107139017
 20
79.1740499115
 30
0.0
 10
65.4312066879
 20
77.8797876776
 30
0.0
 10
65.5402703318
 20
76.8057045718
 30
0.0
 10
65.6347491799
 20
75.9509073896
 30
0.0
 10
65.709887049
 20
75.3139756475
 30
0.0
 10
65.7905137301
 20
74.6811308776
 30
0.0
 10
65.8783384315
 20
74.0538679139
 30
0.0
 10
65.9600398546
 20
73.5360890997
 30
0.0
 10
66.0243263796
 20
73.1775761676
 30
0.0
 10
66.0636060002
 20
72.9753168507
 30
0.0
 10
66.1046860187
 20
72.7760060981
 30
0.0
 10
66.1603666652
 20
72.5315063358
 30
0.0
 10
66.2255961908
 20
72.2925695111
 30
0.0
 10
66.2809956093
 20
72.1318581094
 30
0.0
 10
66.3166849249
 20
72.044766943
 30
0.0
 10
66.3459460067
 20
71.9828966447
 30
0.0
 10
66.3789152278
 20
71.9254201847
 30
0.0
 10
66.4115518811
 20
71.8824165987
 30
0.0
 10
66.4429298636
 20
71.8549654827
 30
0.0
 10
66.4702642945
 20
71.8398732519
 30
0.0
 10
66.5039700116
 20
71.8349065933
 30
0.0
 10
66.526513291
 20
71.8430477813
 30
0.0
 10
66.5372767686
 20
71.8492626036
 30
0.0
  0
SPLINE
  5
37B
100
AcDbEntity
  8
0
100
AcDbSpline
 62
7
  6
BYLAYER
 70
0
 71
3
 72
9
 73
5
 74
0
 42
0.0000001
 43
0.0000001
 44
0.0000000001
 40
0.0
 40
0.0
 40
0.0
 40
0.0
 40
0.5256979153
 40
1.0
 40
1.0
 40
1.0
 40
1.0
 10
126.374951526
 20
132.7453135113
 30
0.0
 10
126.3419590864
 20
132.8020589822
 30
0.0
 10
126.2671110928
 20
132.9033744919
 30
0.0
 10
126.1697561813
 20
132.9846050354
 30
0.0
 10
126.1184679867
 20
133.0142156185
 30
0.0
  0
SPLINE
  5
37C
100
AcDbEntity
  8
0
100
AcDbSpline
 62
7
  6
BYLAYER
 70
0
 71
3
 72
13
 73
9
 74
0
 42
0.0000001
 43
0.0000001
 44
0.0000000001
 40
0.0
 40
0.0
 40
0.0
 40
0.0
 40
0.2682787669
 40
0.389765713
 40
0.5063539434
 40
0.62199158
 40
0.7407378708
 40
1.0
 40
1.0
 40
1.0
 40
1.0
 10
126.1184679867
 20
133.0142156185
 30
0.0
 10
126.2746703543
 20
133.1550879582
 30
0.0
 10
126.4775718432
 20
133.3946467911
 30
0.0
 10
126.6316862337
 20
133.7633931873
 30
0.0
 10
126.6797350967
 20
134.0390863905
 30
0.0
 10
126.6621512202
 20
134.3163019517
 30
0.0
 10
126.5491045538
 20
134.6894436132
 30
0.0
 10
126.3714730793
 20
134.9381301833
 30
0.0
 10
126.2305958474
 20
135.0846694393
 30
0.0
  0
SPLINE
  5
37D
100
AcDbEntity
  8
0
100
AcDbSpline
 62
7
  6
BYLAYER
 70
0
 71
3
 72
33
 73
29
 74
0
 42
0.0000001
 43
0.0000001
 44
0.0000000001
 40
0.0
 40
0.0
 40
0.0
 40
0.0
 40
0.1282498002
 40
0.2562017003
 40
0.3837814492
 40
0.4473985575
 40
0.5108751826
 40
0.5741847029
 40
0.6372904753
 40
0.7001396198
 40
0.7626506649
 40
0.7937401449
 40
0.8246861881
 40
0.8554507908
 40
0.8859753035
 40
0.916160333
 40
0.9458105268
 40
0.9603078902
 40
0.9674282337
 40
0.9744275877
 40
0.9812589228
 40
0.9845884147
 40
0.9878398923
 40
0.9909900148
 40
0.994008262
 40
0.9968856905
 40
0.998350681
 40
1.0
 40
1.0
 40
1.0
 40
1.0
 10
132.744736723
 20
90.9493754913
 30
0.0
 10
132.7317744578
 20
91.7443458056
 30
0.0
 10
132.7033885694
 20
93.332401029
 30
0.0
 10
132.6518192294
 20
95.7110754785
 30
0.0
 10
132.5995664921
 20
97.688937679
 30
0.0
 10
132.5505176514
 20
99.2670093956
 30
0.0
 10
132.509542212
 20
100.4466932549
 30
0.0
 10
132.4635696737
 20
101.623021711
 30
0.0
 10
132.4115359014
 20
102.7952066075
 30
0.0
 10
132.3519149439
 20
103.9620761897
 30
0.0
 10
132.2939266303
 20
104.930260812
 30
0.0
 10
132.2405710454
 20
105.7005387762
 30
0.0
 10
132.1963894355
 20
106.2741553778
 30
0.0
 10
132.1468972947
 20
106.8438255476
 30
0.0
 10
132.0904912765
 20
107.4081270573
 30
0.0
 10
132.0244464247
 20
107.9644293656
 30
0.0
 10
131.9571617057
 20
108.4204528404
 30
0.0
 10
131.8976586731
 20
108.7327452092
 30
0.0
 10
131.858353885
 20
108.9057698996
 30
0.0
 10
131.82552704
 20
109.0314624038
 30
0.0
 10
131.7939193747
 20
109.1331184806
 30
0.0
 10
131.7646713389
 20
109.2109864773
 30
0.0
 10
131.7404748681
 20
109.2662771651
 30
0.0
 10
131.7128929923
 20
109.3179038239
 30
0.0
 10
131.6805335182
 20
109.3637693213
 30
0.0
 10
131.6453540196
 20
109.3948067639
 30
0.0
 10
131.6092871418
 20
109.4064036378
 30
0.0
 10
131.5893838199
 20
109.4042589491
 30
0.0
 10
131.579612246
 20
109.4012483451
 30
0.0
  0
SPLINE
  5
37E
100
AcDbEntity
  8
0
100
AcDbSpline
 62
7
  6
BYLAYER
 70
0
 71
3
 72
10
 73
6
 74
0
 42
0.0000001
 43
0.0000001
 44
0.0000000001
 40
0.0
 40
0.0
 40
0.0
 40
0.0
 40
0.4799957379
 40
0.7386546167
 40
1.0
 40
1.0
 40
1.0
 40
1.0
 10
64.4687441829
 20
51.5304481184
 30
0.0
 10
64.4535474008
 20
51.2790672296
 30
0.0
 10
64.2320948384
 20
50.9158051652
 30
0.0
 10
63.8503844889
 20
50.5623711818
 30
0.0
 10
63.6227733527
 20
50.4078261297
 30
0.0
 10
63.504019795
 20
50.3392726677
 30
0.0
  0
SPLINE
  5
37F
100
AcDbEntity
  8
0
100
AcDbSpline
 62
7
  6
BYLAYER
 70
0
 71
3
 72
11
 73
7
 74
0
 42
0.0000001
 43
0.0000001
 44
0.0000000001
 40
0.0
 40
0.0
 40
0.0
 40
0.0
 40
0.2432720693
 40
0.5000004334
 40
0.756728573
 40
1.0
 40
1.0
 40
1.0
 40
1.0
 10
121.2837025013
 20
132.4018403158
 30
0.0
 10
121.5759462923
 20
132.2938279434
 30
0.0
 10
122.2006933562
 20
132.1345130584
 30
0.0
 10
123.1707596117
 20
132.0565784028
 30
0.0
 10
124.1408246763
 20
132.1345176394
 30
0.0
 10
124.7655698556
 20
132.2938355578
 30
0.0
 10
125.0578122309
 20
132.4018493877
 30
0.0
  0
SPLINE
  5
380
100
AcDbEntity
  8
0
100
AcDbSpline
 62
7
  6
BYLAYER
 70
0
 71
3
 72
9
 73
5
 74
0
 42
0.0000001
 43
0.0000001
 44
0.0000000001
 40
0.0
 40
0.0
 40
0.0
 40
0.0
 40
0.4760807359
 40
1.0
 40
1.0
 40
1.0
 40
1.0
 10
120.2230379135
 20
133.0142014476
 30
0.0
 10
120.1570131925
 20
132.9760822847
 30
0.0
 10
120.0360058237
 20
132.8656497273
 30
0.0
 10
119.9515305118
 20
132.7270685802
 30
0.0
 10
119.9187066777
 20
132.6498564588
 30
0.0
  0
SPLINE
  5
381
100
AcDbEntity
  8
0
100
AcDbSpline
 62
7
  6
BYLAYER
 70
0
 71
3
 72
11
 73
7
 74
0
 42
0.0000001
 43
0.0000001
 44
0.0000000001
 40
0.0
 40
0.0
 40
0.0
 40
0.0
 40
0.2432720693
 40
0.5000004334
 40
0.756728573
 40
1.0
 40
1.0
 40
1.0
 40
1.0
 10
64.9539615227
 20
101.1047757891
 30
0.0
 10
64.6617177316
 20
101.2127881616
 30
0.0
 10
64.0369706678
 20
101.3721030465
 30
0.0
 10
63.0669044122
 20
101.4500377021
 30
0.0
 10
62.0968393476
 20
101.3720984655
 30
0.0
 10
61.4720941684
 20
101.2127805472
 30
0.0
 10
61.1798517931
 20
101.1047667172
 30
0.0
  0
SPLINE
  5
382
100
AcDbEntity
  8
0
100
AcDbSpline
 62
7
  6
BYLAYER
 70
0
 71
3
 72
13
 73
9
 74
0
 42
0.0000001
 43
0.0000001
 44
0.0000000001
 40
0.0
 40
0.0
 40
0.0
 40
0.0
 40
0.2592610301
 40
0.3780069879
 40
0.493644512
 40
0.6102328776
 40
0.7317201572
 40
1.0
 40
1.0
 40
1.0
 40
1.0
 10
120.1108813972
 20
135.084655975
 30
0.0
 10
119.9700059387
 20
134.9381159135
 30
0.0
 10
119.7923774944
 20
134.6894280149
 30
0.0
 10
119.6793359486
 20
134.3162856089
 30
0.0
 10
119.6617560122
 20
134.0390697424
 30
0.0
 10
119.7098088108
 20
133.763376657
 30
0.0
 10
119.8639286108
 20
133.3946307808
 30
0.0
 10
120.0668334708
 20
133.1550730756
 30
0.0
 10
120.2230379135
 20
133.0142014476
 30
0.0
  0
SPLINE
  5
383
100
AcDbEntity
  8
0
100
AcDbSpline
 62
7
  6
BYLAYER
 70
0
 71
3
 72
11
 73
7
 74
0
 42
0.0000001
 43
0.0000001
 44
0.0000000001
 40
0.0
 40
0.0
 40
0.0
 40
0.0
 40
0.2432720693
 40
0.5000004334
 40
0.756728573
 40
1.0
 40
1.0
 40
1.0
 40
1.0
 10
28.7499435952
 20
122.0067024205
 30
0.0
 10
28.4576998041
 20
122.114714793
 30
0.0
 10
27.8329527403
 20
122.274029678
 30
0.0
 10
26.8628864847
 20
122.3519643336
 30
0.0
 10
25.8928214201
 20
122.274025097
 30
0.0
 10
25.2680762409
 20
122.1147071786
 30
0.0
 10
24.9758338655
 20
122.0066933487
 30
0.0
  0
SPLINE
  5
384
100
AcDbEntity
  8
0
100
AcDbSpline
 62
7
  6
BYLAYER
 70
0
 71
3
 72
9
 73
5
 74
0
 42
0.0000001
 43
0.0000001
 44
0.0000000001
 40
0.0
 40
0.0
 40
0.0
 40
0.0
 40
0.5256979153
 40
1.0
 40
1.0
 40
1.0
 40
1.0
 10
30.0671074353
 20
118.9464870637
 30
0.0
 10
30.0341149957
 20
119.0032325345
 30
0.0
 10
29.9592670021
 20
119.1045480443
 30
0.0
 10
29.8619120906
 20
119.1857785878
 30
0.0
 10
29.810623896
 20
119.2153891709
 30
0.0
  0
SPLINE
  5
385
100
AcDbEntity
  8
0
100
AcDbSpline
 62
7
  6
BYLAYER
 70
0
 71
3
 72
13
 73
9
 74
0
 42
0.0000001
 43
0.0000001
 44
0.0000000001
 40
0.0
 40
0.0
 40
0.0
 40
0.0
 40
0.2682787669
 40
0.389765713
 40
0.5063539434
 40
0.62199158
 40
0.7407378708
 40
1.0
 40
1.0
 40
1.0
 40
1.0
 10
29.810623896
 20
119.2153891709
 30
0.0
 10
29.9668262636
 20
119.3562615106
 30
0.0
 10
30.1697277525
 20
119.5958203434
 30
0.0
 10
30.323842143
 20
119.9645667397
 30
0.0
 10
30.371891006
 20
120.2402599429
 30
0.0
 10
30.3543071295
 20
120.5174755041
 30
0.0
 10
30.2412604631
 20
120.8906171656
 30
0.0
 10
30.0636289886
 20
121.1393037356
 30
0.0
 10
29.9227517567
 20
121.2858429916
 30
0.0
  0
SPLINE
  5
386
100
AcDbEntity
  8
0
100
AcDbSpline
 62
7
  6
BYLAYER
 70
0
 71
3
 72
11
 73
7
 74
0
 42
0.0000001
 43
0.0000001
 44
0.0000000001
 40
0.0
 40
0.0
 40
0.0
 40
0.0
 40
0.2214054386
 40
0.4587387334
 40
0.7174977368
 40
1.0
 40
1.0
 40
1.0
 40
1.0
 10
30.2197903045
 20
88.0806611162
 30
0.0
 10
29.8752082928
 20
87.772332107
 30
0.0
 10
29.2454779076
 20
87.0346798934
 30
0.0
 10
28.559931066
 20
85.6899050137
 30
0.0
 10
28.1182433681
 20
84.115919028
 30
0.0
 10
27.9953589162
 20
82.9872451561
 30
0.0
 10
27.9706918866
 20
82.3977758734
 30
0.0
  0
SPLINE
  5
387
100
AcDbEntity
  8
0
100
AcDbSpline
 62
7
  6
BYLAYER
 70
0
 71
3
 72
11
 73
7
 74
0
 42
0.0000001
 43
0.0000001
 44
0.0000000001
 40
0.0
 40
0.0
 40
0.0
 40
0.0
 40
0.2432720693
 40
0.5000004334
 40
0.756728573
 40
1.0
 40
1.0
 40
1.0
 40
1.0
 10
24.9758584106
 20
118.6030138682
 30
0.0
 10
25.2681022016
 20
118.4950014957
 30
0.0
 10
25.8928492655
 20
118.3356866108
 30
0.0
 10
26.862915521
 20
118.2577519552
 30
0.0
 10
27.8329805856
 20
118.3356911917
 30
0.0
 10
28.4577257649
 20
118.4950091101
 30
0.0
 10
28.7499681402
 20
118.60302294
 30
0.0
  0
SPLINE
  5
388
100
AcDbEntity
  8
0
100
AcDbSpline
 62
7
  6
BYLAYER
 70
0
 71
3
 72
9
 73
5
 74
0
 42
0.0000001
 43
0.0000001
 44
0.0000000001
 40
0.0
 40
0.0
 40
0.0
 40
0.0
 40
0.4760807359
 40
1.0
 40
1.0
 40
1.0
 40
1.0
 10
23.9151938228
 20
119.215375
 30
0.0
 10
23.8491691018
 20
119.177255837
 30
0.0
 10
23.728161733
 20
119.0668232796
 30
0.0
 10
23.6436864211
 20
118.9282421326
 30
0.0
 10
23.610862587
 20
118.8510300112
 30
0.0
  0
SPLINE
  5
389
100
AcDbEntity
  8
0
100
AcDbSpline
 62
7
  6
BYLAYER
 70
0
 71
3
 72
13
 73
9
 74
0
 42
0.0000001
 43
0.0000001
 44
0.0000000001
 40
0.0
 40
0.0
 40
0.0
 40
0.0
 40
0.2592610301
 40
0.3780069879
 40
0.493644512
 40
0.6102328776
 40
0.7317201572
 40
1.0
 40
1.0
 40
1.0
 40
1.0
 10
23.8030373065
 20
121.2858295274
 30
0.0
 10
23.662161848
 20
121.1392894658
 30
0.0
 10
23.4845334037
 20
120.8906015672
 30
0.0
 10
23.3714918579
 20
120.5174591613
 30
0.0
 10
23.3539119215
 20
120.2402432948
 30
0.0
 10
23.4019647201
 20
119.9645502093
 30
0.0
 10
23.5560845201
 20
119.5958043331
 30
0.0
 10
23.7589893801
 20
119.3562466279
 30
0.0
 10
23.9151938228
 20
119.215375
 30
0.0
  0
ELLIPSE
  5
38A
100
AcDbEntity
  8
0
100
AcDbEllipse
 62
7
  6
BYLAYER
 10
128.3527776862
 20
134.392254097
 30
0.0
 11
4.5218971653
 21
-1.5921400212
 31
0.0
 40
0.2183752156
 41
0.1393337748
 42
0.5976252317
  0
ELLIPSE
  5
38B
100
AcDbEntity
  8
0
100
AcDbEllipse
 62
7
  6
BYLAYER
 10
86.676990841
 20
158.4630962527
 30
0.0
 11
4.4848164635
 21
-1.5790840699
 31
0.0
 40
0.2183752156
 41
1.1203547919
 42
1.5830849348
  0
ELLIPSE
  5
38C
100
AcDbEntity
  8
0
100
AcDbEllipse
 62
7
  6
BYLAYER
 10
28.5755132848
 20
153.4727371331
 30
0.0
 11
119.6465650334
 21
-42.1270271372
 31
0.0
 40
0.2183752156
 41
1.0586589787
 42
1.1204237513
  0
ELLIPSE
  5
38D
100
AcDbEntity
  8
0
100
AcDbEllipse
 62
7
  6
BYLAYER
 10
28.5720432116
 20
153.4726611737
 30
0.0
 11
119.6526752371
 21
-42.1291785129
 31
0.0
 40
0.2183752156
 41
1.0320580066
 42
1.0586583145
  0
ELLIPSE
  5
38E
100
AcDbEntity
  8
0
100
AcDbEllipse
 62
7
  6
BYLAYER
 10
28.5661953346
 20
153.4742451674
 30
0.0
 11
119.6579403966
 21
-42.1310323523
 31
0.0
 40
0.2183752156
 41
0.6656228912
 42
0.6922220345
  0
ELLIPSE
  5
38F
100
AcDbEntity
  8
0
100
AcDbEllipse
 62
7
  6
BYLAYER
 10
28.5753568231
 20
153.4727307667
 30
0.0
 11
119.6468505394
 21
-42.1271276626
 31
0.0
 40
0.2183752156
 41
0.603856964
 42
0.6656215766
  0
ELLIPSE
  5
390
100
AcDbEntity
  8
0
100
AcDbEllipse
 62
7
  6
BYLAYER
 10
37.360503798
 20
75.0079988086
 30
0.0
 11
-7.2767829441
 21
13.1184277436
 31
0.0
 40
0.5884561162
 41
-1.2852385713
 42
-0.2653525259
  0
ELLIPSE
  5
391
100
AcDbEntity
  8
0
100
AcDbEllipse
 62
7
  6
BYLAYER
 10
37.7832093192
 20
75.2520464982
 30
0.0
 11
-7.7871151541
 21
12.8233296062
 31
0.0
 40
0.5620177342
 41
-2.3686321506
 42
-1.3077801532
  0
ELLIPSE
  5
392
100
AcDbEntity
  8
0
100
AcDbEllipse
 62
7
  6
BYLAYER
 10
86.676990841
 20
158.2699518642
 30
0.0
 11
4.4848159641
 21
1.5790990089
 31
0.0
 40
0.2183772622
 41
1.4296075587
 42
1.7232194398
  0
ELLIPSE
  5
393
100
AcDbEntity
  8
0
100
AcDbEllipse
 62
7
  6
BYLAYER
 10
21.6364795232
 20
120.718453946
 30
0.0
 11
4.486449544
 21
1.5796741907
 31
0.0
 40
0.2183772622
 41
2.8355951105
 42
3.064853232
  0
ELLIPSE
  5
394
100
AcDbEntity
  8
0
100
AcDbEllipse
 62
7
  6
BYLAYER
 10
128.3527776862
 20
134.2031304368
 30
0.0
 11
-3.8227996019
 21
3.4965249578
 31
0.0
 40
0.6978967398
 41
-2.8049273649
 42
-2.5734640445
  0
ELLIPSE
  5
395
100
AcDbEntity
  8
0
100
AcDbEllipse
 62
7
  6
BYLAYER
 10
63.3566548117
 20
96.6300429877
 30
0.0
 11
-3.7914524918
 21
3.4678533128
 31
0.0
 40
0.6978967398
 41
-4.2087094908
 42
-3.9150974978
  0
ELLIPSE
  5
396
100
AcDbEntity
  8
0
100
AcDbEllipse
 62
7
  6
BYLAYER
 10
56.822606527
 20
-237.1581223522
 30
0.0
 11
-7.3773984193
 21
316.0570704802
 31
0.0
 40
0.0227055632
 41
-0.1667868122
 42
-0.0160298108
  0
ELLIPSE
  5
397
100
AcDbEntity
  8
0
100
AcDbEllipse
 62
7
  6
BYLAYER
 10
21.6364795232
 20
120.9114206222
 30
0.0
 11
3.7928235685
 21
3.4691222996
 31
0.0
 40
0.6978995408
 41
-3.6453502267
 42
-3.1828265634
  0
ELLIPSE
  5
398
100
AcDbEntity
  8
0
100
AcDbEllipse
 62
7
  6
BYLAYER
 10
63.3566548117
 20
96.8231871258
 30
0.0
 11
3.7914433623
 21
3.467859888
 31
0.0
 40
0.6978995408
 41
-2.6661083604
 42
-2.2033778466
  0
ELLIPSE
  5
399
100
AcDbEntity
  8
0
100
AcDbEllipse
 62
7
  6
BYLAYER
 10
121.4591770659
 20
207.1000336915
 30
0.0
 11
101.1503286719
 21
92.5175807582
 31
0.0
 40
0.6978995408
 41
-2.7278033436
 42
-2.666039612
  0
ELLIPSE
  5
39A
100
AcDbEntity
  8
0
100
AcDbEllipse
 62
7
  6
BYLAYER
 10
121.4771343443
 20
207.1295070978
 30
0.0
 11
101.1768137785
 21
92.5418054742
 31
0.0
 40
0.6978995408
 41
-2.7544026852
 42
-2.7278084047
  0
ELLIPSE
  5
39B
100
AcDbEntity
  8
0
100
AcDbEllipse
 62
7
  6
BYLAYER
 10
121.4511663969
 20
207.0915131518
 30
0.0
 11
101.1415686346
 21
92.5095683525
 31
0.0
 40
0.6978995408
 41
-3.1208427342
 42
-3.094239315
  0
ELLIPSE
  5
39C
100
AcDbEntity
  8
0
100
AcDbEllipse
 62
7
  6
BYLAYER
 10
121.4583087105
 20
207.0984142096
 30
0.0
 11
101.1488987579
 21
92.5162728812
 31
0.0
 40
0.6978995408
 41
-3.1826063849
 42
-3.1208413967
  0
ELLIPSE
  5
39D
100
AcDbEntity
  8
0
100
AcDbEllipse
 62
7
  6
BYLAYER
 10
32.5887534201
 20
517.151273392
 30
0.0
 11
7.0030911733
 21
424.4295980287
 31
0.0
 40
0.0168112528
 41
-3.3061173779
 42
-3.1509318174
  0
ELLIPSE
  5
39E
100
AcDbEntity
  8
0
100
AcDbEllipse
 62
7
  6
BYLAYER
 10
121.4511663969
 20
5123.4223101461
 30
0.0
 11
84.0502409635
 21
5093.951956834
 31
0.0
 40
0.0168112528
 41
-3.3208483876
 42
-3.3060975051
  0
ELLIPSE
  5
39F
100
AcDbEntity
  8
0
100
AcDbEllipse
 62
7
  6
BYLAYER
 10
121.4771343443
 20
5125.1706160371
 30
0.0
 11
84.0795302348
 21
5095.7270634706
 31
0.0
 40
0.0168112528
 41
-2.9827745378
 42
-2.9810117578
  0
ELLIPSE
  5
3A0
100
AcDbEntity
  8
0
100
AcDbEllipse
 62
7
  6
BYLAYER
 10
32.5887534201
 20
-214.2523686906
 30
0.0
 11
-7.1664725571
 21
307.0207400143
 31
0.0
 40
0.0227055632
 41
-0.0138241453
 42
0.1413613999
  0
ELLIPSE
  5
3A1
100
AcDbEntity
  8
0
100
AcDbEllipse
 62
7
  6
BYLAYER
 10
56.822606527
 20
515.7705892259
 30
0.0
 11
7.2092083436
 21
436.9215427328
 31
0.0
 40
0.0168112528
 41
-3.1487261673
 42
-2.9979691659
  0
ELLIPSE
  5
3A2
100
AcDbEntity
  8
0
100
AcDbEllipse
 62
7
  6
BYLAYER
 10
28.8630741618
 20
70.5076578816
 30
0.0
 11
1.0016895951
 21
1.7319496678
 31
0.0
 40
0.576840388
 41
-3.9003105849
 42
-3.1411504268
  0
ELLIPSE
  5
3A3
100
AcDbEntity
  8
0
100
AcDbEllipse
 62
7
  6
BYLAYER
 10
37.7832093192
 20
75.2520464982
 30
0.0
 11
-7.7871151541
 21
12.8233296062
 31
0.0
 40
0.5620177342
 41
-0.0124476036
 42
0.725814062
  0
ENDSEC
  0
SECTION
  2
OBJECTS
  0
DICTIONARY
  5
C
100
AcDbDictionary
280
0
281
1
  3
ACAD_GROUP
350
D
  3
ACAD_MLINESTYLE
350
17
  3
ACAD_LAYOUT
350
1A
  3
ACAD_PLOTSETTINGS
350
19
  3
ACAD_PLOTSTYLENAME
350
E
  0
DICTIONARY
  5
D
102
{ACAD_REACTORS
330
C
102
}
100
AcDbDictionary
280
0
281
1
  0
ACDBDICTIONARYWDFLT
  5
E
102
{ACAD_REACTORS
330
C
102
}
100
AcDbDictionary
281
1
  3
Normal
350
F
100
AcDbDictionaryWithDefault
340
F
  0
DICTIONARY
  5
17
102
{ACAD_REACTORS
330
C
102
}
100
AcDbDictionary
280
0
281
1
  3
Standard
350
18
  0
DICTIONARY
  5
19
102
{ACAD_REACTORS
330
C
102
}
100
AcDbDictionary
281
1
  0
DICTIONARY
  5
1A
102
{ACAD_REACTORS
330
C
102
}
100
AcDbDictionary
281
1
  3
Model
350
3A4
  3
Layout1
350
3A5
  0
ACDBPLACEHOLDER
  5
F
102
{ACAD_REACTORS
330
E
102
}
  0
MLINESTYLE
  5
18
102
{ACAD_REACTORS
330
17
102
}
100
AcDbMlineStyle
  2
STANDARD
 70
0
  3

 62
256
 51
90.0
 52
90.0
 71
2
 49
0.5
 62
256
  6
BYLAYER
 49
-0.5
 62
256
  6
BYLAYER
  0
LAYOUT
  5
3A4
102
{ACAD_REACTORS
330
1A
102
}
100
AcDbPlotSettings
  1

  2
none_device
  4

  6

 40
0.0
 41
0.0
 42
0.0
 43
0.0
 44
210.0
 45
297.0
 46
0.0
 47
0.0
 48
0.0
 49
0.0
140
0.0
141
0.0
142
1.0
143
1.0
 70
1024
 72
1
 73
0
 74
0
  7

 75
0
147
1.0
148
0.0
149
0.0
100
AcDbLayout
  1
Model
 70
0
 71
0
 10
0.0
 20
0.0
 11
210.0
 21
297.0
 12
0.0
 22
0.0
 32
0.0
 14
0.0
 24
0.0
 34
0.0
 15
0.0
 25
0.0
 35
0.0
146
0.0
 13
0.0
 23
0.0
 33
0.0
 16
1.0
 26
0.0
 36
0.0
 17
0.0
 27
1.0
 37
0.0
 76
0
330
210
345
0
346
0
  0
LAYOUT
  5
3A5
102
{ACAD_REACTORS
330
1A
102
}
100
AcDbPlotSettings
  1

  2
none_device
  4

  6

 40
0.0
 41
0.0
 42
0.0
 43
0.0
 44
210.0
 45
297.0
 46
0.0
 47
0.0
 48
0.0
 49
0.0
140
0.0
141
0.0
142
1.0
143
1.0
 70
0
 72
1
 73
0
 74
0
  7

 75
0
147
1.0
148
0.0
149
0.0
100
AcDbLayout
  1
Layout1
 70
0
 71
1
 10
0.0
 20
0.0
 11
210.0
 21
297.0
 12
0.0
 22
0.0
 32
0.0
 14
0.0
 24
0.0
 34
0.0
 15
0.0
 25
0.0
 35
0.0
146
0.0
 13
0.0
 23
0.0
 33
0.0
 16
1.0
 26
0.0
 36
0.0
 17
0.0
 27
1.0
 37
0.0
 76
0
330
211
345
0
346
0
  0
ENDSEC
  0
EOF
