999
DXF file: C:\Users\sesa63760\Dev\_Creo\CAD\MCADPP0003354_3D-CAD\drw0001_7.dxf
999
Pro/ENGINEER 2019471 by Parametric Technology Corporation
  0
SECTION
  2
HEADER
  9
$ACADVER
  1
AC1024
  9
$DWGCODEPAGE
  3
ANSI_1252
  9
$EXTMAX
 10
56.8828327034
 20
80.4485776805
 30
0.0
  9
$EXTMIN
 10
0.0
 20
0.0
 30
0.0
  9
$LIMMIN
 10
0.0
 20
0.0
  9
$LIMMAX
 10
56.8828327034
 20
80.4485776805
  9
$VIEWCTR
 10
28.4414163517
 20
40.2242888403
  9
$VIEWSIZE
 40
80.4485776805
  9
$CLAYER
  8
0
  9
$LTSCALE
 40
5.244055434
  9
$CELTYPE
  6
BYLAYER
  9
$DIMSCALE
 40
1.0
  9
$DIMASZ
 40
0.6771765798
  9
$DIMEXO
 40
1.0
  9
$DIMDLI
 40
3.6231655726
  9
$DIMEXE
 40
1.0
  9
$DIMCEN
 40
0.8581181619
  9
$DIMLFAC
 40
1.0
  9
$DIMBLK
  1
_FILLED
  9
$DIMALT
 70
0
  9
$DIMALTF
 40
0.0393700787
  9
$DIMTXT
 40
0.9480472117
  9
$DIMTOL
 70
1
  9
$DIMLIM
 70
0
  9
$DIMTFAC
 40
1.0
  9
$DIMTP
 40
0.01
  9
$DIMTM
 40
0.01
  9
$DIMGAP
 40
0.625
  9
$DIMDSEP
 70
46
  9
$AUNITS
 70
0
  9
$PDMODE
 70
3
  9
$PDSIZE
 40
0.3125
  9
$HANDSEED
  5
24C
  9
$TILEMODE
 70
1
  9
$MEASUREMENT
 70
1
  9
$INSUNITS
 70
4
  0
ENDSEC
  0
SECTION
  2
CLASSES
  0
CLASS
  1
ACDBDICTIONARYWDFLT
  2
AcDbDictionaryWithDefault
  3
AutoCAD 2000
 90
0
 91
1
280
0
281
0
  0
CLASS
  1
ACDBPLACEHOLDER
  2
AcDbPlaceHolder
  3
AutoCAD 2000
 90
0
 91
1
280
0
281
0
  0
CLASS
  1
LAYOUT
  2
AcDbLayout
  3
AutoCAD 2000
 90
0
 91
0
280
0
281
0
  0
ENDSEC
  0
SECTION
  2
TABLES
  0
TABLE
  2
VPORT
  5
8
100
AcDbSymbolTable
 70
2
  0
VPORT
  5
1F4
100
AcDbSymbolTableRecord
100
AcDbViewportTableRecord
  2
*ACTIVE
 70
0
 10
0.0
 20
0.0
 11
1.0
 21
1.0
 12
28.4414163517
 22
40.2242888403
 13
0.0
 23
0.0
 14
1.0
 24
1.0
 15
0.0
 25
0.0
 16
0.0
 26
0.0
 36
1.0
 17
0.0
 27
0.0
 37
0.0
 40
80.4485776805
 41
0.7070707071
 42
50.0
 43
0.0
 44
0.0
 50
0.0
 51
0.0
 71
0
 72
100
 73
1
 74
1
 75
0
 76
0
 77
0
 78
0
  0
ENDTAB
  0
TABLE
  2
LTYPE
  5
5
100
AcDbSymbolTable
 70
6
  0
LTYPE
  5
14
100
AcDbSymbolTableRecord
100
AcDbLinetypeTableRecord
  2
BYBLOCK
 70
0
  3

 72
65
 73
0
 40
0.0
  0
LTYPE
  5
15
100
AcDbSymbolTableRecord
100
AcDbLinetypeTableRecord
  2
BYLAYER
 70
0
  3

 72
65
 73
0
 40
0.0
  0
LTYPE
  5
16
100
AcDbSymbolTableRecord
100
AcDbLinetypeTableRecord
  2
CONTINUOUS
 70
64
  3
Solid line
 72
65
 73
0
 40
0.0
  0
LTYPE
  5
1F5
100
AcDbSymbolTableRecord
100
AcDbLinetypeTableRecord
  2
CENTER
 70
64
  3
____ _ ____ _ ____ _ ____ _ ____ _ ____ _ ____
 72
65
 73
4
 40
0.6
 49
0.375
 74
0
 49
-0.075
 74
0
 49
0.075
 74
0
 49
-0.075
 74
0
  0
LTYPE
  5
1F6
100
AcDbSymbolTableRecord
100
AcDbLinetypeTableRecord
  2
HIDDEN
 70
64
  3
- - - - - - - - - - - - - - - - - - - -
 72
65
 73
2
 40
0.2
 49
0.1
 74
0
 49
-0.1
 74
0
  0
LTYPE
  5
1F7
100
AcDbSymbolTableRecord
100
AcDbLinetypeTableRecord
  2
PHANTOM
 70
64
  3
_____ _ _ _____ _ _ _____ _ _ _____
 72
65
 73
6
 40
0.8
 49
0.45
 74
0
 49
-0.05
 74
0
 49
0.1
 74
0
 49
-0.05
 74
0
 49
0.1
 74
0
 49
-0.05
 74
0
  0
LTYPE
  5
1F8
100
AcDbSymbolTableRecord
100
AcDbLinetypeTableRecord
  2
DOT
 70
64
  3
. . . . . . . . . . . . . . . . . . . .
 72
65
 73
2
 40
0.2
 49
0.1
 74
0
 49
-0.1
 74
0
  0
LTYPE
  5
1F9
100
AcDbSymbolTableRecord
100
AcDbLinetypeTableRecord
  2
DASHED
 70
64
  3
- - - - - - - - - - - - - - - - - - - -
 72
65
 73
2
 40
0.2
 49
0.1
 74
0
 49
-0.1
 74
0
  0
ENDTAB
  0
TABLE
  2
LAYER
  5
2
100
AcDbSymbolTable
 70
36
  0
LAYER
  5
10
100
AcDbSymbolTableRecord
100
AcDbLayerTableRecord
  2
0
 70
0
 62
7
  6
CONTINUOUS
370
-3
390
F
  0
LAYER
  5
1FA
100
AcDbSymbolTableRecord
100
AcDbLayerTableRecord
  2
DEFAULT_1
 70
0
 62
7
  6
CENTER
370
-3
390
F
  0
LAYER
  5
1FB
100
AcDbSymbolTableRecord
100
AcDbLayerTableRecord
  2
DEFAULT_2
 70
0
 62
8
  6
HIDDEN
370
-3
390
F
  0
LAYER
  5
1FC
100
AcDbSymbolTableRecord
100
AcDbLayerTableRecord
  2
DEFAULT_3
 70
0
 62
7
  6
PHANTOM
370
-3
390
F
  0
LAYER
  5
1FD
100
AcDbSymbolTableRecord
100
AcDbLayerTableRecord
  2
00_COMPONENTS
 70
0
 62
7
  6
CONTINUOUS
370
-3
390
F
  0
LAYER
  5
1FE
100
AcDbSymbolTableRecord
100
AcDbLayerTableRecord
  2
01_1_DEFAULT_DATUMS
 70
0
 62
7
  6
CONTINUOUS
370
-3
390
F
  0
LAYER
  5
1FF
100
AcDbSymbolTableRecord
100
AcDbLayerTableRecord
  2
01_PLANES
 70
0
 62
7
  6
CONTINUOUS
370
-3
390
F
  0
LAYER
  5
200
100
AcDbSymbolTableRecord
100
AcDbLayerTableRecord
  2
02_COORD_SYS
 70
0
 62
7
  6
CONTINUOUS
370
-3
390
F
  0
LAYER
  5
201
100
AcDbSymbolTableRecord
100
AcDbLayerTableRecord
  2
03_AXES
 70
0
 62
7
  6
CONTINUOUS
370
-3
390
F
  0
LAYER
  5
202
100
AcDbSymbolTableRecord
100
AcDbLayerTableRecord
  2
04_POINTS
 70
0
 62
7
  6
CONTINUOUS
370
-3
390
F
  0
LAYER
  5
203
100
AcDbSymbolTableRecord
100
AcDbLayerTableRecord
  2
05_CURVES
 70
0
 62
7
  6
CONTINUOUS
370
-3
390
F
  0
LAYER
  5
204
100
AcDbSymbolTableRecord
100
AcDbLayerTableRecord
  2
06_SURFS
 70
0
 62
7
  6
CONTINUOUS
370
-3
390
F
  0
LAYER
  5
205
100
AcDbSymbolTableRecord
100
AcDbLayerTableRecord
  2
07_COSMETICS
 70
0
 62
7
  6
CONTINUOUS
370
-3
390
F
  0
LAYER
  5
206
100
AcDbSymbolTableRecord
100
AcDbLayerTableRecord
  2
10_NOTES
 70
0
 62
7
  6
CONTINUOUS
370
-3
390
F
  0
LAYER
  5
207
100
AcDbSymbolTableRecord
100
AcDbLayerTableRecord
  2
11_NOTES_PUB
 70
0
 62
7
  6
CONTINUOUS
370
-3
390
F
  0
LAYER
  5
208
100
AcDbSymbolTableRecord
100
AcDbLayerTableRecord
  2
13_REF_GTOL
 70
0
 62
7
  6
CONTINUOUS
370
-3
390
F
  0
LAYER
  5
209
100
AcDbSymbolTableRecord
100
AcDbLayerTableRecord
  2
16_MISC
 70
0
 62
7
  6
CONTINUOUS
370
-3
390
F
  0
LAYER
  5
20A
100
AcDbSymbolTableRecord
100
AcDbLayerTableRecord
  2
17_NO_PRINT
 70
0
 62
7
  6
CONTINUOUS
370
-3
390
F
  0
LAYER
  5
20B
100
AcDbSymbolTableRecord
100
AcDbLayerTableRecord
  2
18_DATUM_CAMS_JOINTS
 70
0
 62
7
  6
CONTINUOUS
370
-3
390
F
  0
LAYER
  5
20C
100
AcDbSymbolTableRecord
100
AcDbLayerTableRecord
  2
19_DATUM_FUNCTIONAL
 70
0
 62
7
  6
CONTINUOUS
370
-3
390
F
  0
LAYER
  5
20D
100
AcDbSymbolTableRecord
100
AcDbLayerTableRecord
  2
20_DATUM_KINEMATIC_SCHEME
 70
0
 62
7
  6
CONTINUOUS
370
-3
390
F
  0
ENDTAB
  0
TABLE
  2
STYLE
  5
3
100
AcDbSymbolTable
 70
1
  0
STYLE
  5
11
100
AcDbSymbolTableRecord
100
AcDbTextStyleTableRecord
  2
STANDARD
 70
0
 40
0.0
 41
0.8
 50
0.0
 71
0
 42
0.2
  3
txt
  4

  0
STYLE
  5
20E
100
AcDbSymbolTableRecord
100
AcDbTextStyleTableRecord
  2
TEXTSTYLE_1
 70
0
 40
0.0
 41
0.8
 50
0.0
 71
0
 42
0.2
  3
gdt
  4

  0
ENDTAB
  0
TABLE
  2
VIEW
  5
6
100
AcDbSymbolTable
 70
0
  0
ENDTAB
  0
TABLE
  2
UCS
  5
7
100
AcDbSymbolTable
 70
0
  0
ENDTAB
  0
TABLE
  2
APPID
  5
9
100
AcDbSymbolTable
 70
1
  0
APPID
  5
20F
100
AcDbSymbolTableRecord
100
AcDbRegAppTableRecord
  2
ACAD
 70
0
  0
ENDTAB
  0
TABLE
  2
BLOCK_RECORD
  5
1
100
AcDbSymbolTable
 70
0
  0
BLOCK_RECORD
  5
210
100
AcDbSymbolTableRecord
100
AcDbBlockTableRecord
  2
*Model_Space
  0
BLOCK_RECORD
  5
211
100
AcDbSymbolTableRecord
100
AcDbBlockTableRecord
  2
*Paper_Space
  0
BLOCK_RECORD
  5
212
100
AcDbSymbolTableRecord
100
AcDbBlockTableRecord
  2
_FILLED
  0
ENDTAB
  0
TABLE
  2
DIMSTYLE
  5
A
100
AcDbSymbolTable
 70
1
100
AcDbDimStyleTable
 71
0
  0
DIMSTYLE
105
213
100
AcDbSymbolTableRecord
100
AcDbDimStyleTableRecord
  2
STANDARD
 70
0
  3

  4

 40
1.0
 41
0.6771765798
 42
1.0
 43
0.38
 44
1.0
 45
0.0
 46
0.0
 47
0.01
 48
0.01
140
0.9480472117
141
0.09
142
0.0
143
25.4
144
1.0
145
0.0
146
1.0
147
0.625
 71
1
 72
0
 73
0
 74
0
 75
0
 76
0
 77
1
 78
8
 79
2
170
0
171
1
172
0
173
0
174
0
175
0
176
0
177
0
178
0
270
2
179
2
271
2
272
2
273
2
274
2
275
0
280
0
281
0
282
0
283
1
284
8
285
0
286
0
287
3
288
0
340
11
278
46
341
212
342
212
343
212
344
212
  0
ENDTAB
  0
ENDSEC
  0
SECTION
  2
BLOCKS
  0
BLOCK
  5
20
100
AcDbEntity
  8
0
100
AcDbBlockBegin
  2
*Model_Space
 70
0
 10
0.0
 20
0.0
 30
0.0
  3
*Model_Space
  1

  0
ENDBLK
  5
21
100
AcDbEntity
  8
0
100
AcDbBlockEnd
  0
BLOCK
  5
1C
100
AcDbEntity
  8
0
100
AcDbBlockBegin
  2
*Paper_Space
 70
0
 10
0.0
 20
0.0
 30
0.0
  3
*Paper_Space
  1

  0
ENDBLK
  5
1D
100
AcDbEntity
  8
0
100
AcDbBlockEnd
  0
BLOCK
  5
214
100
AcDbEntity
  8
0
100
AcDbBlockBegin
  2
_FILLED
 70
64
 10
0.0
 20
0.0
  3
_FILLED
  1

  0
SOLID
  5
215
100
AcDbEntity
  8
0
  6
BYBLOCK
 62
0
100
AcDbTrace
 10
0.0
 20
0.0
 11
-1.0
 21
0.25
 12
-1.0
 22
-0.25
 13
-1.0
 23
-0.25
  0
ENDBLK
  5
216
100
AcDbEntity
  8
0
  6
BYBLOCK
 62
0
100
AcDbBlockEnd
  0
ENDSEC
  0
SECTION
  2
ENTITIES
  0
LINE
  5
217
100
AcDbEntity
  8
0
100
AcDbLine
 62
7
  6
CONTINUOUS
 10
32.9639608733
 20
11.8319089768
 11
35.1424253196
 21
11.831909073
  0
LINE
  5
218
100
AcDbEntity
  8
0
100
AcDbLine
 62
7
  6
CONTINUOUS
 10
6.039884623
 20
12.6318519053
 11
51.039884623
 21
12.6318519053
  0
LINE
  5
219
100
AcDbEntity
  8
0
100
AcDbLine
 62
7
  6
CONTINUOUS
 10
6.039884623
 20
12.6318721125
 11
6.039884623
 21
69.0105054036
  0
LINE
  5
21A
100
AcDbEntity
  8
0
100
AcDbLine
 62
7
  6
CONTINUOUS
 10
7.4963907884
 20
27.1318547434
 11
7.4963907884
 21
35.4355777065
  0
LINE
  5
21B
100
AcDbEntity
  8
0
100
AcDbLine
 62
7
  6
CONTINUOUS
 10
9.9942172024
 20
61.7681539608
 11
9.9942165111
 21
61.9463404101
  0
LINE
  5
21C
100
AcDbEntity
  8
0
100
AcDbLine
 62
7
  6
CONTINUOUS
 10
12.2855484702
 20
61.9463404103
 11
12.2855475601
 21
61.7681539608
  0
LINE
  5
21D
100
AcDbEntity
  8
0
100
AcDbLine
 62
7
  6
CONTINUOUS
 10
15.3011907884
 20
35.4355777065
 11
15.3011907884
 21
27.1318547434
  0
LINE
  5
21E
100
AcDbEntity
  8
0
100
AcDbLine
 62
7
  6
CONTINUOUS
 10
16.203684623
 20
27.1318547434
 11
16.203684623
 21
35.4355777065
  0
LINE
  5
21F
100
AcDbEntity
  8
0
100
AcDbLine
 62
7
  6
CONTINUOUS
 10
6.039884623
 20
27.1318542704
 11
51.039884623
 21
27.1318542704
  0
LINE
  5
220
100
AcDbEntity
  8
0
100
AcDbLine
 62
7
  6
CONTINUOUS
 10
23.902384623
 20
35.4355777065
 11
23.902384623
 21
27.1318547434
  0
LINE
  5
221
100
AcDbEntity
  8
0
100
AcDbLine
 62
7
  6
CONTINUOUS
 10
6.039884623
 20
35.2364249936
 11
7.4963907884
 21
35.2364249898
  0
LINE
  5
222
100
AcDbEntity
  8
0
100
AcDbLine
 62
7
  6
CONTINUOUS
 10
15.3011907884
 20
35.2364249898
 11
16.203684623
 21
35.2364249898
  0
LINE
  5
223
100
AcDbEntity
  8
0
100
AcDbLine
 62
7
  6
CONTINUOUS
 10
23.902384623
 20
35.2364249898
 11
24.854484623
 21
35.2364249898
  0
LINE
  5
224
100
AcDbEntity
  8
0
100
AcDbLine
 62
7
  6
CONTINUOUS
 10
32.553184623
 20
35.2364249898
 11
33.389284623
 21
35.2364249898
  0
LINE
  5
225
100
AcDbEntity
  8
0
100
AcDbLine
 62
7
  6
CONTINUOUS
 10
41.194084623
 20
35.2364249898
 11
42.020384623
 21
35.2364249898
  0
LINE
  5
226
100
AcDbEntity
  8
0
100
AcDbLine
 62
7
  6
CONTINUOUS
 10
49.719084623
 20
35.2364249898
 11
51.039884623
 21
35.2364249936
  0
LINE
  5
227
100
AcDbEntity
  8
0
100
AcDbLine
 62
7
  6
CONTINUOUS
 10
7.4963907884
 20
35.4355777065
 11
15.3011907884
 21
35.4355777065
  0
LINE
  5
228
100
AcDbEntity
  8
0
100
AcDbLine
 62
7
  6
CONTINUOUS
 10
16.203684623
 20
35.4355777065
 11
23.902384623
 21
35.4355777065
  0
LINE
  5
229
100
AcDbEntity
  8
0
100
AcDbLine
 62
7
  6
CONTINUOUS
 10
24.854484623
 20
35.4355777065
 11
32.553184623
 21
35.4355777065
  0
LINE
  5
22A
100
AcDbEntity
  8
0
100
AcDbLine
 62
7
  6
CONTINUOUS
 10
33.389284623
 20
35.4355777065
 11
41.194084623
 21
35.4355777065
  0
LINE
  5
22B
100
AcDbEntity
  8
0
100
AcDbLine
 62
7
  6
CONTINUOUS
 10
42.020384623
 20
35.4355777065
 11
49.719084623
 21
35.4355777065
  0
LINE
  5
22C
100
AcDbEntity
  8
0
100
AcDbLine
 62
7
  6
CONTINUOUS
 10
51.039884623
 20
35.5053971926
 11
6.039884623
 21
35.5053971926
  0
LINE
  5
22D
100
AcDbEntity
  8
0
100
AcDbLine
 62
7
  6
CONTINUOUS
 10
6.039884623
 20
35.6105054036
 11
51.039884623
 21
35.6105054036
  0
LINE
  5
22E
100
AcDbEntity
  8
0
100
AcDbLine
 62
7
  6
CONTINUOUS
 10
24.854484623
 20
27.1318547434
 11
24.854484623
 21
35.4355777065
  0
LINE
  5
22F
100
AcDbEntity
  8
0
100
AcDbLine
 62
7
  6
CONTINUOUS
 10
32.553184623
 20
35.4355777065
 11
32.553184623
 21
27.1318547434
  0
LINE
  5
230
100
AcDbEntity
  8
0
100
AcDbLine
 62
7
  6
CONTINUOUS
 10
32.9639608733
 20
12.6318519053
 11
32.9639608733
 21
11.8319089768
  0
LINE
  5
231
100
AcDbEntity
  8
0
100
AcDbLine
 62
7
  6
CONTINUOUS
 10
33.389284623
 20
27.1318547434
 11
33.389284623
 21
35.4355777065
  0
LINE
  5
232
100
AcDbEntity
  8
0
100
AcDbLine
 62
7
  6
CONTINUOUS
 10
33.4983447599
 20
12.6318519053
 11
33.4983447599
 21
11.8319070443
  0
LINE
  5
233
100
AcDbEntity
  8
0
100
AcDbLine
 62
7
  6
CONTINUOUS
 10
34.5814244862
 20
12.6318519053
 11
34.5814244862
 21
11.8319070443
  0
LINE
  5
234
100
AcDbEntity
  8
0
100
AcDbLine
 62
7
  6
CONTINUOUS
 10
35.1424253196
 20
12.6318519053
 11
35.1424253196
 21
11.831909073
  0
LINE
  5
235
100
AcDbEntity
  8
0
100
AcDbLine
 62
7
  6
CONTINUOUS
 10
41.194084623
 20
35.4355777065
 11
41.194084623
 21
27.1318547434
  0
LINE
  5
236
100
AcDbEntity
  8
0
100
AcDbLine
 62
7
  6
CONTINUOUS
 10
42.020384623
 20
27.1318547434
 11
42.020384623
 21
35.4355777065
  0
LINE
  5
237
100
AcDbEntity
  8
0
100
AcDbLine
 62
7
  6
CONTINUOUS
 10
44.439884623
 20
61.9434882682
 11
44.4398846271
 21
61.7710069101
  0
LINE
  5
238
100
AcDbEntity
  8
0
100
AcDbLine
 62
7
  6
CONTINUOUS
 10
47.839884623
 20
61.7710069104
 11
47.8398846198
 21
61.9434882684
  0
LINE
  5
239
100
AcDbEntity
  8
0
100
AcDbLine
 62
7
  6
CONTINUOUS
 10
49.719084623
 20
35.4355777065
 11
49.719084623
 21
27.1318547434
  0
LINE
  5
23A
100
AcDbEntity
  8
0
100
AcDbLine
 62
7
  6
CONTINUOUS
 10
6.039884623
 20
61.7105054036
 11
51.039884623
 21
61.7105054036
  0
LINE
  5
23B
100
AcDbEntity
  8
0
100
AcDbLine
 62
7
  6
CONTINUOUS
 10
9.9942298192
 20
61.7681539608
 11
12.2855373522
 21
61.768153961
  0
LINE
  5
23C
100
AcDbEntity
  8
0
100
AcDbLine
 62
7
  6
CONTINUOUS
 10
12.2855373486
 20
61.9463404104
 11
9.9942298145
 21
61.9463404102
  0
LINE
  5
23D
100
AcDbEntity
  8
0
100
AcDbLine
 62
7
  6
CONTINUOUS
 10
6.039884623
 20
62.0668783027
 11
51.039884623
 21
62.0668783027
  0
LINE
  5
23E
100
AcDbEntity
  8
0
100
AcDbLine
 62
7
  6
CONTINUOUS
 10
51.039884623
 20
12.6318721125
 11
51.039884623
 21
69.0105054036
  0
LINE
  5
23F
100
AcDbEntity
  8
0
100
AcDbLine
 62
7
  6
CONTINUOUS
 10
6.039884623
 20
69.0105054036
 11
51.039884623
 21
69.0105054036
  0
SPLINE
  5
240
100
AcDbEntity
  8
0
100
AcDbSpline
 62
7
  6
CONTINUOUS
 70
0
 71
3
 72
37
 73
33
 74
0
 42
0.0000001
 43
0.0000001
 44
0.0000000001
 40
0.0
 40
0.0
 40
0.0
 40
0.0
 40
0.0014093615
 40
0.0036146426
 40
0.0068632264
 40
0.0112216834
 40
0.0167109522
 40
0.0233367869
 40
0.0399651873
 40
0.0609634129
 40
0.0861500732
 40
0.1153069266
 40
0.1481409843
 40
0.2235866972
 40
0.3096133999
 40
0.4029419548
 40
0.4999862714
 40
0.5970303727
 40
0.6903602301
 40
0.7763910402
 40
0.8518428011
 40
0.8846811255
 40
0.9138415788
 40
0.9390306512
 40
0.9600315804
 40
0.9766618847
 40
0.9832881763
 40
0.988777795
 40
0.9931365068
 40
0.9963852573
 40
0.9985906233
 40
1.0
 40
1.0
 40
1.0
 40
1.0
 10
38.791943142
 20
61.8572471856
 30
0.0
 10
38.791943142
 20
61.8586657344
 30
0.0
 10
38.7898086593
 20
61.8620897018
 30
0.0
 10
38.7838384851
 20
61.8655833413
 30
0.0
 10
38.7746660334
 20
61.8693381732
 30
0.0
 10
38.7619910483
 20
61.8729962262
 30
0.0
 10
38.7458238332
 20
61.8767028462
 30
0.0
 10
38.7173745637
 20
61.8819920052
 30
0.0
 10
38.6732480052
 20
61.8881767969
 30
0.0
 10
38.6103870298
 20
61.8949710078
 30
0.0
 10
38.5348261823
 20
61.9014506222
 30
0.0
 10
38.447289647
 20
61.9075441426
 30
0.0
 10
38.3091794492
 20
61.9154343804
 30
0.0
 10
38.1137639742
 20
61.9235536371
 30
0.0
 10
37.8573918787
 20
61.9305638535
 30
0.0
 10
37.5792181952
 20
61.9348879566
 30
0.0
 10
37.2899263639
 20
61.9363507057
 30
0.0
 10
37.000633221
 20
61.9348885199
 30
0.0
 10
36.7224542908
 20
61.9305656421
 30
0.0
 10
36.466070641
 20
61.9235558965
 30
0.0
 10
36.2706406514
 20
61.9154363803
 30
0.0
 10
36.1325164178
 20
61.9075463155
 30
0.0
 10
36.0449695079
 20
61.9014528107
 30
0.0
 10
35.9693999145
 20
61.8949724934
 30
0.0
 10
35.9065318712
 20
61.8881779786
 30
0.0
 10
35.8624001994
 20
61.8819928822
 30
0.0
 10
35.8339482479
 20
61.8767032203
 30
0.0
 10
35.8177799729
 20
61.8729964415
 30
0.0
 10
35.8051042117
 20
61.8693382908
 30
0.0
 10
35.795931231
 20
61.8655833881
 30
0.0
 10
35.789960758
 20
61.8620897705
 30
0.0
 10
35.787826104
 20
61.8586657497
 30
0.0
 10
35.787826104
 20
61.8572471856
 30
0.0
  0
SPLINE
  5
241
100
AcDbEntity
  8
0
100
AcDbSpline
 62
7
  6
CONTINUOUS
 70
0
 71
3
 72
37
 73
33
 74
0
 42
0.0000001
 43
0.0000001
 44
0.0000000001
 40
0.0
 40
0.0
 40
0.0
 40
0.0
 40
0.0014093615
 40
0.0036146426
 40
0.0068632264
 40
0.0112216834
 40
0.0167109522
 40
0.0233367869
 40
0.0399651873
 40
0.0609634129
 40
0.0861500732
 40
0.1153069266
 40
0.1481409843
 40
0.2235866972
 40
0.3096133999
 40
0.4029419548
 40
0.4999862714
 40
0.5970303727
 40
0.6903602301
 40
0.7763910402
 40
0.8518428011
 40
0.8846811255
 40
0.9138415788
 40
0.9390306512
 40
0.9600315804
 40
0.9766618847
 40
0.9832881763
 40
0.988777795
 40
0.9931365068
 40
0.9963852573
 40
0.9985906233
 40
1.0
 40
1.0
 40
1.0
 40
1.0
 10
30.141943142
 20
61.8572471856
 30
0.0
 10
30.141943142
 20
61.8586657344
 30
0.0
 10
30.1398086593
 20
61.8620897018
 30
0.0
 10
30.1338384851
 20
61.8655833413
 30
0.0
 10
30.1246660334
 20
61.8693381732
 30
0.0
 10
30.1119910483
 20
61.8729962262
 30
0.0
 10
30.0958238332
 20
61.8767028462
 30
0.0
 10
30.0673745637
 20
61.8819920052
 30
0.0
 10
30.0232480052
 20
61.8881767969
 30
0.0
 10
29.9603870298
 20
61.8949710078
 30
0.0
 10
29.8848261823
 20
61.9014506222
 30
0.0
 10
29.797289647
 20
61.9075441426
 30
0.0
 10
29.6591794492
 20
61.9154343804
 30
0.0
 10
29.4637639742
 20
61.9235536371
 30
0.0
 10
29.2073918787
 20
61.9305638535
 30
0.0
 10
28.9292181952
 20
61.9348879566
 30
0.0
 10
28.6399263639
 20
61.9363507057
 30
0.0
 10
28.350633221
 20
61.9348885199
 30
0.0
 10
28.0724542908
 20
61.9305656421
 30
0.0
 10
27.816070641
 20
61.9235558965
 30
0.0
 10
27.6206406514
 20
61.9154363803
 30
0.0
 10
27.4825164178
 20
61.9075463155
 30
0.0
 10
27.3949695079
 20
61.9014528107
 30
0.0
 10
27.3193999145
 20
61.8949724934
 30
0.0
 10
27.2565318712
 20
61.8881779786
 30
0.0
 10
27.2124001994
 20
61.8819928822
 30
0.0
 10
27.1839482479
 20
61.8767032203
 30
0.0
 10
27.1677799729
 20
61.8729964415
 30
0.0
 10
27.1551042117
 20
61.8693382908
 30
0.0
 10
27.145931231
 20
61.8655833881
 30
0.0
 10
27.139960758
 20
61.8620897705
 30
0.0
 10
27.137826104
 20
61.8586657497
 30
0.0
 10
27.137826104
 20
61.8572471856
 30
0.0
  0
SPLINE
  5
242
100
AcDbEntity
  8
0
100
AcDbSpline
 62
7
  6
CONTINUOUS
 70
0
 71
3
 72
37
 73
33
 74
0
 42
0.0000001
 43
0.0000001
 44
0.0000000001
 40
0.0
 40
0.0
 40
0.0
 40
0.0
 40
0.0014093615
 40
0.0036146426
 40
0.0068632264
 40
0.0112216834
 40
0.0167109522
 40
0.0233367869
 40
0.0399651873
 40
0.0609634129
 40
0.0861500732
 40
0.1153069266
 40
0.1481409843
 40
0.2235866972
 40
0.3096133999
 40
0.4029419548
 40
0.4999862714
 40
0.5970303727
 40
0.6903602301
 40
0.7763910402
 40
0.8518428011
 40
0.8846811255
 40
0.9138415788
 40
0.9390306512
 40
0.9600315804
 40
0.9766618847
 40
0.9832881763
 40
0.988777795
 40
0.9931365068
 40
0.9963852573
 40
0.9985906233
 40
1.0
 40
1.0
 40
1.0
 40
1.0
 10
21.491943142
 20
61.8572471856
 30
0.0
 10
21.491943142
 20
61.8586657344
 30
0.0
 10
21.4898086593
 20
61.8620897018
 30
0.0
 10
21.4838384851
 20
61.8655833413
 30
0.0
 10
21.4746660334
 20
61.8693381732
 30
0.0
 10
21.4619910483
 20
61.8729962262
 30
0.0
 10
21.4458238332
 20
61.8767028462
 30
0.0
 10
21.4173745637
 20
61.8819920052
 30
0.0
 10
21.3732480052
 20
61.8881767969
 30
0.0
 10
21.3103870298
 20
61.8949710078
 30
0.0
 10
21.2348261823
 20
61.9014506222
 30
0.0
 10
21.147289647
 20
61.9075441426
 30
0.0
 10
21.0091794492
 20
61.9154343804
 30
0.0
 10
20.8137639742
 20
61.9235536371
 30
0.0
 10
20.5573918787
 20
61.9305638535
 30
0.0
 10
20.2792181952
 20
61.9348879566
 30
0.0
 10
19.9899263639
 20
61.9363507057
 30
0.0
 10
19.700633221
 20
61.9348885199
 30
0.0
 10
19.4224542908
 20
61.9305656421
 30
0.0
 10
19.166070641
 20
61.9235558965
 30
0.0
 10
18.9706406514
 20
61.9154363803
 30
0.0
 10
18.8325164178
 20
61.9075463155
 30
0.0
 10
18.7449695079
 20
61.9014528107
 30
0.0
 10
18.6693999145
 20
61.8949724934
 30
0.0
 10
18.6065318712
 20
61.8881779786
 30
0.0
 10
18.5624001994
 20
61.8819928822
 30
0.0
 10
18.5339482479
 20
61.8767032203
 30
0.0
 10
18.5177799729
 20
61.8729964415
 30
0.0
 10
18.5051042117
 20
61.8693382908
 30
0.0
 10
18.495931231
 20
61.8655833881
 30
0.0
 10
18.489960758
 20
61.8620897705
 30
0.0
 10
18.487826104
 20
61.8586657497
 30
0.0
 10
18.487826104
 20
61.8572471856
 30
0.0
  0
SPLINE
  5
243
100
AcDbEntity
  8
0
100
AcDbSpline
 62
7
  6
CONTINUOUS
 70
0
 71
3
 72
37
 73
33
 74
0
 42
0.0000001
 43
0.0000001
 44
0.0000000001
 40
0.0
 40
0.0
 40
0.0
 40
0.0
 40
0.0014093615
 40
0.0036146426
 40
0.0068632264
 40
0.0112216834
 40
0.0167109522
 40
0.0233367869
 40
0.0399651873
 40
0.0609634129
 40
0.0861500732
 40
0.1153069266
 40
0.1481409843
 40
0.2235866972
 40
0.3096133999
 40
0.4029419548
 40
0.4999862714
 40
0.5970303727
 40
0.6903602301
 40
0.7763910402
 40
0.8518428011
 40
0.8846811255
 40
0.9138415788
 40
0.9390306512
 40
0.9600315804
 40
0.9766618847
 40
0.9832881763
 40
0.988777795
 40
0.9931365068
 40
0.9963852573
 40
0.9985906233
 40
1.0
 40
1.0
 40
1.0
 40
1.0
 10
27.137826104
 20
61.8572471856
 30
0.0
 10
27.137826104
 20
61.8558286368
 30
0.0
 10
27.1399605868
 20
61.8524046694
 30
0.0
 10
27.145930761
 20
61.8489110299
 30
0.0
 10
27.1551032127
 20
61.845156198
 30
0.0
 10
27.1677781978
 20
61.841498145
 30
0.0
 10
27.1839454129
 20
61.837791525
 30
0.0
 10
27.2123946823
 20
61.832502366
 30
0.0
 10
27.2565212409
 20
61.8263175743
 30
0.0
 10
27.3193822163
 20
61.8195233634
 30
0.0
 10
27.3949430637
 20
61.813043749
 30
0.0
 10
27.482479599
 20
61.8069502286
 30
0.0
 10
27.6205897969
 20
61.7990599908
 30
0.0
 10
27.8160052719
 20
61.7909407341
 30
0.0
 10
28.0723773674
 20
61.7839305177
 30
0.0
 10
28.3505510508
 20
61.7796064146
 30
0.0
 10
28.6398428822
 20
61.7781436655
 30
0.0
 10
28.9291360251
 20
61.7796058513
 30
0.0
 10
29.2073149553
 20
61.7839287291
 30
0.0
 10
29.463698605
 20
61.7909384747
 30
0.0
 10
29.6591285947
 20
61.7990579909
 30
0.0
 10
29.7972528283
 20
61.8069480557
 30
0.0
 10
29.8847997382
 20
61.8130415605
 30
0.0
 10
29.9603693316
 20
61.8195218778
 30
0.0
 10
30.0232373748
 20
61.8263163926
 30
0.0
 10
30.0673690467
 20
61.832501489
 30
0.0
 10
30.0958209982
 20
61.8377911509
 30
0.0
 10
30.1119892731
 20
61.8414979297
 30
0.0
 10
30.1246650344
 20
61.8451560804
 30
0.0
 10
30.133838015
 20
61.8489109831
 30
0.0
 10
30.1398084881
 20
61.8524046007
 30
0.0
 10
30.141943142
 20
61.8558286215
 30
0.0
 10
30.141943142
 20
61.8572471856
 30
0.0
  0
SPLINE
  5
244
100
AcDbEntity
  8
0
100
AcDbSpline
 62
7
  6
CONTINUOUS
 70
0
 71
3
 72
37
 73
33
 74
0
 42
0.0000001
 43
0.0000001
 44
0.0000000001
 40
0.0
 40
0.0
 40
0.0
 40
0.0
 40
0.0014093615
 40
0.0036146426
 40
0.0068632264
 40
0.0112216834
 40
0.0167109522
 40
0.0233367869
 40
0.0399651873
 40
0.0609634129
 40
0.0861500732
 40
0.1153069266
 40
0.1481409843
 40
0.2235866972
 40
0.3096133999
 40
0.4029419548
 40
0.4999862714
 40
0.5970303727
 40
0.6903602301
 40
0.7763910402
 40
0.8518428011
 40
0.8846811255
 40
0.9138415788
 40
0.9390306512
 40
0.9600315804
 40
0.9766618847
 40
0.9832881763
 40
0.988777795
 40
0.9931365068
 40
0.9963852573
 40
0.9985906233
 40
1.0
 40
1.0
 40
1.0
 40
1.0
 10
18.487826104
 20
61.8572471856
 30
0.0
 10
18.487826104
 20
61.8558286368
 30
0.0
 10
18.4899605868
 20
61.8524046694
 30
0.0
 10
18.495930761
 20
61.8489110299
 30
0.0
 10
18.5051032127
 20
61.845156198
 30
0.0
 10
18.5177781978
 20
61.841498145
 30
0.0
 10
18.5339454129
 20
61.837791525
 30
0.0
 10
18.5623946823
 20
61.832502366
 30
0.0
 10
18.6065212409
 20
61.8263175743
 30
0.0
 10
18.6693822163
 20
61.8195233634
 30
0.0
 10
18.7449430637
 20
61.813043749
 30
0.0
 10
18.832479599
 20
61.8069502286
 30
0.0
 10
18.9705897969
 20
61.7990599908
 30
0.0
 10
19.1660052719
 20
61.7909407341
 30
0.0
 10
19.4223773674
 20
61.7839305177
 30
0.0
 10
19.7005510508
 20
61.7796064146
 30
0.0
 10
19.9898428822
 20
61.7781436655
 30
0.0
 10
20.2791360251
 20
61.7796058513
 30
0.0
 10
20.5573149553
 20
61.7839287291
 30
0.0
 10
20.813698605
 20
61.7909384747
 30
0.0
 10
21.0091285947
 20
61.7990579909
 30
0.0
 10
21.1472528283
 20
61.8069480557
 30
0.0
 10
21.2347997382
 20
61.8130415605
 30
0.0
 10
21.3103693316
 20
61.8195218778
 30
0.0
 10
21.3732373748
 20
61.8263163926
 30
0.0
 10
21.4173690467
 20
61.832501489
 30
0.0
 10
21.4458209982
 20
61.8377911509
 30
0.0
 10
21.4619892731
 20
61.8414979297
 30
0.0
 10
21.4746650344
 20
61.8451560804
 30
0.0
 10
21.483838015
 20
61.8489109831
 30
0.0
 10
21.4898084881
 20
61.8524046007
 30
0.0
 10
21.491943142
 20
61.8558286215
 30
0.0
 10
21.491943142
 20
61.8572471856
 30
0.0
  0
SPLINE
  5
245
100
AcDbEntity
  8
0
100
AcDbSpline
 62
7
  6
CONTINUOUS
 70
0
 71
3
 72
37
 73
33
 74
0
 42
0.0000001
 43
0.0000001
 44
0.0000000001
 40
0.0
 40
0.0
 40
0.0
 40
0.0
 40
0.0014093615
 40
0.0036146426
 40
0.0068632264
 40
0.0112216834
 40
0.0167109522
 40
0.0233367869
 40
0.0399651873
 40
0.0609634129
 40
0.0861500732
 40
0.1153069266
 40
0.1481409843
 40
0.2235866972
 40
0.3096133999
 40
0.4029419548
 40
0.4999862714
 40
0.5970303727
 40
0.6903602301
 40
0.7763910402
 40
0.8518428011
 40
0.8846811255
 40
0.9138415788
 40
0.9390306512
 40
0.9600315804
 40
0.9766618847
 40
0.9832881763
 40
0.988777795
 40
0.9931365068
 40
0.9963852573
 40
0.9985906233
 40
1.0
 40
1.0
 40
1.0
 40
1.0
 10
35.787826104
 20
61.8572471856
 30
0.0
 10
35.787826104
 20
61.8558286368
 30
0.0
 10
35.7899605868
 20
61.8524046694
 30
0.0
 10
35.795930761
 20
61.8489110299
 30
0.0
 10
35.8051032127
 20
61.845156198
 30
0.0
 10
35.8177781978
 20
61.841498145
 30
0.0
 10
35.8339454129
 20
61.837791525
 30
0.0
 10
35.8623946823
 20
61.832502366
 30
0.0
 10
35.9065212409
 20
61.8263175743
 30
0.0
 10
35.9693822163
 20
61.8195233634
 30
0.0
 10
36.0449430637
 20
61.813043749
 30
0.0
 10
36.132479599
 20
61.8069502286
 30
0.0
 10
36.2705897969
 20
61.7990599908
 30
0.0
 10
36.4660052719
 20
61.7909407341
 30
0.0
 10
36.7223773674
 20
61.7839305177
 30
0.0
 10
37.0005510508
 20
61.7796064146
 30
0.0
 10
37.2898428822
 20
61.7781436655
 30
0.0
 10
37.5791360251
 20
61.7796058513
 30
0.0
 10
37.8573149553
 20
61.7839287291
 30
0.0
 10
38.113698605
 20
61.7909384747
 30
0.0
 10
38.3091285947
 20
61.7990579909
 30
0.0
 10
38.4472528283
 20
61.8069480557
 30
0.0
 10
38.5347997382
 20
61.8130415605
 30
0.0
 10
38.6103693316
 20
61.8195218778
 30
0.0
 10
38.6732373748
 20
61.8263163926
 30
0.0
 10
38.7173690467
 20
61.832501489
 30
0.0
 10
38.7458209982
 20
61.8377911509
 30
0.0
 10
38.7619892731
 20
61.8414979297
 30
0.0
 10
38.7746650344
 20
61.8451560804
 30
0.0
 10
38.783838015
 20
61.8489109831
 30
0.0
 10
38.7898084881
 20
61.8524046007
 30
0.0
 10
38.791943142
 20
61.8558286215
 30
0.0
 10
38.791943142
 20
61.8572471856
 30
0.0
  0
ELLIPSE
  5
246
100
AcDbEntity
  8
0
100
AcDbEllipse
 62
7
  6
CONTINUOUS
 10
46.139884623
 20
61.8834510752
 30
0.0
 11
2.05
 21
-0.0
 31
0.0
 40
0.0524077793
 41
0.5929724896
 42
2.5486201664
  0
ELLIPSE
  5
247
100
AcDbEntity
  8
0
100
AcDbEllipse
 62
7
  6
CONTINUOUS
 10
11.139884623
 20
61.8572471856
 30
0.0
 11
2.05
 21
0.0
 31
0.0
 40
0.0524077793
 41
-0.9777935425
 42
0.9777935448
  0
ELLIPSE
  5
248
100
AcDbEntity
  8
0
100
AcDbEllipse
 62
7
  6
CONTINUOUS
 10
11.139884623
 20
61.8572471856
 30
0.0
 11
2.05
 21
0.0
 31
0.0
 40
0.0524077793
 41
2.1637999518
 42
4.1193853584
  0
ELLIPSE
  5
249
100
AcDbEntity
  8
0
100
AcDbEllipse
 62
7
  6
CONTINUOUS
 10
46.139884623
 20
61.831043296
 30
0.0
 11
2.05
 21
0.0
 31
0.0
 40
0.0524077793
 41
-2.5486264009
 42
-0.5929662496
  0
ENDSEC
  0
SECTION
  2
OBJECTS
  0
DICTIONARY
  5
C
100
AcDbDictionary
280
0
281
1
  3
ACAD_GROUP
350
D
  3
ACAD_MLINESTYLE
350
17
  3
ACAD_LAYOUT
350
1A
  3
ACAD_PLOTSETTINGS
350
19
  3
ACAD_PLOTSTYLENAME
350
E
  0
DICTIONARY
  5
D
102
{ACAD_REACTORS
330
C
102
}
100
AcDbDictionary
280
0
281
1
  0
ACDBDICTIONARYWDFLT
  5
E
102
{ACAD_REACTORS
330
C
102
}
100
AcDbDictionary
281
1
  3
Normal
350
F
100
AcDbDictionaryWithDefault
340
F
  0
DICTIONARY
  5
17
102
{ACAD_REACTORS
330
C
102
}
100
AcDbDictionary
280
0
281
1
  3
Standard
350
18
  0
DICTIONARY
  5
19
102
{ACAD_REACTORS
330
C
102
}
100
AcDbDictionary
281
1
  0
DICTIONARY
  5
1A
102
{ACAD_REACTORS
330
C
102
}
100
AcDbDictionary
281
1
  3
Model
350
24A
  3
Layout1
350
24B
  0
ACDBPLACEHOLDER
  5
F
102
{ACAD_REACTORS
330
E
102
}
  0
MLINESTYLE
  5
18
102
{ACAD_REACTORS
330
17
102
}
100
AcDbMlineStyle
  2
STANDARD
 70
0
  3

 62
256
 51
90.0
 52
90.0
 71
2
 49
0.5
 62
256
  6
BYLAYER
 49
-0.5
 62
256
  6
BYLAYER
  0
LAYOUT
  5
24A
102
{ACAD_REACTORS
330
1A
102
}
100
AcDbPlotSettings
  1

  2
none_device
  4

  6

 40
0.0
 41
0.0
 42
0.0
 43
0.0
 44
210.0
 45
297.0
 46
0.0
 47
0.0
 48
0.0
 49
0.0
140
0.0
141
0.0
142
1.0
143
1.0
 70
1024
 72
1
 73
0
 74
0
  7

 75
0
147
1.0
148
0.0
149
0.0
100
AcDbLayout
  1
Model
 70
0
 71
0
 10
0.0
 20
0.0
 11
210.0
 21
297.0
 12
0.0
 22
0.0
 32
0.0
 14
0.0
 24
0.0
 34
0.0
 15
0.0
 25
0.0
 35
0.0
146
0.0
 13
0.0
 23
0.0
 33
0.0
 16
1.0
 26
0.0
 36
0.0
 17
0.0
 27
1.0
 37
0.0
 76
0
330
210
345
0
346
0
  0
LAYOUT
  5
24B
102
{ACAD_REACTORS
330
1A
102
}
100
AcDbPlotSettings
  1

  2
none_device
  4

  6

 40
0.0
 41
0.0
 42
0.0
 43
0.0
 44
210.0
 45
297.0
 46
0.0
 47
0.0
 48
0.0
 49
0.0
140
0.0
141
0.0
142
1.0
143
1.0
 70
0
 72
1
 73
0
 74
0
  7

 75
0
147
1.0
148
0.0
149
0.0
100
AcDbLayout
  1
Layout1
 70
0
 71
1
 10
0.0
 20
0.0
 11
210.0
 21
297.0
 12
0.0
 22
0.0
 32
0.0
 14
0.0
 24
0.0
 34
0.0
 15
0.0
 25
0.0
 35
0.0
146
0.0
 13
0.0
 23
0.0
 33
0.0
 16
1.0
 26
0.0
 36
0.0
 17
0.0
 27
1.0
 37
0.0
 76
0
330
211
345
0
346
0
  0
ENDSEC
  0
EOF
