999
DXF file: C:\Users\sesa63760\Dev\_Creo\CAD\MCADID0004769_3D-CAD\drw0001_5.dxf
999
Pro/ENGINEER 2019471 by Parametric Technology Corporation
  0
SECTION
  2
HEADER
  9
$ACADVER
  1
AC1024
  9
$DWGCODEPAGE
  3
ANSI_1252
  9
$EXTMAX
 10
54.691600007
 20
77.3495485814
 30
0.0
  9
$EXTMIN
 10
0.0
 20
0.0
 30
0.0
  9
$LIMMIN
 10
0.0
 20
0.0
  9
$LIMMAX
 10
54.691600007
 20
77.3495485814
  9
$VIEWCTR
 10
27.3458000035
 20
38.6747742907
  9
$VIEWSIZE
 40
77.3495485814
  9
$CLAYER
  8
0
  9
$LTSCALE
 40
5.0420446483
  9
$CELTYPE
  6
BYLAYER
  9
$DIMSCALE
 40
1.0
  9
$DIMASZ
 40
0.6510904763
  9
$DIMEXO
 40
1.0
  9
$DIMDLI
 40
3.4835944843
  9
$DIMEXE
 40
1.0
  9
$DIMCEN
 40
0.8250618515
  9
$DIMLFAC
 40
1.0
  9
$DIMBLK
  1
_FILLED
  9
$DIMALT
 70
0
  9
$DIMALTF
 40
0.0393700787
  9
$DIMTXT
 40
0.9115266668
  9
$DIMTOL
 70
1
  9
$DIMLIM
 70
0
  9
$DIMTFAC
 40
1.0
  9
$DIMTP
 40
0.01
  9
$DIMTM
 40
0.01
  9
$DIMGAP
 40
0.625
  9
$DIMDSEP
 70
46
  9
$AUNITS
 70
0
  9
$PDMODE
 70
3
  9
$PDSIZE
 40
0.3125
  9
$HANDSEED
  5
314
  9
$TILEMODE
 70
1
  9
$MEASUREMENT
 70
1
  9
$INSUNITS
 70
4
  0
ENDSEC
  0
SECTION
  2
CLASSES
  0
CLASS
  1
ACDBDICTIONARYWDFLT
  2
AcDbDictionaryWithDefault
  3
AutoCAD 2000
 90
0
 91
1
280
0
281
0
  0
CLASS
  1
ACDBPLACEHOLDER
  2
AcDbPlaceHolder
  3
AutoCAD 2000
 90
0
 91
1
280
0
281
0
  0
CLASS
  1
LAYOUT
  2
AcDbLayout
  3
AutoCAD 2000
 90
0
 91
0
280
0
281
0
  0
ENDSEC
  0
SECTION
  2
TABLES
  0
TABLE
  2
VPORT
  5
8
100
AcDbSymbolTable
 70
2
  0
VPORT
  5
1F4
100
AcDbSymbolTableRecord
100
AcDbViewportTableRecord
  2
*ACTIVE
 70
0
 10
0.0
 20
0.0
 11
1.0
 21
1.0
 12
27.3458000035
 22
38.6747742907
 13
0.0
 23
0.0
 14
1.0
 24
1.0
 15
0.0
 25
0.0
 16
0.0
 26
0.0
 36
1.0
 17
0.0
 27
0.0
 37
0.0
 40
77.3495485814
 41
0.7070707071
 42
50.0
 43
0.0
 44
0.0
 50
0.0
 51
0.0
 71
0
 72
100
 73
1
 74
1
 75
0
 76
0
 77
0
 78
0
  0
ENDTAB
  0
TABLE
  2
LTYPE
  5
5
100
AcDbSymbolTable
 70
6
  0
LTYPE
  5
14
100
AcDbSymbolTableRecord
100
AcDbLinetypeTableRecord
  2
BYBLOCK
 70
0
  3

 72
65
 73
0
 40
0.0
  0
LTYPE
  5
15
100
AcDbSymbolTableRecord
100
AcDbLinetypeTableRecord
  2
BYLAYER
 70
0
  3

 72
65
 73
0
 40
0.0
  0
LTYPE
  5
16
100
AcDbSymbolTableRecord
100
AcDbLinetypeTableRecord
  2
CONTINUOUS
 70
64
  3
Solid line
 72
65
 73
0
 40
0.0
  0
LTYPE
  5
1F5
100
AcDbSymbolTableRecord
100
AcDbLinetypeTableRecord
  2
CENTER
 70
64
  3
____ _ ____ _ ____ _ ____ _ ____ _ ____ _ ____
 72
65
 73
4
 40
0.6
 49
0.375
 74
0
 49
-0.075
 74
0
 49
0.075
 74
0
 49
-0.075
 74
0
  0
LTYPE
  5
1F6
100
AcDbSymbolTableRecord
100
AcDbLinetypeTableRecord
  2
HIDDEN
 70
64
  3
- - - - - - - - - - - - - - - - - - - -
 72
65
 73
2
 40
0.2
 49
0.1
 74
0
 49
-0.1
 74
0
  0
LTYPE
  5
1F7
100
AcDbSymbolTableRecord
100
AcDbLinetypeTableRecord
  2
PHANTOM
 70
64
  3
_____ _ _ _____ _ _ _____ _ _ _____
 72
65
 73
6
 40
0.8
 49
0.45
 74
0
 49
-0.05
 74
0
 49
0.1
 74
0
 49
-0.05
 74
0
 49
0.1
 74
0
 49
-0.05
 74
0
  0
LTYPE
  5
1F8
100
AcDbSymbolTableRecord
100
AcDbLinetypeTableRecord
  2
DOT
 70
64
  3
. . . . . . . . . . . . . . . . . . . .
 72
65
 73
2
 40
0.2
 49
0.1
 74
0
 49
-0.1
 74
0
  0
LTYPE
  5
1F9
100
AcDbSymbolTableRecord
100
AcDbLinetypeTableRecord
  2
DASHED
 70
64
  3
- - - - - - - - - - - - - - - - - - - -
 72
65
 73
2
 40
0.2
 49
0.1
 74
0
 49
-0.1
 74
0
  0
ENDTAB
  0
TABLE
  2
LAYER
  5
2
100
AcDbSymbolTable
 70
36
  0
LAYER
  5
10
100
AcDbSymbolTableRecord
100
AcDbLayerTableRecord
  2
0
 70
0
 62
7
  6
CONTINUOUS
370
-3
390
F
  0
LAYER
  5
1FA
100
AcDbSymbolTableRecord
100
AcDbLayerTableRecord
  2
DEFAULT_1
 70
0
 62
7
  6
CENTER
370
-3
390
F
  0
LAYER
  5
1FB
100
AcDbSymbolTableRecord
100
AcDbLayerTableRecord
  2
DEFAULT_2
 70
0
 62
7
  6
HIDDEN
370
-3
390
F
  0
LAYER
  5
1FC
100
AcDbSymbolTableRecord
100
AcDbLayerTableRecord
  2
DEFAULT_3
 70
0
 62
7
  6
PHANTOM
370
-3
390
F
  0
LAYER
  5
1FD
100
AcDbSymbolTableRecord
100
AcDbLayerTableRecord
  2
00_COMPONENTS
 70
0
 62
7
  6
CONTINUOUS
370
-3
390
F
  0
LAYER
  5
1FE
100
AcDbSymbolTableRecord
100
AcDbLayerTableRecord
  2
01_1_DEFAULT_DATUMS
 70
0
 62
7
  6
CONTINUOUS
370
-3
390
F
  0
LAYER
  5
1FF
100
AcDbSymbolTableRecord
100
AcDbLayerTableRecord
  2
01_PLANES
 70
0
 62
7
  6
CONTINUOUS
370
-3
390
F
  0
LAYER
  5
200
100
AcDbSymbolTableRecord
100
AcDbLayerTableRecord
  2
02_COORD_SYS
 70
0
 62
7
  6
CONTINUOUS
370
-3
390
F
  0
LAYER
  5
201
100
AcDbSymbolTableRecord
100
AcDbLayerTableRecord
  2
03_AXES
 70
0
 62
7
  6
CONTINUOUS
370
-3
390
F
  0
LAYER
  5
202
100
AcDbSymbolTableRecord
100
AcDbLayerTableRecord
  2
04_POINTS
 70
0
 62
7
  6
CONTINUOUS
370
-3
390
F
  0
LAYER
  5
203
100
AcDbSymbolTableRecord
100
AcDbLayerTableRecord
  2
05_CURVES
 70
0
 62
7
  6
CONTINUOUS
370
-3
390
F
  0
LAYER
  5
204
100
AcDbSymbolTableRecord
100
AcDbLayerTableRecord
  2
06_SURFS
 70
0
 62
7
  6
CONTINUOUS
370
-3
390
F
  0
LAYER
  5
205
100
AcDbSymbolTableRecord
100
AcDbLayerTableRecord
  2
07_COSMETICS
 70
0
 62
7
  6
CONTINUOUS
370
-3
390
F
  0
LAYER
  5
206
100
AcDbSymbolTableRecord
100
AcDbLayerTableRecord
  2
10_NOTES
 70
0
 62
7
  6
CONTINUOUS
370
-3
390
F
  0
LAYER
  5
207
100
AcDbSymbolTableRecord
100
AcDbLayerTableRecord
  2
11_NOTES_PUB
 70
0
 62
7
  6
CONTINUOUS
370
-3
390
F
  0
LAYER
  5
208
100
AcDbSymbolTableRecord
100
AcDbLayerTableRecord
  2
13_REF_GTOL
 70
0
 62
7
  6
CONTINUOUS
370
-3
390
F
  0
LAYER
  5
209
100
AcDbSymbolTableRecord
100
AcDbLayerTableRecord
  2
16_MISC
 70
0
 62
7
  6
CONTINUOUS
370
-3
390
F
  0
LAYER
  5
20A
100
AcDbSymbolTableRecord
100
AcDbLayerTableRecord
  2
17_NO_PRINT
 70
0
 62
7
  6
CONTINUOUS
370
-3
390
F
  0
LAYER
  5
20B
100
AcDbSymbolTableRecord
100
AcDbLayerTableRecord
  2
18_DATUM_CAMS_JOINTS
 70
0
 62
7
  6
CONTINUOUS
370
-3
390
F
  0
LAYER
  5
20C
100
AcDbSymbolTableRecord
100
AcDbLayerTableRecord
  2
19_DATUM_FUNCTIONAL
 70
0
 62
7
  6
CONTINUOUS
370
-3
390
F
  0
LAYER
  5
20D
100
AcDbSymbolTableRecord
100
AcDbLayerTableRecord
  2
20_DATUM_KINEMATIC_SCHEME
 70
0
 62
7
  6
CONTINUOUS
370
-3
390
F
  0
ENDTAB
  0
TABLE
  2
STYLE
  5
3
100
AcDbSymbolTable
 70
1
  0
STYLE
  5
11
100
AcDbSymbolTableRecord
100
AcDbTextStyleTableRecord
  2
STANDARD
 70
0
 40
0.0
 41
1.0
 50
0.0
 71
0
 42
0.2
  3
ARIAL.TTF
  4

  0
STYLE
  5
20E
100
AcDbSymbolTableRecord
100
AcDbTextStyleTableRecord
  2
TEXTSTYLE_1
 70
0
 40
0.0
 41
0.8
 50
0.0
 71
0
 42
0.2
  3
gdt
  4

  0
ENDTAB
  0
TABLE
  2
VIEW
  5
6
100
AcDbSymbolTable
 70
0
  0
ENDTAB
  0
TABLE
  2
UCS
  5
7
100
AcDbSymbolTable
 70
0
  0
ENDTAB
  0
TABLE
  2
APPID
  5
9
100
AcDbSymbolTable
 70
1
  0
APPID
  5
20F
100
AcDbSymbolTableRecord
100
AcDbRegAppTableRecord
  2
ACAD
 70
0
  0
ENDTAB
  0
TABLE
  2
BLOCK_RECORD
  5
1
100
AcDbSymbolTable
 70
0
  0
BLOCK_RECORD
  5
210
100
AcDbSymbolTableRecord
100
AcDbBlockTableRecord
  2
*Model_Space
  0
BLOCK_RECORD
  5
211
100
AcDbSymbolTableRecord
100
AcDbBlockTableRecord
  2
*Paper_Space
  0
BLOCK_RECORD
  5
212
100
AcDbSymbolTableRecord
100
AcDbBlockTableRecord
  2
_FILLED
  0
ENDTAB
  0
TABLE
  2
DIMSTYLE
  5
A
100
AcDbSymbolTable
 70
1
100
AcDbDimStyleTable
 71
0
  0
DIMSTYLE
105
213
100
AcDbSymbolTableRecord
100
AcDbDimStyleTableRecord
  2
STANDARD
 70
0
  3

  4

 40
1.0
 41
0.6510904763
 42
1.0
 43
0.38
 44
1.0
 45
0.0
 46
0.0
 47
0.01
 48
0.01
140
0.9115266668
141
0.09
142
0.0
143
25.4
144
1.0
145
0.0
146
1.0
147
0.625
 71
1
 72
0
 73
0
 74
0
 75
0
 76
0
 77
1
 78
8
 79
2
170
0
171
1
172
0
173
0
174
0
175
0
176
0
177
0
178
0
270
2
179
2
271
2
272
2
273
2
274
2
275
0
280
0
281
0
282
0
283
1
284
8
285
0
286
0
287
3
288
0
340
11
278
46
341
212
342
212
343
212
344
212
  0
ENDTAB
  0
ENDSEC
  0
SECTION
  2
BLOCKS
  0
BLOCK
  5
20
100
AcDbEntity
  8
0
100
AcDbBlockBegin
  2
*Model_Space
 70
0
 10
0.0
 20
0.0
 30
0.0
  3
*Model_Space
  1

  0
ENDBLK
  5
21
100
AcDbEntity
  8
0
100
AcDbBlockEnd
  0
BLOCK
  5
1C
100
AcDbEntity
  8
0
100
AcDbBlockBegin
  2
*Paper_Space
 70
0
 10
0.0
 20
0.0
 30
0.0
  3
*Paper_Space
  1

  0
ENDBLK
  5
1D
100
AcDbEntity
  8
0
100
AcDbBlockEnd
  0
BLOCK
  5
214
100
AcDbEntity
  8
0
100
AcDbBlockBegin
  2
_FILLED
 70
64
 10
0.0
 20
0.0
  3
_FILLED
  1

  0
SOLID
  5
215
100
AcDbEntity
  8
0
  6
BYBLOCK
 62
0
100
AcDbTrace
 10
0.0
 20
0.0
 11
-1.0
 21
0.25
 12
-1.0
 22
-0.25
 13
-1.0
 23
-0.25
  0
ENDBLK
  5
216
100
AcDbEntity
  8
0
  6
BYBLOCK
 62
0
100
AcDbBlockEnd
  0
ENDSEC
  0
SECTION
  2
ENTITIES
  0
LINE
  5
217
100
AcDbEntity
  8
0
100
AcDbLine
 62
7
  6
BYLAYER
 10
29.7459578177
 20
6.2958934892
 11
26.4604436304
 21
6.2958934892
  0
LINE
  5
218
100
AcDbEntity
  8
0
100
AcDbLine
 62
7
  6
BYLAYER
 10
34.4801256327
 20
6.3458934892
 11
21.7262758158
 21
6.3458934892
  0
LINE
  5
219
100
AcDbEntity
  8
0
100
AcDbLine
 62
7
  6
BYLAYER
 10
34.8308484589
 20
6.7590694004
 11
33.4166348965
 21
6.7590694004
  0
LINE
  5
21A
100
AcDbEntity
  8
0
100
AcDbLine
 62
7
  6
BYLAYER
 10
31.5599254496
 20
6.7590694004
 11
24.6464759985
 21
6.7590694004
  0
LINE
  5
21B
100
AcDbEntity
  8
0
100
AcDbLine
 62
7
  6
BYLAYER
 10
22.7897665515
 20
6.7590694004
 11
21.3755529892
 21
6.7590694004
  0
LINE
  5
21C
100
AcDbEntity
  8
0
100
AcDbLine
 62
7
  6
BYLAYER
 10
24.3276360213
 20
9.282717578
 11
31.8787654268
 21
9.282717578
  0
LINE
  5
21D
100
AcDbEntity
  8
0
100
AcDbLine
 62
7
  6
BYLAYER
 10
37.2484450405
 20
9.6958934892
 11
18.9583002161
 21
9.6958934892
  0
LINE
  5
21E
100
AcDbEntity
  8
0
100
AcDbLine
 62
7
  6
BYLAYER
 10
37.6815128875
 20
9.9458934892
 11
21.6930988934
 21
9.9458934892
  0
LINE
  5
21F
100
AcDbEntity
  8
0
100
AcDbLine
 62
7
  6
BYLAYER
 10
20.9859921123
 20
9.9458934892
 11
18.5253064039
 21
9.9458934892
  0
LINE
  5
220
100
AcDbEntity
  8
0
100
AcDbLine
 62
7
  6
BYLAYER
 10
17.9580540727
 20
10.928030826
 11
20.5845194616
 21
10.928030826
  0
LINE
  5
221
100
AcDbEntity
  8
0
100
AcDbLine
 62
7
  6
BYLAYER
 10
21.2916262428
 20
10.928030826
 11
38.2485501433
 21
10.928030826
  0
LINE
  5
222
100
AcDbEntity
  8
0
100
AcDbLine
 62
7
  6
BYLAYER
 10
38.315461289
 20
11.1693046227
 11
21.2437271953
 21
11.1693046227
  0
LINE
  5
223
100
AcDbEntity
  8
0
100
AcDbLine
 62
7
  6
BYLAYER
 10
20.5376281247
 20
11.1693046227
 11
17.8911442643
 21
11.1693046227
  0
LINE
  5
224
100
AcDbEntity
  8
0
100
AcDbLine
 62
7
  6
BYLAYER
 10
39.403200724
 20
12.8958934892
 11
36.803200724
 21
12.8958934892
  0
LINE
  5
225
100
AcDbEntity
  8
0
100
AcDbLine
 62
7
  6
BYLAYER
 10
19.403200724
 20
12.8958934892
 11
16.803200724
 21
12.8958934892
  0
LINE
  5
226
100
AcDbEntity
  8
0
100
AcDbLine
 62
7
  6
BYLAYER
 10
39.603200724
 20
13.0958934892
 11
36.603200724
 21
13.0958934892
  0
LINE
  5
227
100
AcDbEntity
  8
0
100
AcDbLine
 62
7
  6
BYLAYER
 10
19.603200724
 20
13.0958934892
 11
16.603200724
 21
13.0958934892
  0
LINE
  5
228
100
AcDbEntity
  8
0
100
AcDbLine
 62
7
  6
BYLAYER
 10
16.803200724
 20
12.8958934892
 11
16.603200724
 21
13.0958934892
  0
LINE
  5
229
100
AcDbEntity
  8
0
100
AcDbLine
 62
7
  6
BYLAYER
 10
18.803200724
 20
63.3661740868
 11
19.203200724
 21
63.7661740868
  0
LINE
  5
22A
100
AcDbEntity
  8
0
100
AcDbLine
 62
7
  6
BYLAYER
 10
24.103200967
 20
66.5161733756
 11
24.3532014712
 21
66.7661738345
  0
LINE
  5
22B
100
AcDbEntity
  8
0
100
AcDbLine
 62
7
  6
BYLAYER
 10
23.803200724
 20
64.7661740868
 11
24.103200724
 21
65.0661740868
  0
LINE
  5
22C
100
AcDbEntity
  8
0
100
AcDbLine
 62
7
  6
BYLAYER
 10
36.603200724
 20
16.1958934892
 11
21.1824051547
 21
16.1958934892
  0
LINE
  5
22D
100
AcDbEntity
  8
0
100
AcDbLine
 62
7
  6
BYLAYER
 10
20.4745541277
 20
16.1958934892
 11
19.603200724
 21
16.1958934892
  0
LINE
  5
22E
100
AcDbEntity
  8
0
100
AcDbLine
 62
7
  6
BYLAYER
 10
40.1031555147
 20
16.5958934892
 11
39.603200724
 21
16.5958934892
  0
LINE
  5
22F
100
AcDbEntity
  8
0
100
AcDbLine
 62
7
  6
BYLAYER
 10
38.8838816983
 20
16.5958934892
 11
33.6356221806
 21
16.5958934892
  0
LINE
  5
230
100
AcDbEntity
  8
0
100
AcDbLine
 62
7
  6
BYLAYER
 10
22.5707792675
 20
16.5958934892
 11
17.3225197497
 21
16.5958934892
  0
LINE
  5
231
100
AcDbEntity
  8
0
100
AcDbLine
 62
7
  6
BYLAYER
 10
16.603200724
 20
16.5958934892
 11
16.1032459334
 21
16.5958934892
  0
LINE
  5
232
100
AcDbEntity
  8
0
100
AcDbLine
 62
7
  6
BYLAYER
 10
41.603200724
 20
17.1958934892
 11
14.603200724
 21
17.1958934892
  0
LINE
  5
233
100
AcDbEntity
  8
0
100
AcDbLine
 62
7
  6
BYLAYER
 10
18.5248885605
 20
9.9458934892
 11
17.9578513047
 21
10.928030826
  0
LINE
  5
234
100
AcDbEntity
  8
0
100
AcDbLine
 62
7
  6
BYLAYER
 10
17.9578513047
 20
10.928030826
 11
17.8909401591
 21
11.1693046227
  0
LINE
  5
235
100
AcDbEntity
  8
0
100
AcDbLine
 62
7
  6
BYLAYER
 10
14.603200724
 20
23.6958934892
 11
41.603200724
 21
23.6958934892
  0
LINE
  5
236
100
AcDbEntity
  8
0
100
AcDbLine
 62
7
  6
BYLAYER
 10
14.603200724
 20
34.8958934892
 11
14.603200724
 21
31.8958934892
  0
LINE
  5
237
100
AcDbEntity
  8
0
100
AcDbLine
 62
7
  6
BYLAYER
 10
14.603200724
 20
17.1958934892
 11
14.603200724
 21
23.6958934892
  0
LINE
  5
238
100
AcDbEntity
  8
0
100
AcDbLine
 62
7
  6
BYLAYER
 10
14.653200724
 20
31.8958934892
 11
14.653200724
 21
23.6958934892
  0
LINE
  5
239
100
AcDbEntity
  8
0
100
AcDbLine
 62
7
  6
BYLAYER
 10
15.3031029124
 20
17.1958934892
 11
15.3030999786
 21
23.6958934892
  0
LINE
  5
23A
100
AcDbEntity
  8
0
100
AcDbLine
 62
7
  6
BYLAYER
 10
15.353200724
 20
23.6958934892
 11
15.353200724
 21
31.8958934892
  0
LINE
  5
23B
100
AcDbEntity
  8
0
100
AcDbLine
 62
7
  6
BYLAYER
 10
15.603200724
 20
31.8958934892
 11
15.603200724
 21
34.8958934892
  0
LINE
  5
23C
100
AcDbEntity
  8
0
100
AcDbLine
 62
7
  6
BYLAYER
 10
15.953200724
 20
41.4259506975
 11
15.953200724
 21
44.3658362808
  0
LINE
  5
23D
100
AcDbEntity
  8
0
100
AcDbLine
 62
7
  6
BYLAYER
 10
16.103200724
 20
16.5958934892
 11
16.103200724
 21
17.1958934892
  0
LINE
  5
23E
100
AcDbEntity
  8
0
100
AcDbLine
 62
7
  6
BYLAYER
 10
16.2618595779
 20
16.5958934892
 11
16.2618595779
 21
17.1958934892
  0
LINE
  5
23F
100
AcDbEntity
  8
0
100
AcDbLine
 62
7
  6
BYLAYER
 10
16.453200724
 20
40.9258934892
 11
16.453200724
 21
44.8658934892
  0
LINE
  5
240
100
AcDbEntity
  8
0
100
AcDbLine
 62
7
  6
BYLAYER
 10
16.603200724
 20
13.0958934892
 11
16.603200724
 21
17.1958934892
  0
LINE
  5
241
100
AcDbEntity
  8
0
100
AcDbLine
 62
7
  6
BYLAYER
 10
15.103200724
 20
34.8958934892
 11
15.2542189939
 21
36.622040212
  0
LINE
  5
242
100
AcDbEntity
  8
0
100
AcDbLine
 62
7
  6
BYLAYER
 10
15.953200724
 20
44.3658934892
 11
16.453200724
 21
44.8658934892
  0
LINE
  5
243
100
AcDbEntity
  8
0
100
AcDbLine
 62
7
  6
BYLAYER
 10
36.803200724
 20
12.8958934892
 11
36.603200724
 21
13.0958934892
  0
LINE
  5
244
100
AcDbEntity
  8
0
100
AcDbLine
 62
7
  6
BYLAYER
 10
17.8909401591
 20
11.1693046227
 11
17.8608024383
 21
12.8958934892
  0
LINE
  5
245
100
AcDbEntity
  8
0
100
AcDbLine
 62
7
  6
BYLAYER
 10
17.3225197497
 20
17.1958934892
 11
17.3225197497
 21
16.5958934892
  0
LINE
  5
246
100
AcDbEntity
  8
0
100
AcDbLine
 62
7
  6
BYLAYER
 10
17.453200724
 20
36.8958934892
 11
17.453200724
 21
53.8958934892
  0
LINE
  5
247
100
AcDbEntity
  8
0
100
AcDbLine
 62
7
  6
BYLAYER
 10
17.503200724
 20
47.0150484792
 11
17.503200724
 21
49.2169681583
  0
LINE
  5
248
100
AcDbEntity
  8
0
100
AcDbLine
 62
7
  6
BYLAYER
 10
18.2085086469
 20
44.9129091703
 11
18.2085086469
 21
43.349597561
  0
LINE
  5
249
100
AcDbEntity
  8
0
100
AcDbLine
 62
7
  6
BYLAYER
 10
18.6208388142
 20
16.5958934892
 11
18.6208388142
 21
17.1958934892
  0
LINE
  5
24A
100
AcDbEntity
  8
0
100
AcDbLine
 62
7
  6
BYLAYER
 10
18.803200724
 20
59.166228683
 11
18.803200724
 21
63.3661194905
  0
LINE
  5
24B
100
AcDbEntity
  8
0
100
AcDbLine
 62
7
  6
BYLAYER
 10
16.4565990891
 20
16.5958934892
 11
16.4648035026
 21
17.1958934892
  0
LINE
  5
24C
100
AcDbEntity
  8
0
100
AcDbLine
 62
7
  6
BYLAYER
 10
31.8532000792
 20
55.7661743292
 11
32.1032004909
 21
56.0161747005
  0
LINE
  5
24D
100
AcDbEntity
  8
0
100
AcDbLine
 62
7
  6
BYLAYER
 10
26.460380401
 20
6.2958934892
 11
26.4469829414
 21
6.3458934892
  0
LINE
  5
24E
100
AcDbEntity
  8
0
100
AcDbLine
 62
7
  6
BYLAYER
 10
21.103200724
 20
34.8958934892
 11
20.9521824542
 21
36.622040212
  0
LINE
  5
24F
100
AcDbEntity
  8
0
100
AcDbLine
 62
7
  6
BYLAYER
 10
20.4750585057
 20
16.1958934892
 11
20.5371243046
 21
11.1693046227
  0
LINE
  5
250
100
AcDbEntity
  8
0
100
AcDbLine
 62
7
  6
BYLAYER
 10
21.2442310858
 20
11.1693046227
 11
21.1821652869
 21
16.1958934892
  0
LINE
  5
251
100
AcDbEntity
  8
0
100
AcDbLine
 62
7
  6
BYLAYER
 10
19.203200724
 20
58.7661740868
 11
19.203200724
 21
63.7661740868
  0
LINE
  5
252
100
AcDbEntity
  8
0
100
AcDbLine
 62
7
  6
BYLAYER
 10
19.603200724
 20
13.0958934892
 11
19.603200724
 21
16.5958934892
  0
LINE
  5
253
100
AcDbEntity
  8
0
100
AcDbLine
 62
7
  6
BYLAYER
 10
19.603200724
 20
53.2662074753
 11
19.603200724
 21
69.2661406982
  0
LINE
  5
254
100
AcDbEntity
  8
0
100
AcDbLine
 62
7
  6
BYLAYER
 10
20.453200724
 20
53.2661740868
 11
20.453200724
 21
49.2169681583
  0
LINE
  5
255
100
AcDbEntity
  8
0
100
AcDbLine
 62
7
  6
BYLAYER
 10
20.453200724
 20
43.349597561
 11
20.453200724
 21
39.2719613011
  0
LINE
  5
256
100
AcDbEntity
  8
0
100
AcDbLine
 62
7
  6
BYLAYER
 10
20.4750585057
 20
16.1958934892
 11
20.4750486801
 21
16.5958934892
  0
LINE
  5
257
100
AcDbEntity
  8
0
100
AcDbLine
 62
7
  6
BYLAYER
 10
20.953200724
 20
39.7719613011
 11
20.953200724
 21
43.349597561
  0
LINE
  5
258
100
AcDbEntity
  8
0
100
AcDbLine
 62
7
  6
BYLAYER
 10
20.953200724
 20
49.2169681583
 11
20.953200724
 21
49.8957926466
  0
LINE
  5
259
100
AcDbEntity
  8
0
100
AcDbLine
 62
7
  6
BYLAYER
 10
21.0407193666
 20
9.8445231637
 11
21.0407193666
 21
16.5958934892
  0
LINE
  5
25A
100
AcDbEntity
  8
0
100
AcDbLine
 62
7
  6
BYLAYER
 10
21.103200724
 20
39.9219613011
 11
21.103200724
 21
44.1502956261
  0
LINE
  5
25B
100
AcDbEntity
  8
0
100
AcDbLine
 62
7
  6
BYLAYER
 10
21.103200724
 20
44.9129091703
 11
21.103200724
 21
57.9613386482
  0
LINE
  5
25C
100
AcDbEntity
  8
0
100
AcDbLine
 62
7
  6
BYLAYER
 10
21.1821554613
 20
16.5958934892
 11
21.1821652869
 21
16.1958934892
  0
LINE
  5
25D
100
AcDbEntity
  8
0
100
AcDbLine
 62
7
  6
BYLAYER
 10
36.803200724
 20
58.2661740868
 11
36.603200724
 21
58.0661740868
  0
LINE
  5
25E
100
AcDbEntity
  8
0
100
AcDbLine
 62
7
  6
BYLAYER
 10
14.603200724
 20
31.8958934892
 11
41.603200724
 21
31.8958934892
  0
LINE
  5
25F
100
AcDbEntity
  8
0
100
AcDbLine
 62
7
  6
BYLAYER
 10
18.2085086469
 20
43.349597561
 11
17.503200724
 21
47.0150484792
  0
LINE
  5
260
100
AcDbEntity
  8
0
100
AcDbLine
 62
7
  6
BYLAYER
 10
17.503200724
 20
49.2169681583
 11
17.6795277047
 21
48.3006054287
  0
LINE
  5
261
100
AcDbEntity
  8
0
100
AcDbLine
 62
7
  6
BYLAYER
 10
18.2085086469
 20
44.9129091703
 11
17.6795277047
 21
48.3006054287
  0
LINE
  5
262
100
AcDbEntity
  8
0
100
AcDbLine
 62
7
  6
BYLAYER
 10
22.5707792675
 20
17.1958934892
 11
22.5707792675
 21
16.5958934892
  0
LINE
  5
263
100
AcDbEntity
  8
0
100
AcDbLine
 62
7
  6
BYLAYER
 10
22.603200724
 20
41.6758521679
 11
22.603200724
 21
42.2508934892
  0
LINE
  5
264
100
AcDbEntity
  8
0
100
AcDbLine
 62
7
  6
BYLAYER
 10
23.103200724
 20
31.8958934892
 11
23.103200724
 21
34.8958934892
  0
LINE
  5
265
100
AcDbEntity
  8
0
100
AcDbLine
 62
7
  6
BYLAYER
 10
23.103200724
 20
42.2508934892
 11
23.103200724
 21
45.111147527
  0
LINE
  5
266
100
AcDbEntity
  8
0
100
AcDbLine
 62
7
  6
BYLAYER
 10
23.603200724
 20
47.3849665434
 11
23.603200724
 21
45.4714474335
  0
LINE
  5
267
100
AcDbEntity
  8
0
100
AcDbLine
 62
7
  6
BYLAYER
 10
21.8321329122
 20
40.6508934892
 11
20.0676668181
 21
38.8864273951
  0
LINE
  5
268
100
AcDbEntity
  8
0
100
AcDbLine
 62
7
  6
BYLAYER
 10
22.3318518889
 20
41.0376692557
 11
21.8321329122
 21
40.6508934892
  0
LINE
  5
269
100
AcDbEntity
  8
0
100
AcDbLine
 62
7
  6
BYLAYER
 10
15.953200724
 20
41.4258934892
 11
16.453200724
 21
40.9258934892
  0
LINE
  5
26A
100
AcDbEntity
  8
0
100
AcDbLine
 62
7
  6
BYLAYER
 10
23.803200724
 20
69.2660371712
 11
23.803200724
 21
50.8230657327
  0
LINE
  5
26B
100
AcDbEntity
  8
0
100
AcDbLine
 62
7
  6
BYLAYER
 10
24.103200724
 20
56.0161747979
 11
24.103200724
 21
66.5161733756
  0
LINE
  5
26C
100
AcDbEntity
  8
0
100
AcDbLine
 62
7
  6
BYLAYER
 10
24.3532012189
 20
55.7661740868
 11
24.3532012189
 21
66.7661740868
  0
LINE
  5
26D
100
AcDbEntity
  8
0
100
AcDbLine
 62
7
  6
BYLAYER
 10
24.603200724
 20
51.2662580616
 11
24.603200724
 21
71.2660901119
  0
LINE
  5
26E
100
AcDbEntity
  8
0
100
AcDbLine
 62
7
  6
BYLAYER
 10
14.603200724
 20
34.8958934892
 11
41.603200724
 21
34.8958934892
  0
LINE
  5
26F
100
AcDbEntity
  8
0
100
AcDbLine
 62
7
  6
BYLAYER
 10
19.8266219206
 20
36.0958934892
 11
20.429339831
 21
36.0958934892
  0
LINE
  5
270
100
AcDbEntity
  8
0
100
AcDbLine
 62
7
  6
BYLAYER
 10
39.8266219206
 20
36.0958934892
 11
40.429339831
 21
36.0958934892
  0
LINE
  5
271
100
AcDbEntity
  8
0
100
AcDbLine
 62
7
  6
BYLAYER
 10
15.2542189939
 20
36.622040212
 11
19.782467435
 21
36.622040212
  0
LINE
  5
272
100
AcDbEntity
  8
0
100
AcDbLine
 62
7
  6
BYLAYER
 10
20.4046698662
 20
36.622040212
 11
20.9521824542
 21
36.622040212
  0
LINE
  5
273
100
AcDbEntity
  8
0
100
AcDbLine
 62
7
  6
BYLAYER
 10
35.2542189939
 20
36.622040212
 11
39.782467435
 21
36.622040212
  0
LINE
  5
274
100
AcDbEntity
  8
0
100
AcDbLine
 62
7
  6
BYLAYER
 10
40.4046698662
 20
36.622040212
 11
40.9521824542
 21
36.622040212
  0
LINE
  5
275
100
AcDbEntity
  8
0
100
AcDbLine
 62
7
  6
BYLAYER
 10
15.5530774033
 20
36.8958934892
 11
20.6533240448
 21
36.8958934892
  0
LINE
  5
276
100
AcDbEntity
  8
0
100
AcDbLine
 62
7
  6
BYLAYER
 10
35.5530774033
 20
36.8958934892
 11
40.6533240448
 21
36.8958934892
  0
LINE
  5
277
100
AcDbEntity
  8
0
100
AcDbLine
 62
7
  6
BYLAYER
 10
36.13873463
 20
38.8864273951
 11
20.0676668181
 21
38.8864273951
  0
LINE
  5
278
100
AcDbEntity
  8
0
100
AcDbLine
 62
7
  6
BYLAYER
 10
38.953200724
 20
39.9108934892
 11
38.753200724
 21
39.9108934892
  0
LINE
  5
279
100
AcDbEntity
  8
0
100
AcDbLine
 62
7
  6
BYLAYER
 10
35.753200724
 20
39.9108934892
 11
35.253200724
 21
39.9108934892
  0
LINE
  5
27A
100
AcDbEntity
  8
0
100
AcDbLine
 62
7
  6
BYLAYER
 10
20.953200724
 20
39.9108934892
 11
20.453200724
 21
39.9108934892
  0
LINE
  5
27B
100
AcDbEntity
  8
0
100
AcDbLine
 62
7
  6
BYLAYER
 10
21.8321329122
 20
40.6508934892
 11
34.3742685359
 21
40.6508934892
  0
LINE
  5
27C
100
AcDbEntity
  8
0
100
AcDbLine
 62
7
  6
BYLAYER
 10
17.453200724
 20
40.9258934892
 11
16.453200724
 21
40.9258934892
  0
LINE
  5
27D
100
AcDbEntity
  8
0
100
AcDbLine
 62
7
  6
BYLAYER
 10
22.3318522509
 20
41.0376694687
 11
33.8745491972
 21
41.0376694687
  0
LINE
  5
27E
100
AcDbEntity
  8
0
100
AcDbLine
 62
7
  6
BYLAYER
 10
22.8391263752
 20
41.1758521679
 11
33.3672750729
 21
41.1758521679
  0
LINE
  5
27F
100
AcDbEntity
  8
0
100
AcDbLine
 62
7
  6
BYLAYER
 10
31.603200724
 20
71.2660901119
 11
31.603200724
 21
51.2662580616
  0
LINE
  5
280
100
AcDbEntity
  8
0
100
AcDbLine
 62
7
  6
BYLAYER
 10
31.8532003217
 20
66.7661740868
 11
31.8532003217
 21
55.7661740868
  0
LINE
  5
281
100
AcDbEntity
  8
0
100
AcDbLine
 62
7
  6
BYLAYER
 10
32.103200724
 20
66.516173473
 11
32.103200724
 21
56.0161747005
  0
LINE
  5
282
100
AcDbEntity
  8
0
100
AcDbLine
 62
7
  6
BYLAYER
 10
32.403200724
 20
50.8230657327
 11
32.403200724
 21
69.2660590038
  0
LINE
  5
283
100
AcDbEntity
  8
0
100
AcDbLine
 62
7
  6
BYLAYER
 10
32.603200724
 20
45.4714474335
 11
32.603200724
 21
47.3849665434
  0
LINE
  5
284
100
AcDbEntity
  8
0
100
AcDbLine
 62
7
  6
BYLAYER
 10
33.103200724
 20
31.8958934892
 11
33.103200724
 21
34.8958934892
  0
LINE
  5
285
100
AcDbEntity
  8
0
100
AcDbLine
 62
7
  6
BYLAYER
 10
33.103200724
 20
42.2508934892
 11
33.103200724
 21
45.111147527
  0
LINE
  5
286
100
AcDbEntity
  8
0
100
AcDbLine
 62
7
  6
BYLAYER
 10
21.103200724
 20
41.5168721018
 11
23.2236265646
 21
41.5168721018
  0
LINE
  5
287
100
AcDbEntity
  8
0
100
AcDbLine
 62
7
  6
BYLAYER
 10
32.9827748835
 20
41.5168721018
 11
35.103200724
 21
41.5168721018
  0
LINE
  5
288
100
AcDbEntity
  8
0
100
AcDbLine
 62
7
  6
BYLAYER
 10
33.6031090908
 20
41.6758521679
 11
22.6032923573
 21
41.6758521679
  0
LINE
  5
289
100
AcDbEntity
  8
0
100
AcDbLine
 62
7
  6
BYLAYER
 10
22.6032923573
 20
42.2508934892
 11
33.6031090908
 21
42.2508934892
  0
LINE
  5
28A
100
AcDbEntity
  8
0
100
AcDbLine
 62
7
  6
BYLAYER
 10
37.9978928012
 20
43.349597561
 11
35.103200724
 21
43.349597561
  0
LINE
  5
28B
100
AcDbEntity
  8
0
100
AcDbLine
 62
7
  6
BYLAYER
 10
21.103200724
 20
43.349597561
 11
18.2085086469
 21
43.349597561
  0
LINE
  5
28C
100
AcDbEntity
  8
0
100
AcDbLine
 62
7
  6
BYLAYER
 10
33.603200724
 20
41.6758521679
 11
33.603200724
 21
42.2508934892
  0
LINE
  5
28D
100
AcDbEntity
  8
0
100
AcDbLine
 62
7
  6
BYLAYER
 10
33.6356221806
 20
16.5958934892
 11
33.6356221806
 21
17.1958934892
  0
LINE
  5
28E
100
AcDbEntity
  8
0
100
AcDbLine
 62
7
  6
BYLAYER
 10
35.103200724
 20
57.9613386482
 11
35.103200724
 21
44.9129091703
  0
LINE
  5
28F
100
AcDbEntity
  8
0
100
AcDbLine
 62
7
  6
BYLAYER
 10
35.103200724
 20
44.1502956261
 11
35.103200724
 21
39.9219613011
  0
LINE
  5
290
100
AcDbEntity
  8
0
100
AcDbLine
 62
7
  6
BYLAYER
 10
35.253200724
 20
49.8958129365
 11
35.253200724
 21
49.2169681583
  0
LINE
  5
291
100
AcDbEntity
  8
0
100
AcDbLine
 62
7
  6
BYLAYER
 10
35.253200724
 20
43.349597561
 11
35.253200724
 21
39.7719613011
  0
LINE
  5
292
100
AcDbEntity
  8
0
100
AcDbLine
 62
7
  6
BYLAYER
 10
35.103200724
 20
34.8958934892
 11
35.2542189939
 21
36.622040212
  0
LINE
  5
293
100
AcDbEntity
  8
0
100
AcDbLine
 62
7
  6
BYLAYER
 10
39.453200724
 20
40.4108934892
 11
38.953200724
 21
39.9108934892
  0
LINE
  5
294
100
AcDbEntity
  8
0
100
AcDbLine
 62
7
  6
BYLAYER
 10
35.103200724
 20
44.1502956261
 11
33.103200724
 21
44.1502956261
  0
LINE
  5
295
100
AcDbEntity
  8
0
100
AcDbLine
 62
7
  6
BYLAYER
 10
23.103200724
 20
44.1502956261
 11
21.103200724
 21
44.1502956261
  0
LINE
  5
296
100
AcDbEntity
  8
0
100
AcDbLine
 62
7
  6
BYLAYER
 10
17.453200724
 20
44.8658934892
 11
16.453200724
 21
44.8658934892
  0
LINE
  5
297
100
AcDbEntity
  8
0
100
AcDbLine
 62
7
  6
BYLAYER
 10
37.9978928012
 20
44.9129091703
 11
35.103200724
 21
44.9129091703
  0
LINE
  5
298
100
AcDbEntity
  8
0
100
AcDbLine
 62
7
  6
BYLAYER
 10
21.103200724
 20
44.9129091703
 11
18.2085086469
 21
44.9129091703
  0
LINE
  5
299
100
AcDbEntity
  8
0
100
AcDbLine
 62
7
  6
BYLAYER
 10
23.103200724
 20
45.111147527
 11
33.103200724
 21
45.111147527
  0
LINE
  5
29A
100
AcDbEntity
  8
0
100
AcDbLine
 62
7
  6
BYLAYER
 10
23.9730416448
 20
45.4714474335
 11
23.603200724
 21
45.4714474335
  0
LINE
  5
29B
100
AcDbEntity
  8
0
100
AcDbLine
 62
7
  6
BYLAYER
 10
38.953200724
 20
45.8808934892
 11
38.753200724
 21
45.8808934892
  0
LINE
  5
29C
100
AcDbEntity
  8
0
100
AcDbLine
 62
7
  6
BYLAYER
 10
33.8745495592
 20
41.0376692557
 11
34.3742685359
 21
40.6508934892
  0
LINE
  5
29D
100
AcDbEntity
  8
0
100
AcDbLine
 62
7
  6
BYLAYER
 10
34.3742685359
 20
40.6508934892
 11
36.13873463
 21
38.8864273951
  0
LINE
  5
29E
100
AcDbEntity
  8
0
100
AcDbLine
 62
7
  6
BYLAYER
 10
35.753200724
 20
43.349597561
 11
35.753200724
 21
39.2719613011
  0
LINE
  5
29F
100
AcDbEntity
  8
0
100
AcDbLine
 62
7
  6
BYLAYER
 10
35.753200724
 20
49.2169681583
 11
35.753200724
 21
53.2661740868
  0
LINE
  5
2A0
100
AcDbEntity
  8
0
100
AcDbLine
 62
7
  6
BYLAYER
 10
36.603200724
 20
69.2661639163
 11
36.603200724
 21
53.2661842572
  0
LINE
  5
2A1
100
AcDbEntity
  8
0
100
AcDbLine
 62
7
  6
BYLAYER
 10
36.603200724
 20
13.0958934892
 11
36.603200724
 21
16.5958934892
  0
LINE
  5
2A2
100
AcDbEntity
  8
0
100
AcDbLine
 62
7
  6
BYLAYER
 10
36.803200724
 20
64.2661258724
 11
36.803200724
 21
58.2662223011
  0
LINE
  5
2A3
100
AcDbEntity
  8
0
100
AcDbLine
 62
7
  6
BYLAYER
 10
37.5855626338
 20
17.1958934892
 11
37.5855626338
 21
16.5958934892
  0
LINE
  5
2A4
100
AcDbEntity
  8
0
100
AcDbLine
 62
7
  6
BYLAYER
 10
37.9978928012
 20
44.9129091703
 11
38.5268737433
 21
48.3006054287
  0
LINE
  5
2A5
100
AcDbEntity
  8
0
100
AcDbLine
 62
7
  6
BYLAYER
 10
38.703200724
 20
49.2169681583
 11
38.5268737433
 21
48.3006054287
  0
LINE
  5
2A6
100
AcDbEntity
  8
0
100
AcDbLine
 62
7
  6
BYLAYER
 10
38.703200724
 20
47.0150484792
 11
37.9978928012
 21
43.349597561
  0
LINE
  5
2A7
100
AcDbEntity
  8
0
100
AcDbLine
 62
7
  6
BYLAYER
 10
17.453200724
 20
47.3848978733
 11
17.503200724
 21
47.3848978733
  0
LINE
  5
2A8
100
AcDbEntity
  8
0
100
AcDbLine
 62
7
  6
BYLAYER
 10
38.703200724
 20
47.3848978733
 11
38.753200724
 21
47.3848978733
  0
LINE
  5
2A9
100
AcDbEntity
  8
0
100
AcDbLine
 62
7
  6
BYLAYER
 10
35.103200724
 20
47.3849665434
 11
21.103200724
 21
47.3849665434
  0
LINE
  5
2AA
100
AcDbEntity
  8
0
100
AcDbLine
 62
7
  6
BYLAYER
 10
38.753200724
 20
47.5848978733
 11
38.703200724
 21
47.5848978733
  0
LINE
  5
2AB
100
AcDbEntity
  8
0
100
AcDbLine
 62
7
  6
BYLAYER
 10
17.453200724
 20
47.5848978733
 11
17.503200724
 21
47.5848978733
  0
LINE
  5
2AC
100
AcDbEntity
  8
0
100
AcDbLine
 62
7
  6
BYLAYER
 10
35.103200724
 20
47.6087581683
 11
21.103200724
 21
47.6087581683
  0
LINE
  5
2AD
100
AcDbEntity
  8
0
100
AcDbLine
 62
7
  6
BYLAYER
 10
38.5268737433
 20
48.3006054287
 11
35.103200724
 21
48.3006054287
  0
LINE
  5
2AE
100
AcDbEntity
  8
0
100
AcDbLine
 62
7
  6
BYLAYER
 10
21.103200724
 20
48.3006054287
 11
17.6795277047
 21
48.3006054287
  0
LINE
  5
2AF
100
AcDbEntity
  8
0
100
AcDbLine
 62
7
  6
BYLAYER
 10
18.803200724
 20
59.1661740868
 11
19.203200724
 21
58.7661740868
  0
LINE
  5
2B0
100
AcDbEntity
  8
0
100
AcDbLine
 62
7
  6
BYLAYER
 10
24.3532014712
 20
55.7661743391
 11
24.103200967
 21
56.0161747979
  0
LINE
  5
2B1
100
AcDbEntity
  8
0
100
AcDbLine
 62
7
  6
BYLAYER
 10
39.7415979454
 20
17.1958934892
 11
39.749802359
 21
16.5958934892
  0
LINE
  5
2B2
100
AcDbEntity
  8
0
100
AcDbLine
 62
7
  6
BYLAYER
 10
37.9978928012
 20
44.9129091703
 11
37.9978928012
 21
43.349597561
  0
LINE
  5
2B3
100
AcDbEntity
  8
0
100
AcDbLine
 62
7
  6
BYLAYER
 10
38.703200724
 20
47.0150484792
 11
38.703200724
 21
49.2169681583
  0
LINE
  5
2B4
100
AcDbEntity
  8
0
100
AcDbLine
 62
7
  6
BYLAYER
 10
38.753200724
 20
53.8958934892
 11
38.753200724
 21
36.8958934892
  0
LINE
  5
2B5
100
AcDbEntity
  8
0
100
AcDbLine
 62
7
  6
BYLAYER
 10
38.8838816983
 20
16.5958934892
 11
38.8838816983
 21
17.1958934892
  0
LINE
  5
2B6
100
AcDbEntity
  8
0
100
AcDbLine
 62
7
  6
BYLAYER
 10
38.953200724
 20
45.8808934892
 11
38.953200724
 21
39.9108934892
  0
LINE
  5
2B7
100
AcDbEntity
  8
0
100
AcDbLine
 62
7
  6
BYLAYER
 10
39.453200724
 20
45.3808288187
 11
39.453200724
 21
40.4109581597
  0
LINE
  5
2B8
100
AcDbEntity
  8
0
100
AcDbLine
 62
7
  6
BYLAYER
 10
39.603200724
 20
13.0958934892
 11
39.603200724
 21
17.1958934892
  0
LINE
  5
2B9
100
AcDbEntity
  8
0
100
AcDbLine
 62
7
  6
BYLAYER
 10
39.9445418701
 20
17.1958934892
 11
39.9445418701
 21
16.5958934892
  0
LINE
  5
2BA
100
AcDbEntity
  8
0
100
AcDbLine
 62
7
  6
BYLAYER
 10
40.103200724
 20
16.5958934892
 11
40.103200724
 21
17.1958934892
  0
LINE
  5
2BB
100
AcDbEntity
  8
0
100
AcDbLine
 62
7
  6
BYLAYER
 10
38.3455990098
 20
12.8958934892
 11
38.315461289
 21
11.1693046227
  0
LINE
  5
2BC
100
AcDbEntity
  8
0
100
AcDbLine
 62
7
  6
BYLAYER
 10
29.7460210471
 20
6.2958934892
 11
29.7594185067
 21
6.3458934892
  0
LINE
  5
2BD
100
AcDbEntity
  8
0
100
AcDbLine
 62
7
  6
BYLAYER
 10
35.103200724
 20
48.7267281584
 11
21.103200724
 21
48.7267281584
  0
LINE
  5
2BE
100
AcDbEntity
  8
0
100
AcDbLine
 62
7
  6
BYLAYER
 10
38.703200724
 20
49.2169681583
 11
35.103200724
 21
49.2169681583
  0
LINE
  5
2BF
100
AcDbEntity
  8
0
100
AcDbLine
 62
7
  6
BYLAYER
 10
21.103200724
 20
49.2169681583
 11
17.503200724
 21
49.2169681583
  0
LINE
  5
2C0
100
AcDbEntity
  8
0
100
AcDbLine
 62
7
  6
BYLAYER
 10
35.253200724
 20
49.8958934892
 11
35.103200724
 21
49.8958934892
  0
LINE
  5
2C1
100
AcDbEntity
  8
0
100
AcDbLine
 62
7
  6
BYLAYER
 10
21.103200724
 20
49.8958934892
 11
20.953200724
 21
49.8958934892
  0
LINE
  5
2C2
100
AcDbEntity
  8
0
100
AcDbLine
 62
7
  6
BYLAYER
 10
38.753200724
 20
49.9157717599
 11
35.753200724
 21
49.9157717599
  0
LINE
  5
2C3
100
AcDbEntity
  8
0
100
AcDbLine
 62
7
  6
BYLAYER
 10
17.453200724
 20
49.9157717599
 11
20.453200724
 21
49.9157717599
  0
LINE
  5
2C4
100
AcDbEntity
  8
0
100
AcDbLine
 62
7
  6
BYLAYER
 10
23.803200724
 20
57.7661740868
 11
24.103200724
 21
57.4661740868
  0
LINE
  5
2C5
100
AcDbEntity
  8
0
100
AcDbLine
 62
7
  6
BYLAYER
 10
41.103200724
 20
34.8958934892
 11
40.9521824542
 21
36.622040212
  0
LINE
  5
2C6
100
AcDbEntity
  8
0
100
AcDbLine
 62
7
  6
BYLAYER
 10
40.603200724
 20
34.8958934892
 11
40.603200724
 21
31.8958934892
  0
LINE
  5
2C7
100
AcDbEntity
  8
0
100
AcDbLine
 62
7
  6
BYLAYER
 10
40.853200724
 20
31.8958934892
 11
40.853200724
 21
23.6958934892
  0
LINE
  5
2C8
100
AcDbEntity
  8
0
100
AcDbLine
 62
7
  6
BYLAYER
 10
40.9032985363
 20
23.6958934892
 11
40.9032985363
 21
17.1958934892
  0
LINE
  5
2C9
100
AcDbEntity
  8
0
100
AcDbLine
 62
7
  6
BYLAYER
 10
41.553200724
 20
23.6958934892
 11
41.553200724
 21
31.8958934892
  0
LINE
  5
2CA
100
AcDbEntity
  8
0
100
AcDbLine
 62
7
  6
BYLAYER
 10
41.603200724
 20
17.1958934892
 11
41.603200724
 21
23.6958934892
  0
LINE
  5
2CB
100
AcDbEntity
  8
0
100
AcDbLine
 62
7
  6
BYLAYER
 10
41.603200724
 20
31.8958934892
 11
41.603200724
 21
34.8958934892
  0
LINE
  5
2CC
100
AcDbEntity
  8
0
100
AcDbLine
 62
7
  6
BYLAYER
 10
19.403200724
 20
12.8958934892
 11
19.603200724
 21
13.0958934892
  0
LINE
  5
2CD
100
AcDbEntity
  8
0
100
AcDbLine
 62
7
  6
BYLAYER
 10
23.803200724
 20
50.8230657327
 11
32.403200724
 21
50.8230657327
  0
LINE
  5
2CE
100
AcDbEntity
  8
0
100
AcDbLine
 62
7
  6
BYLAYER
 10
24.603200724
 20
51.2661740868
 11
31.603200724
 21
51.2661740868
  0
LINE
  5
2CF
100
AcDbEntity
  8
0
100
AcDbLine
 62
7
  6
BYLAYER
 10
17.453200724
 20
52.8038744887
 11
20.453200724
 21
52.8038744887
  0
LINE
  5
2D0
100
AcDbEntity
  8
0
100
AcDbLine
 62
7
  6
BYLAYER
 10
35.753200724
 20
52.8038744887
 11
38.753200724
 21
52.8038744887
  0
LINE
  5
2D1
100
AcDbEntity
  8
0
100
AcDbLine
 62
7
  6
BYLAYER
 10
39.453200724
 20
45.3808934892
 11
38.953200724
 21
45.8808934892
  0
LINE
  5
2D2
100
AcDbEntity
  8
0
100
AcDbLine
 62
7
  6
BYLAYER
 10
36.603200724
 20
53.2661740868
 11
35.103200724
 21
53.2661740868
  0
LINE
  5
2D3
100
AcDbEntity
  8
0
100
AcDbLine
 62
7
  6
BYLAYER
 10
21.103200724
 20
53.2661740868
 11
19.603200724
 21
53.2661740868
  0
LINE
  5
2D4
100
AcDbEntity
  8
0
100
AcDbLine
 62
7
  6
BYLAYER
 10
38.753200724
 20
53.8958934892
 11
36.603200724
 21
53.8958934892
  0
LINE
  5
2D5
100
AcDbEntity
  8
0
100
AcDbLine
 62
7
  6
BYLAYER
 10
19.603200724
 20
53.8958934892
 11
17.453200724
 21
53.8958934892
  0
LINE
  5
2D6
100
AcDbEntity
  8
0
100
AcDbLine
 62
7
  6
BYLAYER
 10
38.2485501433
 20
10.928030826
 11
38.315461289
 21
11.1693046227
  0
LINE
  5
2D7
100
AcDbEntity
  8
0
100
AcDbLine
 62
7
  6
BYLAYER
 10
31.8531998368
 20
55.7661740868
 11
31.603200724
 21
55.7661740868
  0
LINE
  5
2D8
100
AcDbEntity
  8
0
100
AcDbLine
 62
7
  6
BYLAYER
 10
24.603200724
 20
55.7661740868
 11
24.3532017235
 21
55.7661740868
  0
LINE
  5
2D9
100
AcDbEntity
  8
0
100
AcDbLine
 62
7
  6
BYLAYER
 10
32.403200724
 20
57.2661740868
 11
32.103200724
 21
57.2661740868
  0
LINE
  5
2DA
100
AcDbEntity
  8
0
100
AcDbLine
 62
7
  6
BYLAYER
 10
35.103200724
 20
57.961338645
 11
32.403200724
 21
57.9613386482
  0
LINE
  5
2DB
100
AcDbEntity
  8
0
100
AcDbLine
 62
7
  6
BYLAYER
 10
23.803200724
 20
57.9613386482
 11
21.103200724
 21
57.961338645
  0
LINE
  5
2DC
100
AcDbEntity
  8
0
100
AcDbLine
 62
7
  6
BYLAYER
 10
19.603200724
 20
58.7661740868
 11
19.203200724
 21
58.7661740868
  0
LINE
  5
2DD
100
AcDbEntity
  8
0
100
AcDbLine
 62
7
  6
BYLAYER
 10
38.2485501433
 20
10.928030826
 11
37.6815128875
 21
9.9458934892
  0
LINE
  5
2DE
100
AcDbEntity
  8
0
100
AcDbLine
 62
7
  6
BYLAYER
 10
32.1032004909
 20
66.516173473
 11
31.8532000792
 21
66.7661738443
  0
LINE
  5
2DF
100
AcDbEntity
  8
0
100
AcDbLine
 62
7
  6
BYLAYER
 10
19.603200724
 20
63.7661740868
 11
19.203200724
 21
63.7661740868
  0
LINE
  5
2E0
100
AcDbEntity
  8
0
100
AcDbLine
 62
7
  6
BYLAYER
 10
36.803200724
 20
64.2661740868
 11
36.603200724
 21
64.4661740868
  0
LINE
  5
2E1
100
AcDbEntity
  8
0
100
AcDbLine
 62
7
  6
BYLAYER
 10
39.403200724
 20
12.8958934892
 11
39.603200724
 21
13.0958934892
  0
LINE
  5
2E2
100
AcDbEntity
  8
0
100
AcDbLine
 62
7
  6
BYLAYER
 10
32.403200724
 20
65.2661740868
 11
32.103200724
 21
65.2661740868
  0
LINE
  5
2E3
100
AcDbEntity
  8
0
100
AcDbLine
 62
7
  6
BYLAYER
 10
31.8531998368
 20
66.7661740868
 11
31.603200724
 21
66.7661740868
  0
LINE
  5
2E4
100
AcDbEntity
  8
0
100
AcDbLine
 62
7
  6
BYLAYER
 10
24.603200724
 20
66.7661740868
 11
24.3532017235
 21
66.7661740868
  0
LINE
  5
2E5
100
AcDbEntity
  8
0
100
AcDbLine
 62
7
  6
BYLAYER
 10
36.603200724
 20
69.2661740868
 11
32.403200724
 21
69.2661740868
  0
LINE
  5
2E6
100
AcDbEntity
  8
0
100
AcDbLine
 62
7
  6
BYLAYER
 10
23.803200724
 20
69.2661740868
 11
19.603200724
 21
69.2661740868
  0
LINE
  5
2E7
100
AcDbEntity
  8
0
100
AcDbLine
 62
7
  6
BYLAYER
 10
24.603200724
 20
71.2661740868
 11
31.603200724
 21
71.2661740868
  0
ARC
  5
2E8
100
AcDbEntity
  8
0
100
AcDbCircle
 62
7
  6
BYLAYER
 10
28.103200724
 20
36.4508934892
 40
10.0
100
AcDbArc
 50
60.0
 51
120.0
  0
ARC
  5
2E9
100
AcDbEntity
  8
0
100
AcDbCircle
 62
7
  6
BYLAYER
 10
32.603200724
 20
35.3508934892
 40
5.0
100
AcDbArc
 50
19.4753758169
 51
45.0
  0
ARC
  5
2EA
100
AcDbEntity
  8
0
100
AcDbCircle
 62
7
  6
BYLAYER
 10
23.603200724
 20
35.3508934892
 40
5.0
100
AcDbArc
 50
135.0
 51
160.5246241831
  0
ARC
  5
2EB
100
AcDbEntity
  8
0
100
AcDbCircle
 62
7
  6
BYLAYER
 10
33.3673303687
 20
40.1758521679
 40
1.0
100
AcDbArc
 50
59.5212457728
 51
90.0
  0
ARC
  5
2EC
100
AcDbEntity
  8
0
100
AcDbCircle
 62
7
  6
BYLAYER
 10
22.8390710794
 20
40.1758521679
 40
1.0
100
AcDbArc
 50
90.0
 51
120.4787542272
  0
ARC
  5
2ED
100
AcDbEntity
  8
0
100
AcDbCircle
 62
7
  6
BYLAYER
 10
18.9579012624
 20
10.1958934892
 40
0.5
100
AcDbArc
 50
210.0
 51
270.0
  0
ARC
  5
2EE
100
AcDbEntity
  8
0
100
AcDbCircle
 62
7
  6
BYLAYER
 10
37.2485001856
 20
10.1958934892
 40
0.5
100
AcDbArc
 50
270.0
 51
330.0
  0
ARC
  5
2EF
100
AcDbEntity
  8
0
100
AcDbCircle
 62
7
  6
BYLAYER
 10
35.5530774033
 20
36.5958934892
 40
0.3
100
AcDbArc
 50
90.0
 51
175.0
  0
ARC
  5
2F0
100
AcDbEntity
  8
0
100
AcDbCircle
 62
7
  6
BYLAYER
 10
40.6533240448
 20
36.5958934892
 40
0.3
100
AcDbArc
 50
5.0
 51
90.0
  0
ARC
  5
2F1
100
AcDbEntity
  8
0
100
AcDbCircle
 62
7
  6
BYLAYER
 10
15.5530774033
 20
36.5958934892
 40
0.3
100
AcDbArc
 50
90.0
 51
175.0
  0
ARC
  5
2F2
100
AcDbEntity
  8
0
100
AcDbCircle
 62
7
  6
BYLAYER
 10
20.6533240448
 20
36.5958934892
 40
0.3
100
AcDbArc
 50
5.0
 51
90.0
  0
ARC
  5
2F3
100
AcDbEntity
  8
0
100
AcDbCircle
 62
7
  6
BYLAYER
 10
23.0032007241
 20
41.4258521679
 40
0.25
100
AcDbArc
 50
270.0000276397
 51
89.9999723484
  0
ARC
  5
2F4
100
AcDbEntity
  8
0
100
AcDbCircle
 62
7
  6
BYLAYER
 10
33.2032007239
 20
41.4258521679
 40
0.25
100
AcDbArc
 50
90.0000276516
 51
269.9999723603
  0
LINE
  5
2F5
100
AcDbEntity
  8
0
100
AcDbLine
 62
7
  6
BYLAYER
 10
39.8266219206
 20
36.0958934892
 11
39.782467435
 21
36.622040212
  0
SPLINE
  5
2F6
100
AcDbEntity
  8
0
100
AcDbSpline
 62
7
  6
BYLAYER
 70
0
 71
3
 72
13
 73
9
 74
0
 42
0.0000001
 43
0.0000001
 44
0.0000000001
 40
0.0
 40
0.0
 40
0.0
 40
0.0
 40
0.1041504771
 40
0.2121601869
 40
0.3262366567
 40
0.4478799882
 40
0.713049073
 40
1.0
 40
1.0
 40
1.0
 40
1.0
 10
39.5623033376
 20
36.8958934892
 30
0.0
 10
39.575592109
 20
36.8958934892
 30
0.0
 10
39.6027738215
 20
36.8923198979
 30
0.0
 10
39.6417964018
 20
36.8767929426
 30
0.0
 10
39.6781405428
 20
36.8516373811
 30
0.0
 10
39.7226342023
 20
36.8052698279
 30
0.0
 10
39.7643762771
 20
36.7283216721
 30
0.0
 10
39.7794018469
 20
36.6585242978
 30
0.0
 10
39.782467435
 20
36.622040212
 30
0.0
  0
LINE
  5
2F7
100
AcDbEntity
  8
0
100
AcDbLine
 62
7
  6
BYLAYER
 10
40.4046698662
 20
36.622040212
 11
40.429339831
 21
36.0958934892
  0
SPLINE
  5
2F8
100
AcDbEntity
  8
0
100
AcDbSpline
 62
7
  6
BYLAYER
 70
0
 71
3
 72
13
 73
9
 74
0
 42
0.0000001
 43
0.0000001
 44
0.0000000001
 40
0.0
 40
0.0
 40
0.0
 40
0.0
 40
0.2884090882
 40
0.5527062587
 40
0.6735902953
 40
0.7870891708
 40
0.8950568292
 40
1.0
 40
1.0
 40
1.0
 40
1.0
 10
40.4046698662
 20
36.622040212
 30
0.0
 10
40.4029635625
 20
36.6583500578
 30
0.0
 10
40.3906654277
 20
36.7278914958
 30
0.0
 10
40.3517035715
 20
36.8051863101
 30
0.0
 10
40.3088257998
 20
36.8516543219
 30
0.0
 10
40.2733481898
 20
36.8768444236
 30
0.0
 10
40.2348272078
 20
36.8923654162
 30
0.0
 10
40.2078738494
 20
36.8958934892
 30
0.0
 10
40.1946472364
 20
36.8958934892
 30
0.0
  0
LINE
  5
2F9
100
AcDbEntity
  8
0
100
AcDbLine
 62
7
  6
BYLAYER
 10
19.8266219206
 20
36.0958934892
 11
19.782467435
 21
36.622040212
  0
SPLINE
  5
2FA
100
AcDbEntity
  8
0
100
AcDbSpline
 62
7
  6
BYLAYER
 70
0
 71
3
 72
13
 73
9
 74
0
 42
0.0000001
 43
0.0000001
 44
0.0000000001
 40
0.0
 40
0.0
 40
0.0
 40
0.0
 40
0.1041504771
 40
0.2121601869
 40
0.3262366567
 40
0.4478799882
 40
0.713049073
 40
1.0
 40
1.0
 40
1.0
 40
1.0
 10
19.5623033376
 20
36.8958934892
 30
0.0
 10
19.575592109
 20
36.8958934892
 30
0.0
 10
19.6027738215
 20
36.8923198979
 30
0.0
 10
19.6417964018
 20
36.8767929426
 30
0.0
 10
19.6781405428
 20
36.8516373811
 30
0.0
 10
19.7226342023
 20
36.8052698279
 30
0.0
 10
19.7643762771
 20
36.7283216721
 30
0.0
 10
19.7794018469
 20
36.6585242978
 30
0.0
 10
19.782467435
 20
36.622040212
 30
0.0
  0
LINE
  5
2FB
100
AcDbEntity
  8
0
100
AcDbLine
 62
7
  6
BYLAYER
 10
20.4046698662
 20
36.622040212
 11
20.429339831
 21
36.0958934892
  0
SPLINE
  5
2FC
100
AcDbEntity
  8
0
100
AcDbSpline
 62
7
  6
BYLAYER
 70
0
 71
3
 72
13
 73
9
 74
0
 42
0.0000001
 43
0.0000001
 44
0.0000000001
 40
0.0
 40
0.0
 40
0.0
 40
0.0
 40
0.2884090882
 40
0.5527062587
 40
0.6735902953
 40
0.7870891708
 40
0.8950568292
 40
1.0
 40
1.0
 40
1.0
 40
1.0
 10
20.4046698662
 20
36.622040212
 30
0.0
 10
20.4029635625
 20
36.6583500578
 30
0.0
 10
20.3906654277
 20
36.7278914958
 30
0.0
 10
20.3517035715
 20
36.8051863101
 30
0.0
 10
20.3088257998
 20
36.8516543219
 30
0.0
 10
20.2733481898
 20
36.8768444236
 30
0.0
 10
20.2348272078
 20
36.8923654162
 30
0.0
 10
20.2078738494
 20
36.8958934892
 30
0.0
 10
20.1946472364
 20
36.8958934892
 30
0.0
  0
LINE
  5
2FD
100
AcDbEntity
  8
0
100
AcDbLine
 62
7
  6
BYLAYER
 10
21.2916262428
 20
10.928030826
 11
21.6930988934
 21
9.9458934892
  0
SPLINE
  5
2FE
100
AcDbEntity
  8
0
100
AcDbSpline
 62
7
  6
BYLAYER
 70
0
 71
3
 72
9
 73
5
 74
0
 42
0.0000001
 43
0.0000001
 44
0.0000000001
 40
0.0
 40
0.0
 40
0.0
 40
0.0
 40
0.2429918624
 40
1.0
 40
1.0
 40
1.0
 40
1.0
 10
21.7478261478
 20
9.8445231637
 30
0.0
 10
21.742471908
 20
9.8521783811
 30
0.0
 10
21.7213941037
 20
9.88434676
 30
0.0
 10
21.7041117671
 20
9.9189543476
 30
0.0
 10
21.6930988934
 20
9.9458934892
 30
0.0
  0
SPLINE
  5
2FF
100
AcDbEntity
  8
0
100
AcDbSpline
 62
7
  6
BYLAYER
 70
0
 71
3
 72
9
 73
5
 74
0
 42
0.0000001
 43
0.0000001
 44
0.0000000001
 40
0.0
 40
0.0
 40
0.0
 40
0.0
 40
0.2432891913
 40
1.0
 40
1.0
 40
1.0
 40
1.0
 10
21.2916262428
 20
10.928030826
 30
0.0
 10
21.284056595
 20
10.946550069
 30
0.0
 10
21.2568992939
 20
11.0242534425
 30
0.0
 10
21.24499999
 20
11.1070823158
 30
0.0
 10
21.2442310858
 20
11.1693046227
 30
0.0
  0
SPLINE
  5
300
100
AcDbEntity
  8
0
100
AcDbSpline
 62
7
  6
BYLAYER
 70
0
 71
3
 72
14
 73
10
 74
0
 42
0.0000001
 43
0.0000001
 44
0.0000000001
 40
0.0
 40
0.0
 40
0.0
 40
0.0
 40
0.1053939692
 40
0.213953768
 40
0.327840958
 40
0.4487511701
 40
0.5772236862
 40
0.7128750644
 40
1.0
 40
1.0
 40
1.0
 40
1.0
 10
21.7262758779
 20
6.3458934892
 30
0.0
 10
21.7055855301
 20
6.3458934892
 30
0.0
 10
21.6634219848
 20
6.3511909609
 30
0.0
 10
21.6027540865
 20
6.3742315212
 30
0.0
 10
21.5460604308
 20
6.4116132112
 30
0.0
 10
21.4951336449
 20
6.4621127885
 30
0.0
 10
21.4512905048
 20
6.5241235534
 30
0.0
 10
21.4031664802
 20
6.6213938006
 30
0.0
 10
21.3825741039
 20
6.7031416462
 30
0.0
 10
21.3755529892
 20
6.7590694004
 30
0.0
  0
LINE
  5
301
100
AcDbEntity
  8
0
100
AcDbLine
 62
7
  6
BYLAYER
 10
21.0070117478
 20
9.6958934892
 11
21.3755529892
 21
6.7590694004
  0
LINE
  5
302
100
AcDbEntity
  8
0
100
AcDbLine
 62
7
  6
BYLAYER
 10
34.8308484589
 20
6.7590694004
 11
35.1993897002
 21
9.6958934892
  0
SPLINE
  5
303
100
AcDbEntity
  8
0
100
AcDbSpline
 62
7
  6
BYLAYER
 70
0
 71
3
 72
13
 73
9
 74
0
 42
0.0000001
 43
0.0000001
 44
0.0000000001
 40
0.0
 40
0.0
 40
0.0
 40
0.0
 40
0.2873665127
 40
0.5508910876
 40
0.6718971378
 40
0.7858756266
 40
0.8945211624
 40
1.0
 40
1.0
 40
1.0
 40
1.0
 10
34.8308484589
 20
6.7590694004
 30
0.0
 10
34.8238271484
 20
6.7031400866
 30
0.0
 10
34.7971864519
 20
6.5970438073
 30
0.0
 10
34.7301574089
 20
6.4808446819
 30
0.0
 10
34.6603388039
 20
6.4116155191
 30
0.0
 10
34.6036451246
 20
6.3742309826
 30
0.0
 10
34.542978957
 20
6.3511899336
 30
0.0
 10
34.5008158101
 20
6.3458934892
 30
0.0
 10
34.4801256319
 20
6.3458934892
 30
0.0
  0
LINE
  5
304
100
AcDbEntity
  8
0
100
AcDbLine
 62
7
  6
BYLAYER
 10
31.5599254496
 20
6.7590694004
 11
31.8787654268
 21
9.282717578
  0
LINE
  5
305
100
AcDbEntity
  8
0
100
AcDbLine
 62
7
  6
BYLAYER
 10
24.3276360213
 20
9.282717578
 11
24.6464759985
 21
6.7590694004
  0
SPLINE
  5
306
100
AcDbEntity
  8
0
100
AcDbSpline
 62
7
  6
BYLAYER
 70
0
 71
3
 72
9
 73
5
 74
0
 42
0.0000001
 43
0.0000001
 44
0.0000000001
 40
0.0
 40
0.0
 40
0.0
 40
0.0
 40
0.2558910653
 40
1.0
 40
1.0
 40
1.0
 40
1.0
 10
20.5371243046
 20
11.1693046227
 30
0.0
 10
20.5373842892
 20
11.1482658003
 30
0.0
 10
20.5421052248
 20
11.0661655735
 30
0.0
 10
20.5613700738
 20
10.9846661083
 30
0.0
 10
20.5845194616
 20
10.928030826
 30
0.0
  0
SPLINE
  5
307
100
AcDbEntity
  8
0
100
AcDbSpline
 62
7
  6
BYLAYER
 70
0
 71
3
 72
9
 73
5
 74
0
 42
0.0000001
 43
0.0000001
 44
0.0000000001
 40
0.0
 40
0.0
 40
0.0
 40
0.0
 40
0.2571252285
 40
1.0
 40
1.0
 40
1.0
 40
1.0
 10
20.9859921123
 20
9.9458934892
 30
0.0
 10
20.98973258
 20
9.9367437439
 30
0.0
 10
21.0051868205
 20
9.9015420958
 30
0.0
 10
21.0243510957
 20
9.8679256779
 30
0.0
 10
21.0407193666
 20
9.8445231637
 30
0.0
  0
LINE
  5
308
100
AcDbEntity
  8
0
100
AcDbLine
 62
7
  6
BYLAYER
 10
20.9859921123
 20
9.9458934892
 11
20.5845194616
 21
10.928030826
  0
LINE
  5
309
100
AcDbEntity
  8
0
100
AcDbLine
 62
7
  6
BYLAYER
 10
22.7897665515
 20
6.7590694004
 11
22.4212253102
 21
9.6958934892
  0
SPLINE
  5
30A
100
AcDbEntity
  8
0
100
AcDbSpline
 62
7
  6
BYLAYER
 70
0
 71
3
 72
14
 73
10
 74
0
 42
0.0000001
 43
0.0000001
 44
0.0000000001
 40
0.0
 40
0.0
 40
0.0
 40
0.0
 40
0.2871803247
 40
0.4227974283
 40
0.5512127122
 40
0.672077594
 40
0.7859570693
 40
0.8945503107
 40
1.0
 40
1.0
 40
1.0
 40
1.0
 10
24.3276360213
 20
9.282717578
 30
0.0
 10
24.320564073
 20
9.3387446901
 30
0.0
 10
24.299801259
 20
9.4206147281
 30
0.0
 10
24.2513536167
 20
9.5179199239
 30
0.0
 10
24.2072750319
 20
9.5798872257
 30
0.0
 10
24.1561339144
 20
9.6303078008
 30
0.0
 10
24.0992619736
 20
9.6676112572
 30
0.0
 10
24.0384479935
 20
9.6906033263
 30
0.0
 10
23.9961981234
 20
9.6958934892
 30
0.0
 10
23.9754623008
 20
9.6958934892
 30
0.0
  0
SPLINE
  5
30B
100
AcDbEntity
  8
0
100
AcDbSpline
 62
7
  6
BYLAYER
 70
0
 71
3
 72
14
 73
10
 74
0
 42
0.0000001
 43
0.0000001
 44
0.0000000001
 40
0.0
 40
0.0
 40
0.0
 40
0.0
 40
0.1055026338
 40
0.2141071317
 40
0.3279492212
 40
0.44875829
 40
0.5771340541
 40
0.7127379537
 40
1.0
 40
1.0
 40
1.0
 40
1.0
 10
25.0001046317
 20
6.3458934892
 30
0.0
 10
24.9793177255
 20
6.3458934892
 30
0.0
 10
24.9369741501
 20
6.3511390952
 30
0.0
 10
24.8759723397
 20
6.3739950147
 30
0.0
 10
24.8188707777
 20
6.4111610336
 30
0.0
 10
24.767489407
 20
6.4615044226
 30
0.0
 10
24.7231782658
 20
6.5234654201
 30
0.0
 10
24.6744414762
 20
6.6208747923
 30
0.0
 10
24.6535772808
 20
6.7029181736
 30
0.0
 10
24.6464759985
 20
6.7590694004
 30
0.0
  0
SPLINE
  5
30C
100
AcDbEntity
  8
0
100
AcDbSpline
 62
7
  6
BYLAYER
 70
0
 71
3
 72
13
 73
9
 74
0
 42
0.0000001
 43
0.0000001
 44
0.0000000001
 40
0.0
 40
0.0
 40
0.0
 40
0.0
 40
0.2873665127
 40
0.5508910876
 40
0.6718971378
 40
0.7858756266
 40
0.8945211624
 40
1.0
 40
1.0
 40
1.0
 40
1.0
 10
22.7897665515
 20
6.7590694004
 30
0.0
 10
22.7967878621
 20
6.7031400866
 30
0.0
 10
22.8234285586
 20
6.5970438073
 30
0.0
 10
22.8904576015
 20
6.4808446819
 30
0.0
 10
22.9602762065
 20
6.4116155191
 30
0.0
 10
23.0169698858
 20
6.3742309826
 30
0.0
 10
23.0776360535
 20
6.3511899336
 30
0.0
 10
23.1197992004
 20
6.3458934892
 30
0.0
 10
23.1404893785
 20
6.3458934892
 30
0.0
  0
SPLINE
  5
30D
100
AcDbEntity
  8
0
100
AcDbSpline
 62
7
  6
BYLAYER
 70
0
 71
3
 72
14
 73
10
 74
0
 42
0.0000001
 43
0.0000001
 44
0.0000000001
 40
0.0
 40
0.0
 40
0.0
 40
0.0
 40
0.1053939692
 40
0.213953768
 40
0.327840958
 40
0.4487511701
 40
0.5772236862
 40
0.7128750644
 40
1.0
 40
1.0
 40
1.0
 40
1.0
 10
33.0659120077
 20
6.3458934892
 30
0.0
 10
33.0866023556
 20
6.3458934892
 30
0.0
 10
33.1287659009
 20
6.3511909609
 30
0.0
 10
33.1894337992
 20
6.3742315212
 30
0.0
 10
33.2461274549
 20
6.4116132112
 30
0.0
 10
33.2970542407
 20
6.4621127885
 30
0.0
 10
33.3408973809
 20
6.5241235534
 30
0.0
 10
33.3890214055
 20
6.6213938006
 30
0.0
 10
33.4096137818
 20
6.7031416462
 30
0.0
 10
33.4166348965
 20
6.7590694004
 30
0.0
  0
SPLINE
  5
30E
100
AcDbEntity
  8
0
100
AcDbSpline
 62
7
  6
BYLAYER
 70
0
 71
3
 72
14
 73
10
 74
0
 42
0.0000001
 43
0.0000001
 44
0.0000000001
 40
0.0
 40
0.0
 40
0.0
 40
0.0
 40
0.287272275
 40
0.4228790344
 40
0.5512488897
 40
0.6720534666
 40
0.7858938876
 40
0.8944975143
 40
1.0
 40
1.0
 40
1.0
 40
1.0
 10
31.5599254496
 20
6.7590694004
 30
0.0
 10
31.5528239602
 20
6.7029165362
 30
0.0
 10
31.531951864
 20
6.6208738513
 30
0.0
 10
31.4832240818
 20
6.523459426
 30
0.0
 10
31.4389116956
 20
6.4615009381
 30
0.0
 10
31.3875282134
 20
6.411164211
 30
0.0
 10
31.3304296435
 20
6.373997645
 30
0.0
 10
31.2694294943
 20
6.3511397142
 30
0.0
 10
31.2270863713
 20
6.3458934892
 30
0.0
 10
31.2062996283
 20
6.3458934892
 30
0.0
  0
SPLINE
  5
30F
100
AcDbEntity
  8
0
100
AcDbSpline
 62
7
  6
BYLAYER
 70
0
 71
3
 72
14
 73
10
 74
0
 42
0.0000001
 43
0.0000001
 44
0.0000000001
 40
0.0
 40
0.0
 40
0.0
 40
0.0
 40
0.1054500477
 40
0.2140444367
 40
0.3279256434
 40
0.4487937769
 40
0.5772129779
 40
0.7128279143
 40
1.0
 40
1.0
 40
1.0
 40
1.0
 10
32.2309397358
 20
9.6958934892
 30
0.0
 10
32.210203795
 20
9.6958934892
 30
0.0
 10
32.1679535331
 20
9.690603831
 30
0.0
 10
32.1071383389
 20
9.6676127135
 30
0.0
 10
32.0502649668
 20
9.6303084982
 30
0.0
 10
31.999125406
 20
9.5798834323
 30
0.0
 10
31.9550474705
 20
9.5179147645
 30
0.0
 10
31.9065943276
 20
9.4206132546
 30
0.0
 10
31.8858371884
 20
9.3387432115
 30
0.0
 10
31.8787654268
 20
9.282717578
 30
0.0
  0
LINE
  5
310
100
AcDbEntity
  8
0
100
AcDbLine
 62
7
  6
BYLAYER
 10
33.7851761379
 20
9.6958934892
 11
33.4166348965
 21
6.7590694004
  0
SPLINE
  5
311
100
AcDbEntity
  8
0
100
AcDbSpline
 62
7
  6
BYLAYER
 70
0
 71
3
 72
9
 73
5
 74
0
 42
0.0000001
 43
0.0000001
 44
0.0000000001
 40
0.0
 40
0.0
 40
0.0
 40
0.0
 40
0.5000000214
 40
1.0
 40
1.0
 40
1.0
 40
1.0
 10
21.0407193666
 20
9.8445231637
 30
0.0
 10
21.158315133
 20
9.8356627647
 30
0.0
 10
21.3942727623
 20
9.8276598072
 30
0.0
 10
21.6302303914
 20
9.8356627655
 30
0.0
 10
21.7478261478
 20
9.8445231637
 30
0.0
  0
ENDSEC
  0
SECTION
  2
OBJECTS
  0
DICTIONARY
  5
C
100
AcDbDictionary
280
0
281
1
  3
ACAD_GROUP
350
D
  3
ACAD_MLINESTYLE
350
17
  3
ACAD_LAYOUT
350
1A
  3
ACAD_PLOTSETTINGS
350
19
  3
ACAD_PLOTSTYLENAME
350
E
  0
DICTIONARY
  5
D
102
{ACAD_REACTORS
330
C
102
}
100
AcDbDictionary
280
0
281
1
  0
ACDBDICTIONARYWDFLT
  5
E
102
{ACAD_REACTORS
330
C
102
}
100
AcDbDictionary
281
1
  3
Normal
350
F
100
AcDbDictionaryWithDefault
340
F
  0
DICTIONARY
  5
17
102
{ACAD_REACTORS
330
C
102
}
100
AcDbDictionary
280
0
281
1
  3
Standard
350
18
  0
DICTIONARY
  5
19
102
{ACAD_REACTORS
330
C
102
}
100
AcDbDictionary
281
1
  0
DICTIONARY
  5
1A
102
{ACAD_REACTORS
330
C
102
}
100
AcDbDictionary
281
1
  3
Model
350
312
  3
Layout1
350
313
  0
ACDBPLACEHOLDER
  5
F
102
{ACAD_REACTORS
330
E
102
}
  0
MLINESTYLE
  5
18
102
{ACAD_REACTORS
330
17
102
}
100
AcDbMlineStyle
  2
STANDARD
 70
0
  3

 62
256
 51
90.0
 52
90.0
 71
2
 49
0.5
 62
256
  6
BYLAYER
 49
-0.5
 62
256
  6
BYLAYER
  0
LAYOUT
  5
312
102
{ACAD_REACTORS
330
1A
102
}
100
AcDbPlotSettings
  1

  2
none_device
  4

  6

 40
0.0
 41
0.0
 42
0.0
 43
0.0
 44
210.0
 45
297.0
 46
0.0
 47
0.0
 48
0.0
 49
0.0
140
0.0
141
0.0
142
1.0
143
1.0
 70
1024
 72
1
 73
0
 74
0
  7

 75
0
147
1.0
148
0.0
149
0.0
100
AcDbLayout
  1
Model
 70
0
 71
0
 10
0.0
 20
0.0
 11
210.0
 21
297.0
 12
0.0
 22
0.0
 32
0.0
 14
0.0
 24
0.0
 34
0.0
 15
0.0
 25
0.0
 35
0.0
146
0.0
 13
0.0
 23
0.0
 33
0.0
 16
1.0
 26
0.0
 36
0.0
 17
0.0
 27
1.0
 37
0.0
 76
0
330
210
345
0
346
0
  0
LAYOUT
  5
313
102
{ACAD_REACTORS
330
1A
102
}
100
AcDbPlotSettings
  1

  2
none_device
  4

  6

 40
0.0
 41
0.0
 42
0.0
 43
0.0
 44
210.0
 45
297.0
 46
0.0
 47
0.0
 48
0.0
 49
0.0
140
0.0
141
0.0
142
1.0
143
1.0
 70
0
 72
1
 73
0
 74
0
  7

 75
0
147
1.0
148
0.0
149
0.0
100
AcDbLayout
  1
Layout1
 70
0
 71
1
 10
0.0
 20
0.0
 11
210.0
 21
297.0
 12
0.0
 22
0.0
 32
0.0
 14
0.0
 24
0.0
 34
0.0
 15
0.0
 25
0.0
 35
0.0
146
0.0
 13
0.0
 23
0.0
 33
0.0
 16
1.0
 26
0.0
 36
0.0
 17
0.0
 27
1.0
 37
0.0
 76
0
330
211
345
0
346
0
  0
ENDSEC
  0
EOF
