999
DXF file: C:\Users\sesa63760\Dev\_Creo\CAD\MCADID0004352_3D-CAD\drw0001_2.dxf
999
Pro/ENGINEER 2019471 by Parametric Technology Corporation
  0
SECTION
  2
HEADER
  9
$ACADVER
  1
AC1024
  9
$DWGCODEPAGE
  3
ANSI_1252
  9
$EXTMAX
 10
48.8508292398
 20
69.0890299249
 30
0.0
  9
$EXTMIN
 10
0.0
 20
0.0
 30
0.0
  9
$LIMMIN
 10
0.0
 20
0.0
  9
$LIMMAX
 10
48.8508292398
 20
69.0890299249
  9
$VIEWCTR
 10
24.4254146199
 20
34.5445149624
  9
$VIEWSIZE
 40
69.0890299249
  9
$CLAYER
  8
0
  9
$LTSCALE
 40
4.5035812099
  9
$CELTYPE
  6
BYLAYER
  9
$DIMSCALE
 40
1.0
  9
$DIMASZ
 40
0.581557491
  9
$DIMEXO
 40
1.0
  9
$DIMDLI
 40
3.1115651996
  9
$DIMEXE
 40
1.0
  9
$DIMCEN
 40
0.7369496525
  9
$DIMLFAC
 40
1.0
  9
$DIMBLK
  1
_FILLED
  9
$DIMALT
 70
0
  9
$DIMALTF
 40
0.0393700787
  9
$DIMTXT
 40
0.8141804873
  9
$DIMTOL
 70
1
  9
$DIMLIM
 70
0
  9
$DIMTFAC
 40
1.0
  9
$DIMTP
 40
0.01
  9
$DIMTM
 40
0.01
  9
$DIMGAP
 40
0.625
  9
$DIMDSEP
 70
46
  9
$AUNITS
 70
0
  9
$PDMODE
 70
3
  9
$PDSIZE
 40
0.3125
  9
$HANDSEED
  5
254
  9
$TILEMODE
 70
1
  9
$MEASUREMENT
 70
1
  9
$INSUNITS
 70
4
  0
ENDSEC
  0
SECTION
  2
CLASSES
  0
CLASS
  1
ACDBDICTIONARYWDFLT
  2
AcDbDictionaryWithDefault
  3
AutoCAD 2000
 90
0
 91
1
280
0
281
0
  0
CLASS
  1
ACDBPLACEHOLDER
  2
AcDbPlaceHolder
  3
AutoCAD 2000
 90
0
 91
1
280
0
281
0
  0
CLASS
  1
LAYOUT
  2
AcDbLayout
  3
AutoCAD 2000
 90
0
 91
0
280
0
281
0
  0
ENDSEC
  0
SECTION
  2
TABLES
  0
TABLE
  2
VPORT
  5
8
100
AcDbSymbolTable
 70
2
  0
VPORT
  5
1F4
100
AcDbSymbolTableRecord
100
AcDbViewportTableRecord
  2
*ACTIVE
 70
0
 10
0.0
 20
0.0
 11
1.0
 21
1.0
 12
24.4254146199
 22
34.5445149624
 13
0.0
 23
0.0
 14
1.0
 24
1.0
 15
0.0
 25
0.0
 16
0.0
 26
0.0
 36
1.0
 17
0.0
 27
0.0
 37
0.0
 40
69.0890299249
 41
0.7070707071
 42
50.0
 43
0.0
 44
0.0
 50
0.0
 51
0.0
 71
0
 72
100
 73
1
 74
1
 75
0
 76
0
 77
0
 78
0
  0
ENDTAB
  0
TABLE
  2
LTYPE
  5
5
100
AcDbSymbolTable
 70
6
  0
LTYPE
  5
14
100
AcDbSymbolTableRecord
100
AcDbLinetypeTableRecord
  2
BYBLOCK
 70
0
  3

 72
65
 73
0
 40
0.0
  0
LTYPE
  5
15
100
AcDbSymbolTableRecord
100
AcDbLinetypeTableRecord
  2
BYLAYER
 70
0
  3

 72
65
 73
0
 40
0.0
  0
LTYPE
  5
16
100
AcDbSymbolTableRecord
100
AcDbLinetypeTableRecord
  2
CONTINUOUS
 70
64
  3
Solid line
 72
65
 73
0
 40
0.0
  0
LTYPE
  5
1F5
100
AcDbSymbolTableRecord
100
AcDbLinetypeTableRecord
  2
CENTER
 70
64
  3
____ _ ____ _ ____ _ ____ _ ____ _ ____ _ ____
 72
65
 73
4
 40
0.6
 49
0.375
 74
0
 49
-0.075
 74
0
 49
0.075
 74
0
 49
-0.075
 74
0
  0
LTYPE
  5
1F6
100
AcDbSymbolTableRecord
100
AcDbLinetypeTableRecord
  2
HIDDEN
 70
64
  3
- - - - - - - - - - - - - - - - - - - -
 72
65
 73
2
 40
0.2
 49
0.1
 74
0
 49
-0.1
 74
0
  0
LTYPE
  5
1F7
100
AcDbSymbolTableRecord
100
AcDbLinetypeTableRecord
  2
PHANTOM
 70
64
  3
_____ _ _ _____ _ _ _____ _ _ _____
 72
65
 73
6
 40
0.8
 49
0.45
 74
0
 49
-0.05
 74
0
 49
0.1
 74
0
 49
-0.05
 74
0
 49
0.1
 74
0
 49
-0.05
 74
0
  0
LTYPE
  5
1F8
100
AcDbSymbolTableRecord
100
AcDbLinetypeTableRecord
  2
DOT
 70
64
  3
. . . . . . . . . . . . . . . . . . . .
 72
65
 73
2
 40
0.2
 49
0.1
 74
0
 49
-0.1
 74
0
  0
LTYPE
  5
1F9
100
AcDbSymbolTableRecord
100
AcDbLinetypeTableRecord
  2
DASHED
 70
64
  3
- - - - - - - - - - - - - - - - - - - -
 72
65
 73
2
 40
0.2
 49
0.1
 74
0
 49
-0.1
 74
0
  0
ENDTAB
  0
TABLE
  2
LAYER
  5
2
100
AcDbSymbolTable
 70
36
  0
LAYER
  5
10
100
AcDbSymbolTableRecord
100
AcDbLayerTableRecord
  2
0
 70
0
 62
7
  6
CONTINUOUS
370
-3
390
F
  0
LAYER
  5
1FA
100
AcDbSymbolTableRecord
100
AcDbLayerTableRecord
  2
DEFAULT_1
 70
0
 62
7
  6
CENTER
370
-3
390
F
  0
LAYER
  5
1FB
100
AcDbSymbolTableRecord
100
AcDbLayerTableRecord
  2
DEFAULT_2
 70
0
 62
7
  6
HIDDEN
370
-3
390
F
  0
LAYER
  5
1FC
100
AcDbSymbolTableRecord
100
AcDbLayerTableRecord
  2
DEFAULT_3
 70
0
 62
7
  6
PHANTOM
370
-3
390
F
  0
LAYER
  5
1FD
100
AcDbSymbolTableRecord
100
AcDbLayerTableRecord
  2
00_COMPONENTS
 70
0
 62
7
  6
CONTINUOUS
370
-3
390
F
  0
LAYER
  5
1FE
100
AcDbSymbolTableRecord
100
AcDbLayerTableRecord
  2
01_1_DEFAULT_DATUMS
 70
0
 62
7
  6
CONTINUOUS
370
-3
390
F
  0
LAYER
  5
1FF
100
AcDbSymbolTableRecord
100
AcDbLayerTableRecord
  2
01_PLANES
 70
0
 62
7
  6
CONTINUOUS
370
-3
390
F
  0
LAYER
  5
200
100
AcDbSymbolTableRecord
100
AcDbLayerTableRecord
  2
02_COORD_SYS
 70
0
 62
7
  6
CONTINUOUS
370
-3
390
F
  0
LAYER
  5
201
100
AcDbSymbolTableRecord
100
AcDbLayerTableRecord
  2
03_AXES
 70
0
 62
7
  6
CONTINUOUS
370
-3
390
F
  0
LAYER
  5
202
100
AcDbSymbolTableRecord
100
AcDbLayerTableRecord
  2
04_POINTS
 70
0
 62
7
  6
CONTINUOUS
370
-3
390
F
  0
LAYER
  5
203
100
AcDbSymbolTableRecord
100
AcDbLayerTableRecord
  2
05_CURVES
 70
0
 62
7
  6
CONTINUOUS
370
-3
390
F
  0
LAYER
  5
204
100
AcDbSymbolTableRecord
100
AcDbLayerTableRecord
  2
06_SURFS
 70
0
 62
7
  6
CONTINUOUS
370
-3
390
F
  0
LAYER
  5
205
100
AcDbSymbolTableRecord
100
AcDbLayerTableRecord
  2
07_COSMETICS
 70
0
 62
7
  6
CONTINUOUS
370
-3
390
F
  0
LAYER
  5
206
100
AcDbSymbolTableRecord
100
AcDbLayerTableRecord
  2
10_NOTES
 70
0
 62
7
  6
CONTINUOUS
370
-3
390
F
  0
LAYER
  5
207
100
AcDbSymbolTableRecord
100
AcDbLayerTableRecord
  2
11_NOTES_PUB
 70
0
 62
7
  6
CONTINUOUS
370
-3
390
F
  0
LAYER
  5
208
100
AcDbSymbolTableRecord
100
AcDbLayerTableRecord
  2
13_REF_GTOL
 70
0
 62
7
  6
CONTINUOUS
370
-3
390
F
  0
LAYER
  5
209
100
AcDbSymbolTableRecord
100
AcDbLayerTableRecord
  2
16_MISC
 70
0
 62
7
  6
CONTINUOUS
370
-3
390
F
  0
LAYER
  5
20A
100
AcDbSymbolTableRecord
100
AcDbLayerTableRecord
  2
17_NO_PRINT
 70
0
 62
7
  6
CONTINUOUS
370
-3
390
F
  0
LAYER
  5
20B
100
AcDbSymbolTableRecord
100
AcDbLayerTableRecord
  2
18_DATUM_CAMS_JOINTS
 70
0
 62
7
  6
CONTINUOUS
370
-3
390
F
  0
LAYER
  5
20C
100
AcDbSymbolTableRecord
100
AcDbLayerTableRecord
  2
19_DATUM_FUNCTIONAL
 70
0
 62
7
  6
CONTINUOUS
370
-3
390
F
  0
LAYER
  5
20D
100
AcDbSymbolTableRecord
100
AcDbLayerTableRecord
  2
20_DATUM_KINEMATIC_SCHEME
 70
0
 62
7
  6
CONTINUOUS
370
-3
390
F
  0
ENDTAB
  0
TABLE
  2
STYLE
  5
3
100
AcDbSymbolTable
 70
1
  0
STYLE
  5
11
100
AcDbSymbolTableRecord
100
AcDbTextStyleTableRecord
  2
STANDARD
 70
0
 40
0.0
 41
1.0
 50
0.0
 71
0
 42
0.2
  3
ARIAL.TTF
  4

  0
STYLE
  5
20E
100
AcDbSymbolTableRecord
100
AcDbTextStyleTableRecord
  2
TEXTSTYLE_1
 70
0
 40
0.0
 41
0.8
 50
0.0
 71
0
 42
0.2
  3
gdt
  4

  0
ENDTAB
  0
TABLE
  2
VIEW
  5
6
100
AcDbSymbolTable
 70
0
  0
ENDTAB
  0
TABLE
  2
UCS
  5
7
100
AcDbSymbolTable
 70
0
  0
ENDTAB
  0
TABLE
  2
APPID
  5
9
100
AcDbSymbolTable
 70
1
  0
APPID
  5
20F
100
AcDbSymbolTableRecord
100
AcDbRegAppTableRecord
  2
ACAD
 70
0
  0
ENDTAB
  0
TABLE
  2
BLOCK_RECORD
  5
1
100
AcDbSymbolTable
 70
0
  0
BLOCK_RECORD
  5
210
100
AcDbSymbolTableRecord
100
AcDbBlockTableRecord
  2
*Model_Space
  0
BLOCK_RECORD
  5
211
100
AcDbSymbolTableRecord
100
AcDbBlockTableRecord
  2
*Paper_Space
  0
BLOCK_RECORD
  5
212
100
AcDbSymbolTableRecord
100
AcDbBlockTableRecord
  2
_FILLED
  0
ENDTAB
  0
TABLE
  2
DIMSTYLE
  5
A
100
AcDbSymbolTable
 70
1
100
AcDbDimStyleTable
 71
0
  0
DIMSTYLE
105
213
100
AcDbSymbolTableRecord
100
AcDbDimStyleTableRecord
  2
STANDARD
 70
0
  3

  4

 40
1.0
 41
0.581557491
 42
1.0
 43
0.38
 44
1.0
 45
0.0
 46
0.0
 47
0.01
 48
0.01
140
0.8141804873
141
0.09
142
0.0
143
25.4
144
1.0
145
0.0
146
1.0
147
0.625
 71
1
 72
0
 73
0
 74
0
 75
0
 76
0
 77
1
 78
8
 79
2
170
0
171
1
172
0
173
0
174
0
175
0
176
0
177
0
178
0
270
2
179
2
271
2
272
2
273
2
274
2
275
0
280
0
281
0
282
0
283
1
284
8
285
0
286
0
287
3
288
0
340
11
278
46
341
212
342
212
343
212
344
212
  0
ENDTAB
  0
ENDSEC
  0
SECTION
  2
BLOCKS
  0
BLOCK
  5
20
100
AcDbEntity
  8
0
100
AcDbBlockBegin
  2
*Model_Space
 70
0
 10
0.0
 20
0.0
 30
0.0
  3
*Model_Space
  1

  0
ENDBLK
  5
21
100
AcDbEntity
  8
0
100
AcDbBlockEnd
  0
BLOCK
  5
1C
100
AcDbEntity
  8
0
100
AcDbBlockBegin
  2
*Paper_Space
 70
0
 10
0.0
 20
0.0
 30
0.0
  3
*Paper_Space
  1

  0
ENDBLK
  5
1D
100
AcDbEntity
  8
0
100
AcDbBlockEnd
  0
BLOCK
  5
214
100
AcDbEntity
  8
0
100
AcDbBlockBegin
  2
_FILLED
 70
64
 10
0.0
 20
0.0
  3
_FILLED
  1

  0
SOLID
  5
215
100
AcDbEntity
  8
0
  6
BYBLOCK
 62
0
100
AcDbTrace
 10
0.0
 20
0.0
 11
-1.0
 21
0.25
 12
-1.0
 22
-0.25
 13
-1.0
 23
-0.25
  0
ENDBLK
  5
216
100
AcDbEntity
  8
0
  6
BYBLOCK
 62
0
100
AcDbBlockEnd
  0
ENDSEC
  0
SECTION
  2
ENTITIES
  0
LINE
  5
217
100
AcDbEntity
  8
0
100
AcDbLine
 62
7
  6
BYLAYER
 10
5.3561658463
 20
34.2196665031
 11
5.3561658463
 21
34.6187250337
  0
LINE
  5
218
100
AcDbEntity
  8
0
100
AcDbLine
 62
7
  6
BYLAYER
 10
6.1711777625
 20
31.9589185006
 11
6.1711777625
 21
36.876418536
  0
LINE
  5
219
100
AcDbEntity
  8
0
100
AcDbLine
 62
7
  6
BYLAYER
 10
6.7024277448
 20
31.4276685183
 11
6.7024277448
 21
37.4076685183
  0
LINE
  5
21A
100
AcDbEntity
  8
0
100
AcDbLine
 62
7
  6
BYLAYER
 10
6.7123777625
 20
31.4176934361
 11
6.7123777625
 21
37.4176434714
  0
LINE
  5
21B
100
AcDbEntity
  8
0
100
AcDbLine
 62
7
  6
BYLAYER
 10
9.1711777625
 20
30.4176685183
 11
9.1711777625
 21
38.4176685183
  0
LINE
  5
21C
100
AcDbEntity
  8
0
100
AcDbLine
 62
7
  6
BYLAYER
 10
9.5284433524
 20
39.0364706718
 11
9.1711777625
 21
38.4176685183
  0
LINE
  5
21D
100
AcDbEntity
  8
0
100
AcDbLine
 62
7
  6
BYLAYER
 10
6.1711777625
 20
36.876418536
 11
6.7024277448
 21
37.4076685183
  0
LINE
  5
21E
100
AcDbEntity
  8
0
100
AcDbLine
 62
7
  6
BYLAYER
 10
6.7024277448
 20
31.4276685183
 11
6.1711777625
 21
31.9589185006
  0
LINE
  5
21F
100
AcDbEntity
  8
0
100
AcDbLine
 62
7
  6
BYLAYER
 10
9.1711777625
 20
30.4176685183
 11
9.5284433524
 21
29.7988663648
  0
LINE
  5
220
100
AcDbEntity
  8
0
100
AcDbLine
 62
7
  6
BYLAYER
 10
11.1711777625
 20
38.4176685183
 11
11.1711777625
 21
30.4176685183
  0
LINE
  5
221
100
AcDbEntity
  8
0
100
AcDbLine
 62
7
  6
BYLAYER
 10
10.8139121726
 20
29.7988663648
 11
11.1711777625
 21
30.4176685183
  0
LINE
  5
222
100
AcDbEntity
  8
0
100
AcDbLine
 62
7
  6
BYLAYER
 10
11.1711777625
 20
38.4176685183
 11
10.8139121726
 21
39.0364706718
  0
LINE
  5
223
100
AcDbEntity
  8
0
100
AcDbLine
 62
7
  6
BYLAYER
 10
16.1711777625
 20
37.417668536
 11
16.1711777625
 21
31.4176685006
  0
LINE
  5
224
100
AcDbEntity
  8
0
100
AcDbLine
 62
7
  6
BYLAYER
 10
16.7124277625
 20
31.4176685006
 11
16.7124277625
 21
37.417668536
  0
LINE
  5
225
100
AcDbEntity
  8
0
100
AcDbLine
 62
7
  6
BYLAYER
 10
16.1711777625
 20
36.876418536
 11
16.7124277625
 21
37.417668536
  0
LINE
  5
226
100
AcDbEntity
  8
0
100
AcDbLine
 62
7
  6
BYLAYER
 10
16.7124277625
 20
31.4176685006
 11
16.1711777625
 21
31.9589185006
  0
LINE
  5
227
100
AcDbEntity
  8
0
100
AcDbLine
 62
7
  6
BYLAYER
 10
9.5284433524
 20
29.7988663648
 11
10.8139121726
 21
29.7988663648
  0
LINE
  5
228
100
AcDbEntity
  8
0
100
AcDbLine
 62
7
  6
BYLAYER
 10
30.4211777641
 20
31.4176685112
 11
26.4211777306
 21
31.4176685112
  0
LINE
  5
229
100
AcDbEntity
  8
0
100
AcDbLine
 62
7
  6
BYLAYER
 10
23.9211777904
 20
31.4176685006
 11
16.7124277625
 21
31.4176685006
  0
LINE
  5
22A
100
AcDbEntity
  8
0
100
AcDbLine
 62
7
  6
BYLAYER
 10
16.1711777625
 20
31.4176685006
 11
11.1711777625
 21
31.4176685006
  0
LINE
  5
22B
100
AcDbEntity
  8
0
100
AcDbLine
 62
7
  6
BYLAYER
 10
9.1711777625
 20
31.4176685006
 11
6.7123777625
 21
31.4176685006
  0
LINE
  5
22C
100
AcDbEntity
  8
0
100
AcDbLine
 62
7
  6
BYLAYER
 10
6.7123777625
 20
31.4276685183
 11
6.7024277448
 21
31.4276685183
  0
LINE
  5
22D
100
AcDbEntity
  8
0
100
AcDbLine
 62
7
  6
BYLAYER
 10
9.5284433524
 20
32.1082674415
 11
10.8139121726
 21
32.1082674415
  0
LINE
  5
22E
100
AcDbEntity
  8
0
100
AcDbLine
 62
7
  6
BYLAYER
 10
25.6711777284
 20
32.1676685021
 11
23.9211777843
 21
32.1676685021
  0
LINE
  5
22F
100
AcDbEntity
  8
0
100
AcDbLine
 62
7
  6
BYLAYER
 10
23.9211777904
 20
37.417668536
 11
23.9211777414
 21
31.4176685006
  0
LINE
  5
230
100
AcDbEntity
  8
0
100
AcDbLine
 62
7
  6
BYLAYER
 10
25.6711777284
 20
36.6676685322
 11
26.4211777306
 21
37.4176685304
  0
LINE
  5
231
100
AcDbEntity
  8
0
100
AcDbLine
 62
7
  6
BYLAYER
 10
31.1711777625
 20
33.3176685183
 11
44.1711777625
 21
33.3176685183
  0
LINE
  5
232
100
AcDbEntity
  8
0
100
AcDbLine
 62
7
  6
BYLAYER
 10
26.4211777306
 20
31.4176685062
 11
25.6711777284
 21
32.1676685043
  0
LINE
  5
233
100
AcDbEntity
  8
0
100
AcDbLine
 62
7
  6
BYLAYER
 10
25.6711777284
 20
36.6676685344
 11
25.6711777284
 21
32.1676685021
  0
LINE
  5
234
100
AcDbEntity
  8
0
100
AcDbLine
 62
7
  6
BYLAYER
 10
31.1711777625
 20
35.5176685183
 11
43.4161943189
 21
35.5176685183
  0
LINE
  5
235
100
AcDbEntity
  8
0
100
AcDbLine
 62
7
  6
BYLAYER
 10
26.4211777306
 20
31.4176685112
 11
26.4211777306
 21
37.4176685253
  0
LINE
  5
236
100
AcDbEntity
  8
0
100
AcDbLine
 62
7
  6
BYLAYER
 10
23.9211777843
 20
36.6676685344
 11
25.6711777284
 21
36.6676685344
  0
LINE
  5
237
100
AcDbEntity
  8
0
100
AcDbLine
 62
7
  6
BYLAYER
 10
9.5284433524
 20
36.727069595
 11
10.8139121726
 21
36.727069595
  0
LINE
  5
238
100
AcDbEntity
  8
0
100
AcDbLine
 62
7
  6
BYLAYER
 10
6.7123777625
 20
37.4076685183
 11
6.7024277448
 21
37.4076685183
  0
LINE
  5
239
100
AcDbEntity
  8
0
100
AcDbLine
 62
7
  6
BYLAYER
 10
6.7123777625
 20
37.417668536
 11
9.1711777625
 21
37.417668536
  0
LINE
  5
23A
100
AcDbEntity
  8
0
100
AcDbLine
 62
7
  6
BYLAYER
 10
11.1711777625
 20
37.417668536
 11
16.1711777625
 21
37.417668536
  0
LINE
  5
23B
100
AcDbEntity
  8
0
100
AcDbLine
 62
7
  6
BYLAYER
 10
16.7124277625
 20
37.417668536
 11
23.9211777904
 21
37.417668536
  0
LINE
  5
23C
100
AcDbEntity
  8
0
100
AcDbLine
 62
7
  6
BYLAYER
 10
26.4211777306
 20
37.4176685253
 11
30.4211777641
 21
37.4176685253
  0
LINE
  5
23D
100
AcDbEntity
  8
0
100
AcDbLine
 62
7
  6
BYLAYER
 10
9.5284433524
 20
39.0364706718
 11
10.8139121726
 21
39.0364706718
  0
LINE
  5
23E
100
AcDbEntity
  8
0
100
AcDbLine
 62
7
  6
BYLAYER
 10
30.4211777641
 20
37.4176685253
 11
30.4211777641
 21
31.4176685112
  0
LINE
  5
23F
100
AcDbEntity
  8
0
100
AcDbLine
 62
7
  6
BYLAYER
 10
31.1711777625
 20
36.6676685183
 11
31.1711777625
 21
32.1676685183
  0
LINE
  5
240
100
AcDbEntity
  8
0
100
AcDbLine
 62
7
  6
BYLAYER
 10
31.1711777625
 20
32.1676685183
 11
30.4211777641
 21
31.4176685163
  0
LINE
  5
241
100
AcDbEntity
  8
0
100
AcDbLine
 62
7
  6
BYLAYER
 10
30.4211777641
 20
37.4176685202
 11
31.1711777625
 21
36.6676685183
  0
LINE
  5
242
100
AcDbEntity
  8
0
100
AcDbLine
 62
7
  6
BYLAYER
 10
44.1711777625
 20
33.6176685183
 11
44.1711777625
 21
33.3176732422
  0
ARC
  5
243
100
AcDbEntity
  8
0
100
AcDbCircle
 62
7
  6
BYLAYER
 10
8.8907303474
 20
34.6187250337
 40
3.5345645011
100
AcDbArc
 50
140.3015285054
 51
180.0
  0
ARC
  5
244
100
AcDbEntity
  8
0
100
AcDbCircle
 62
7
  6
BYLAYER
 10
8.8907303474
 20
34.2166120029
 40
3.5345645011
100
AcDbArc
 50
180.0
 51
219.6984714946
  0
ARC
  5
245
100
AcDbEntity
  8
0
100
AcDbCircle
 62
7
  6
BYLAYER
 10
44.1711777625
 20
34.7176685183
 40
1.1
100
AcDbArc
 50
133.3395788919
 51
270.0
  0
SPLINE
  5
246
100
AcDbEntity
  8
0
100
AcDbSpline
 62
7
  6
BYLAYER
 70
0
 71
3
 72
14
 73
10
 74
0
 42
0.0000001
 43
0.0000001
 44
0.0000000001
 40
0.0
 40
0.0
 40
0.0
 40
0.0
 40
0.1199286093
 40
0.2404930608
 40
0.3622461737
 40
0.485641672
 40
0.610991295
 40
0.7384771918
 40
1.0
 40
1.0
 40
1.0
 40
1.0
 10
11.1711777625
 20
30.9535669031
 30
0.0
 10
11.1711777625
 20
30.9046878773
 30
0.0
 10
11.1670235988
 20
30.806621059
 30
0.0
 10
11.1484596456
 20
30.6599940921
 30
0.0
 10
11.1179619646
 20
30.5139409878
 30
0.0
 10
11.0762300653
 20
30.3686909689
 30
0.0
 10
11.0241221731
 20
30.2243652426
 30
0.0
 10
10.9413052882
 20
30.0316806082
 30
0.0
 10
10.8672062955
 20
29.8911744934
 30
0.0
 10
10.8139121726
 20
29.7988663648
 30
0.0
  0
SPLINE
  5
247
100
AcDbEntity
  8
0
100
AcDbSpline
 62
7
  6
BYLAYER
 70
0
 71
3
 72
14
 73
10
 74
0
 42
0.0000001
 43
0.0000001
 44
0.0000000001
 40
0.0
 40
0.0
 40
0.0
 40
0.0
 40
0.2615228632
 40
0.3890087986
 40
0.5143584456
 40
0.6377539801
 40
0.7595070544
 40
0.8800714271
 40
1.0
 40
1.0
 40
1.0
 40
1.0
 10
9.5284433524
 20
36.727069595
 30
0.0
 10
9.4751492185
 20
36.8193777427
 30
0.0
 10
9.4010503146
 20
36.9598839463
 30
0.0
 10
9.3182334167
 20
37.1525686259
 30
0.0
 10
9.2661254919
 20
37.2968943758
 30
0.0
 10
9.2243933266
 20
37.442144334
 30
0.0
 10
9.1938959186
 20
37.5881974621
 30
0.0
 10
9.1753318391
 20
37.7348243448
 30
0.0
 10
9.1711777625
 20
37.8328911227
 30
0.0
 10
9.1711777625
 20
37.8817701334
 30
0.0
  0
SPLINE
  5
248
100
AcDbEntity
  8
0
100
AcDbSpline
 62
7
  6
BYLAYER
 70
0
 71
3
 72
13
 73
9
 74
0
 42
0.0000001
 43
0.0000001
 44
0.0000000001
 40
0.0
 40
0.0
 40
0.0
 40
0.0
 40
0.1250057515
 40
0.2500202242
 40
0.3750288535
 40
0.5000355765
 40
0.7500130495
 40
1.0
 40
1.0
 40
1.0
 40
1.0
 10
11.1711777625
 20
34.4176685183
 30
0.0
 10
11.1711777625
 20
34.3199754963
 30
0.0
 10
11.1670492349
 20
34.1245575666
 30
0.0
 10
11.1485760978
 20
33.8319726322
 30
0.0
 10
11.1182023162
 20
33.540381129
 30
0.0
 10
11.0627360318
 20
33.1535071986
 30
0.0
 10
10.9674228808
 20
32.674076875
 30
0.0
 10
10.8680971892
 20
32.2959698453
 30
0.0
 10
10.8139121726
 20
32.1082674415
 30
0.0
  0
SPLINE
  5
249
100
AcDbEntity
  8
0
100
AcDbSpline
 62
7
  6
BYLAYER
 70
0
 71
3
 72
14
 73
10
 74
0
 42
0.0000001
 43
0.0000001
 44
0.0000000001
 40
0.0
 40
0.0
 40
0.0
 40
0.0
 40
0.2615228632
 40
0.3890087986
 40
0.5143584456
 40
0.6377539801
 40
0.7595070544
 40
0.8800714271
 40
1.0
 40
1.0
 40
1.0
 40
1.0
 10
10.8139121726
 20
32.1082674415
 30
0.0
 10
10.8672063064
 20
32.0159592939
 30
0.0
 10
10.9413052103
 20
31.8754530902
 30
0.0
 10
11.0241221082
 20
31.6827684106
 30
0.0
 10
11.076230033
 20
31.5384426607
 30
0.0
 10
11.1179621984
 20
31.3931927025
 30
0.0
 10
11.1484596063
 20
31.2471395744
 30
0.0
 10
11.1670236858
 20
31.1005126918
 30
0.0
 10
11.1711777625
 20
31.0024459139
 30
0.0
 10
11.1711777625
 20
30.9535669031
 30
0.0
  0
SPLINE
  5
24A
100
AcDbEntity
  8
0
100
AcDbSpline
 62
7
  6
BYLAYER
 70
0
 71
3
 72
14
 73
10
 74
0
 42
0.0000001
 43
0.0000001
 44
0.0000000001
 40
0.0
 40
0.0
 40
0.0
 40
0.0
 40
0.1199286093
 40
0.2404930608
 40
0.3622461737
 40
0.485641672
 40
0.610991295
 40
0.7384771918
 40
1.0
 40
1.0
 40
1.0
 40
1.0
 10
11.1711777625
 20
37.8817701334
 30
0.0
 10
11.1711777625
 20
37.8328911076
 30
0.0
 10
11.1670235988
 20
37.7348242893
 30
0.0
 10
11.1484596456
 20
37.5881973224
 30
0.0
 10
11.1179619646
 20
37.4421442181
 30
0.0
 10
11.0762300653
 20
37.2968941992
 30
0.0
 10
11.0241221731
 20
37.1525684728
 30
0.0
 10
10.9413052882
 20
36.9598838385
 30
0.0
 10
10.8672062955
 20
36.8193777237
 30
0.0
 10
10.8139121726
 20
36.727069595
 30
0.0
  0
SPLINE
  5
24B
100
AcDbEntity
  8
0
100
AcDbSpline
 62
7
  6
BYLAYER
 70
0
 71
3
 72
13
 73
9
 74
0
 42
0.0000001
 43
0.0000001
 44
0.0000000001
 40
0.0
 40
0.0
 40
0.0
 40
0.0
 40
0.2499870333
 40
0.499964558
 40
0.6249712931
 40
0.7499798971
 40
0.8749942858
 40
1.0
 40
1.0
 40
1.0
 40
1.0
 10
10.8139121726
 20
36.727069595
 30
0.0
 10
10.8680972071
 20
36.5393671293
 30
0.0
 10
10.9674227831
 20
36.1612599565
 30
0.0
 10
11.0627359156
 20
35.6818295286
 30
0.0
 10
11.1182025547
 20
35.2949556143
 30
0.0
 10
11.1485760552
 20
35.0033641579
 30
0.0
 10
11.1670493229
 20
34.7107793492
 30
0.0
 10
11.1711777625
 20
34.515361511
 30
0.0
 10
11.1711777625
 20
34.4176685183
 30
0.0
  0
SPLINE
  5
24C
100
AcDbEntity
  8
0
100
AcDbSpline
 62
7
  6
BYLAYER
 70
0
 71
3
 72
14
 73
10
 74
0
 42
0.0000001
 43
0.0000001
 44
0.0000000001
 40
0.0
 40
0.0
 40
0.0
 40
0.0
 40
0.2615228632
 40
0.3890087986
 40
0.5143584456
 40
0.6377539801
 40
0.7595070544
 40
0.8800714271
 40
1.0
 40
1.0
 40
1.0
 40
1.0
 10
9.5284433524
 20
29.7988663648
 30
0.0
 10
9.4751492185
 20
29.8911745124
 30
0.0
 10
9.4010503146
 20
30.0316807161
 30
0.0
 10
9.3182334167
 20
30.2243653957
 30
0.0
 10
9.2661254919
 20
30.3686911455
 30
0.0
 10
9.2243933266
 20
30.5139411037
 30
0.0
 10
9.1938959186
 20
30.6599942318
 30
0.0
 10
9.1753318391
 20
30.8066211145
 30
0.0
 10
9.1711777625
 20
30.9046878924
 30
0.0
 10
9.1711777625
 20
30.9535669031
 30
0.0
  0
SPLINE
  5
24D
100
AcDbEntity
  8
0
100
AcDbSpline
 62
7
  6
BYLAYER
 70
0
 71
3
 72
14
 73
10
 74
0
 42
0.0000001
 43
0.0000001
 44
0.0000000001
 40
0.0
 40
0.0
 40
0.0
 40
0.0
 40
0.2615228632
 40
0.3890087986
 40
0.5143584456
 40
0.6377539801
 40
0.7595070544
 40
0.8800714271
 40
1.0
 40
1.0
 40
1.0
 40
1.0
 10
10.8139121726
 20
39.0364706718
 30
0.0
 10
10.8672063064
 20
38.9441625242
 30
0.0
 10
10.9413052103
 20
38.8036563205
 30
0.0
 10
11.0241221082
 20
38.6109716409
 30
0.0
 10
11.076230033
 20
38.466645891
 30
0.0
 10
11.1179621984
 20
38.3213959328
 30
0.0
 10
11.1484596063
 20
38.1753428047
 30
0.0
 10
11.1670236858
 20
38.0287159221
 30
0.0
 10
11.1711777625
 20
37.9306491442
 30
0.0
 10
11.1711777625
 20
37.8817701334
 30
0.0
  0
SPLINE
  5
24E
100
AcDbEntity
  8
0
100
AcDbSpline
 62
7
  6
BYLAYER
 70
0
 71
3
 72
13
 73
9
 74
0
 42
0.0000001
 43
0.0000001
 44
0.0000000001
 40
0.0
 40
0.0
 40
0.0
 40
0.0
 40
0.1250057515
 40
0.2500202242
 40
0.3750288535
 40
0.5000355765
 40
0.7500130495
 40
1.0
 40
1.0
 40
1.0
 40
1.0
 10
9.1711777625
 20
34.4176685183
 30
0.0
 10
9.1711777625
 20
34.5153615403
 30
0.0
 10
9.1753062901
 20
34.71077947
 30
0.0
 10
9.1937794272
 20
35.0033644044
 30
0.0
 10
9.2241532087
 20
35.2949559076
 30
0.0
 10
9.2796194931
 20
35.681829838
 30
0.0
 10
9.3749326442
 20
36.1612601615
 30
0.0
 10
9.4742583357
 20
36.5393671912
 30
0.0
 10
9.5284433524
 20
36.727069595
 30
0.0
  0
SPLINE
  5
24F
100
AcDbEntity
  8
0
100
AcDbSpline
 62
7
  6
BYLAYER
 70
0
 71
3
 72
13
 73
9
 74
0
 42
0.0000001
 43
0.0000001
 44
0.0000000001
 40
0.0
 40
0.0
 40
0.0
 40
0.0
 40
0.2499870333
 40
0.499964558
 40
0.6249712931
 40
0.7499798971
 40
0.8749942858
 40
1.0
 40
1.0
 40
1.0
 40
1.0
 10
9.5284433524
 20
32.1082674415
 30
0.0
 10
9.4742583178
 20
32.2959699073
 30
0.0
 10
9.3749327418
 20
32.67407708
 30
0.0
 10
9.2796196093
 20
33.153507508
 30
0.0
 10
9.2241529702
 20
33.5403814222
 30
0.0
 10
9.1937794697
 20
33.8319728787
 30
0.0
 10
9.175306202
 20
34.1245576873
 30
0.0
 10
9.1711777625
 20
34.3199755255
 30
0.0
 10
9.1711777625
 20
34.4176685183
 30
0.0
  0
SPLINE
  5
250
100
AcDbEntity
  8
0
100
AcDbSpline
 62
7
  6
BYLAYER
 70
0
 71
3
 72
14
 73
10
 74
0
 42
0.0000001
 43
0.0000001
 44
0.0000000001
 40
0.0
 40
0.0
 40
0.0
 40
0.0
 40
0.1199286093
 40
0.2404930608
 40
0.3622461737
 40
0.485641672
 40
0.610991295
 40
0.7384771918
 40
1.0
 40
1.0
 40
1.0
 40
1.0
 10
9.1711777625
 20
37.8817701334
 30
0.0
 10
9.1711777625
 20
37.9306491592
 30
0.0
 10
9.1753319262
 20
38.0287159775
 30
0.0
 10
9.1938958793
 20
38.1753429445
 30
0.0
 10
9.2243935603
 20
38.3213960487
 30
0.0
 10
9.2661254596
 20
38.4666460677
 30
0.0
 10
9.3182333518
 20
38.610971794
 30
0.0
 10
9.4010502367
 20
38.8036564283
 30
0.0
 10
9.4751492294
 20
38.9441625431
 30
0.0
 10
9.5284433524
 20
39.0364706718
 30
0.0
  0
SPLINE
  5
251
100
AcDbEntity
  8
0
100
AcDbSpline
 62
7
  6
BYLAYER
 70
0
 71
3
 72
14
 73
10
 74
0
 42
0.0000001
 43
0.0000001
 44
0.0000000001
 40
0.0
 40
0.0
 40
0.0
 40
0.0
 40
0.1199286093
 40
0.2404930608
 40
0.3622461737
 40
0.485641672
 40
0.610991295
 40
0.7384771918
 40
1.0
 40
1.0
 40
1.0
 40
1.0
 10
9.1711777625
 20
30.9535669031
 30
0.0
 10
9.1711777625
 20
31.002445929
 30
0.0
 10
9.1753319262
 20
31.1005127472
 30
0.0
 10
9.1938958793
 20
31.2471397142
 30
0.0
 10
9.2243935603
 20
31.3931928185
 30
0.0
 10
9.2661254596
 20
31.5384428374
 30
0.0
 10
9.3182333518
 20
31.6827685637
 30
0.0
 10
9.4010502367
 20
31.875453198
 30
0.0
 10
9.4751492294
 20
32.0159593129
 30
0.0
 10
9.5284433524
 20
32.1082674415
 30
0.0
  0
ENDSEC
  0
SECTION
  2
OBJECTS
  0
DICTIONARY
  5
C
100
AcDbDictionary
280
0
281
1
  3
ACAD_GROUP
350
D
  3
ACAD_MLINESTYLE
350
17
  3
ACAD_LAYOUT
350
1A
  3
ACAD_PLOTSETTINGS
350
19
  3
ACAD_PLOTSTYLENAME
350
E
  0
DICTIONARY
  5
D
102
{ACAD_REACTORS
330
C
102
}
100
AcDbDictionary
280
0
281
1
  0
ACDBDICTIONARYWDFLT
  5
E
102
{ACAD_REACTORS
330
C
102
}
100
AcDbDictionary
281
1
  3
Normal
350
F
100
AcDbDictionaryWithDefault
340
F
  0
DICTIONARY
  5
17
102
{ACAD_REACTORS
330
C
102
}
100
AcDbDictionary
280
0
281
1
  3
Standard
350
18
  0
DICTIONARY
  5
19
102
{ACAD_REACTORS
330
C
102
}
100
AcDbDictionary
281
1
  0
DICTIONARY
  5
1A
102
{ACAD_REACTORS
330
C
102
}
100
AcDbDictionary
281
1
  3
Model
350
252
  3
Layout1
350
253
  0
ACDBPLACEHOLDER
  5
F
102
{ACAD_REACTORS
330
E
102
}
  0
MLINESTYLE
  5
18
102
{ACAD_REACTORS
330
17
102
}
100
AcDbMlineStyle
  2
STANDARD
 70
0
  3

 62
256
 51
90.0
 52
90.0
 71
2
 49
0.5
 62
256
  6
BYLAYER
 49
-0.5
 62
256
  6
BYLAYER
  0
LAYOUT
  5
252
102
{ACAD_REACTORS
330
1A
102
}
100
AcDbPlotSettings
  1

  2
none_device
  4

  6

 40
0.0
 41
0.0
 42
0.0
 43
0.0
 44
210.0
 45
297.0
 46
0.0
 47
0.0
 48
0.0
 49
0.0
140
0.0
141
0.0
142
1.0
143
1.0
 70
1024
 72
1
 73
0
 74
0
  7

 75
0
147
1.0
148
0.0
149
0.0
100
AcDbLayout
  1
Model
 70
0
 71
0
 10
0.0
 20
0.0
 11
210.0
 21
297.0
 12
0.0
 22
0.0
 32
0.0
 14
0.0
 24
0.0
 34
0.0
 15
0.0
 25
0.0
 35
0.0
146
0.0
 13
0.0
 23
0.0
 33
0.0
 16
1.0
 26
0.0
 36
0.0
 17
0.0
 27
1.0
 37
0.0
 76
0
330
210
345
0
346
0
  0
LAYOUT
  5
253
102
{ACAD_REACTORS
330
1A
102
}
100
AcDbPlotSettings
  1

  2
none_device
  4

  6

 40
0.0
 41
0.0
 42
0.0
 43
0.0
 44
210.0
 45
297.0
 46
0.0
 47
0.0
 48
0.0
 49
0.0
140
0.0
141
0.0
142
1.0
143
1.0
 70
0
 72
1
 73
0
 74
0
  7

 75
0
147
1.0
148
0.0
149
0.0
100
AcDbLayout
  1
Layout1
 70
0
 71
1
 10
0.0
 20
0.0
 11
210.0
 21
297.0
 12
0.0
 22
0.0
 32
0.0
 14
0.0
 24
0.0
 34
0.0
 15
0.0
 25
0.0
 35
0.0
146
0.0
 13
0.0
 23
0.0
 33
0.0
 16
1.0
 26
0.0
 36
0.0
 17
0.0
 27
1.0
 37
0.0
 76
0
330
211
345
0
346
0
  0
ENDSEC
  0
EOF
