999
DXF file: C:\Users\sesa63760\Dev\_Creo\CAD\MCADPD0004173_3D-CAD\drw0001_4.dxf
999
Pro/ENGINEER 2019471 by Parametric Technology Corporation
  0
SECTION
  2
HEADER
  9
$ACADVER
  1
AC1024
  9
$DWGCODEPAGE
  3
ANSI_1252
  9
$EXTMAX
 10
48.3057297109
 20
68.3181034483
 30
0.0
  9
$EXTMIN
 10
0.0
 20
0.0
 30
0.0
  9
$LIMMIN
 10
0.0
 20
0.0
  9
$LIMMAX
 10
48.3057297109
 20
68.3181034483
  9
$VIEWCTR
 10
24.1528648555
 20
34.1590517241
  9
$VIEWSIZE
 40
68.3181034483
  9
$CLAYER
  8
0
  9
$LTSCALE
 40
4.4533282248
  9
$CELTYPE
  6
BYLAYER
  9
$DIMSCALE
 40
1.0
  9
$DIMASZ
 40
0.5750682108
  9
$DIMEXO
 40
1.0
  9
$DIMDLI
 40
3.0768449553
  9
$DIMEXE
 40
1.0
  9
$DIMCEN
 40
0.7287264368
  9
$DIMLFAC
 40
1.0
  9
$DIMBLK
  1
_FILLED
  9
$DIMALT
 70
0
  9
$DIMALTF
 40
0.0393700787
  9
$DIMTXT
 40
0.8050954952
  9
$DIMTOL
 70
1
  9
$DIMLIM
 70
0
  9
$DIMTFAC
 40
1.0
  9
$DIMTP
 40
0.01
  9
$DIMTM
 40
0.01
  9
$DIMGAP
 40
0.625
  9
$DIMDSEP
 70
46
  9
$AUNITS
 70
0
  9
$PDMODE
 70
3
  9
$PDSIZE
 40
0.3125
  9
$HANDSEED
  5
303
  9
$TILEMODE
 70
1
  9
$MEASUREMENT
 70
1
  9
$INSUNITS
 70
4
  0
ENDSEC
  0
SECTION
  2
CLASSES
  0
CLASS
  1
ACDBDICTIONARYWDFLT
  2
AcDbDictionaryWithDefault
  3
AutoCAD 2000
 90
0
 91
1
280
0
281
0
  0
CLASS
  1
ACDBPLACEHOLDER
  2
AcDbPlaceHolder
  3
AutoCAD 2000
 90
0
 91
1
280
0
281
0
  0
CLASS
  1
LAYOUT
  2
AcDbLayout
  3
AutoCAD 2000
 90
0
 91
0
280
0
281
0
  0
ENDSEC
  0
SECTION
  2
TABLES
  0
TABLE
  2
VPORT
  5
8
100
AcDbSymbolTable
 70
2
  0
VPORT
  5
1F4
100
AcDbSymbolTableRecord
100
AcDbViewportTableRecord
  2
*ACTIVE
 70
0
 10
0.0
 20
0.0
 11
1.0
 21
1.0
 12
24.1528648555
 22
34.1590517241
 13
0.0
 23
0.0
 14
1.0
 24
1.0
 15
0.0
 25
0.0
 16
0.0
 26
0.0
 36
1.0
 17
0.0
 27
0.0
 37
0.0
 40
68.3181034483
 41
0.7070707071
 42
50.0
 43
0.0
 44
0.0
 50
0.0
 51
0.0
 71
0
 72
100
 73
1
 74
1
 75
0
 76
0
 77
0
 78
0
  0
ENDTAB
  0
TABLE
  2
LTYPE
  5
5
100
AcDbSymbolTable
 70
6
  0
LTYPE
  5
14
100
AcDbSymbolTableRecord
100
AcDbLinetypeTableRecord
  2
BYBLOCK
 70
0
  3

 72
65
 73
0
 40
0.0
  0
LTYPE
  5
15
100
AcDbSymbolTableRecord
100
AcDbLinetypeTableRecord
  2
BYLAYER
 70
0
  3

 72
65
 73
0
 40
0.0
  0
LTYPE
  5
16
100
AcDbSymbolTableRecord
100
AcDbLinetypeTableRecord
  2
CONTINUOUS
 70
64
  3
Solid line
 72
65
 73
0
 40
0.0
  0
LTYPE
  5
1F5
100
AcDbSymbolTableRecord
100
AcDbLinetypeTableRecord
  2
CENTER
 70
64
  3
____ _ ____ _ ____ _ ____ _ ____ _ ____ _ ____
 72
65
 73
4
 40
0.6
 49
0.375
 74
0
 49
-0.075
 74
0
 49
0.075
 74
0
 49
-0.075
 74
0
  0
LTYPE
  5
1F6
100
AcDbSymbolTableRecord
100
AcDbLinetypeTableRecord
  2
HIDDEN
 70
64
  3
- - - - - - - - - - - - - - - - - - - -
 72
65
 73
2
 40
0.2
 49
0.1
 74
0
 49
-0.1
 74
0
  0
LTYPE
  5
1F7
100
AcDbSymbolTableRecord
100
AcDbLinetypeTableRecord
  2
PHANTOM
 70
64
  3
_____ _ _ _____ _ _ _____ _ _ _____
 72
65
 73
6
 40
0.8
 49
0.45
 74
0
 49
-0.05
 74
0
 49
0.1
 74
0
 49
-0.05
 74
0
 49
0.1
 74
0
 49
-0.05
 74
0
  0
LTYPE
  5
1F8
100
AcDbSymbolTableRecord
100
AcDbLinetypeTableRecord
  2
DOT
 70
64
  3
. . . . . . . . . . . . . . . . . . . .
 72
65
 73
2
 40
0.2
 49
0.1
 74
0
 49
-0.1
 74
0
  0
LTYPE
  5
1F9
100
AcDbSymbolTableRecord
100
AcDbLinetypeTableRecord
  2
DASHED
 70
64
  3
- - - - - - - - - - - - - - - - - - - -
 72
65
 73
2
 40
0.2
 49
0.1
 74
0
 49
-0.1
 74
0
  0
ENDTAB
  0
TABLE
  2
LAYER
  5
2
100
AcDbSymbolTable
 70
36
  0
LAYER
  5
10
100
AcDbSymbolTableRecord
100
AcDbLayerTableRecord
  2
0
 70
0
 62
7
  6
CONTINUOUS
370
-3
390
F
  0
LAYER
  5
1FA
100
AcDbSymbolTableRecord
100
AcDbLayerTableRecord
  2
DEFAULT_1
 70
0
 62
7
  6
CENTER
370
-3
390
F
  0
LAYER
  5
1FB
100
AcDbSymbolTableRecord
100
AcDbLayerTableRecord
  2
DEFAULT_2
 70
0
 62
7
  6
HIDDEN
370
-3
390
F
  0
LAYER
  5
1FC
100
AcDbSymbolTableRecord
100
AcDbLayerTableRecord
  2
DEFAULT_3
 70
0
 62
7
  6
PHANTOM
370
-3
390
F
  0
LAYER
  5
1FD
100
AcDbSymbolTableRecord
100
AcDbLayerTableRecord
  2
00_COMPONENTS
 70
0
 62
7
  6
CONTINUOUS
370
-3
390
F
  0
LAYER
  5
1FE
100
AcDbSymbolTableRecord
100
AcDbLayerTableRecord
  2
01_1_DEFAULT_DATUMS
 70
0
 62
7
  6
CONTINUOUS
370
-3
390
F
  0
LAYER
  5
1FF
100
AcDbSymbolTableRecord
100
AcDbLayerTableRecord
  2
01_PLANES
 70
0
 62
7
  6
CONTINUOUS
370
-3
390
F
  0
LAYER
  5
200
100
AcDbSymbolTableRecord
100
AcDbLayerTableRecord
  2
02_COORD_SYS
 70
0
 62
7
  6
CONTINUOUS
370
-3
390
F
  0
LAYER
  5
201
100
AcDbSymbolTableRecord
100
AcDbLayerTableRecord
  2
03_AXES
 70
0
 62
7
  6
CONTINUOUS
370
-3
390
F
  0
LAYER
  5
202
100
AcDbSymbolTableRecord
100
AcDbLayerTableRecord
  2
04_POINTS
 70
0
 62
7
  6
CONTINUOUS
370
-3
390
F
  0
LAYER
  5
203
100
AcDbSymbolTableRecord
100
AcDbLayerTableRecord
  2
05_CURVES
 70
0
 62
7
  6
CONTINUOUS
370
-3
390
F
  0
LAYER
  5
204
100
AcDbSymbolTableRecord
100
AcDbLayerTableRecord
  2
06_SURFS
 70
0
 62
7
  6
CONTINUOUS
370
-3
390
F
  0
LAYER
  5
205
100
AcDbSymbolTableRecord
100
AcDbLayerTableRecord
  2
07_COSMETICS
 70
0
 62
7
  6
CONTINUOUS
370
-3
390
F
  0
LAYER
  5
206
100
AcDbSymbolTableRecord
100
AcDbLayerTableRecord
  2
10_NOTES
 70
0
 62
7
  6
CONTINUOUS
370
-3
390
F
  0
LAYER
  5
207
100
AcDbSymbolTableRecord
100
AcDbLayerTableRecord
  2
11_NOTES_PUB
 70
0
 62
7
  6
CONTINUOUS
370
-3
390
F
  0
LAYER
  5
208
100
AcDbSymbolTableRecord
100
AcDbLayerTableRecord
  2
13_REF_GTOL
 70
0
 62
7
  6
CONTINUOUS
370
-3
390
F
  0
LAYER
  5
209
100
AcDbSymbolTableRecord
100
AcDbLayerTableRecord
  2
16_MISC
 70
0
 62
7
  6
CONTINUOUS
370
-3
390
F
  0
LAYER
  5
20A
100
AcDbSymbolTableRecord
100
AcDbLayerTableRecord
  2
17_NO_PRINT
 70
0
 62
7
  6
CONTINUOUS
370
-3
390
F
  0
LAYER
  5
20B
100
AcDbSymbolTableRecord
100
AcDbLayerTableRecord
  2
18_DATUM_CAMS_JOINTS
 70
0
 62
7
  6
CONTINUOUS
370
-3
390
F
  0
LAYER
  5
20C
100
AcDbSymbolTableRecord
100
AcDbLayerTableRecord
  2
19_DATUM_FUNCTIONAL
 70
0
 62
7
  6
CONTINUOUS
370
-3
390
F
  0
LAYER
  5
20D
100
AcDbSymbolTableRecord
100
AcDbLayerTableRecord
  2
20_DATUM_KINEMATIC_SCHEME
 70
0
 62
7
  6
CONTINUOUS
370
-3
390
F
  0
ENDTAB
  0
TABLE
  2
STYLE
  5
3
100
AcDbSymbolTable
 70
1
  0
STYLE
  5
11
100
AcDbSymbolTableRecord
100
AcDbTextStyleTableRecord
  2
STANDARD
 70
0
 40
0.0
 41
1.0
 50
0.0
 71
0
 42
0.2
  3
ARIAL.TTF
  4

  0
STYLE
  5
20E
100
AcDbSymbolTableRecord
100
AcDbTextStyleTableRecord
  2
TEXTSTYLE_1
 70
0
 40
0.0
 41
0.8
 50
0.0
 71
0
 42
0.2
  3
gdt
  4

  0
ENDTAB
  0
TABLE
  2
VIEW
  5
6
100
AcDbSymbolTable
 70
0
  0
ENDTAB
  0
TABLE
  2
UCS
  5
7
100
AcDbSymbolTable
 70
0
  0
ENDTAB
  0
TABLE
  2
APPID
  5
9
100
AcDbSymbolTable
 70
1
  0
APPID
  5
20F
100
AcDbSymbolTableRecord
100
AcDbRegAppTableRecord
  2
ACAD
 70
0
  0
ENDTAB
  0
TABLE
  2
BLOCK_RECORD
  5
1
100
AcDbSymbolTable
 70
0
  0
BLOCK_RECORD
  5
210
100
AcDbSymbolTableRecord
100
AcDbBlockTableRecord
  2
*Model_Space
  0
BLOCK_RECORD
  5
211
100
AcDbSymbolTableRecord
100
AcDbBlockTableRecord
  2
*Paper_Space
  0
BLOCK_RECORD
  5
212
100
AcDbSymbolTableRecord
100
AcDbBlockTableRecord
  2
_FILLED
  0
ENDTAB
  0
TABLE
  2
DIMSTYLE
  5
A
100
AcDbSymbolTable
 70
1
100
AcDbDimStyleTable
 71
0
  0
DIMSTYLE
105
213
100
AcDbSymbolTableRecord
100
AcDbDimStyleTableRecord
  2
STANDARD
 70
0
  3

  4

 40
1.0
 41
0.5750682108
 42
1.0
 43
0.38
 44
1.0
 45
0.0
 46
0.0
 47
0.01
 48
0.01
140
0.8050954952
141
0.09
142
0.0
143
25.4
144
1.0
145
0.0
146
1.0
147
0.625
 71
1
 72
0
 73
0
 74
0
 75
0
 76
0
 77
1
 78
8
 79
2
170
0
171
1
172
0
173
0
174
0
175
0
176
0
177
0
178
0
270
2
179
2
271
2
272
2
273
2
274
2
275
0
280
0
281
0
282
0
283
1
284
8
285
0
286
0
287
3
288
0
340
11
278
46
341
212
342
212
343
212
344
212
  0
ENDTAB
  0
ENDSEC
  0
SECTION
  2
BLOCKS
  0
BLOCK
  5
20
100
AcDbEntity
  8
0
100
AcDbBlockBegin
  2
*Model_Space
 70
0
 10
0.0
 20
0.0
 30
0.0
  3
*Model_Space
  1

  0
ENDBLK
  5
21
100
AcDbEntity
  8
0
100
AcDbBlockEnd
  0
BLOCK
  5
1C
100
AcDbEntity
  8
0
100
AcDbBlockBegin
  2
*Paper_Space
 70
0
 10
0.0
 20
0.0
 30
0.0
  3
*Paper_Space
  1

  0
ENDBLK
  5
1D
100
AcDbEntity
  8
0
100
AcDbBlockEnd
  0
BLOCK
  5
214
100
AcDbEntity
  8
0
100
AcDbBlockBegin
  2
_FILLED
 70
64
 10
0.0
 20
0.0
  3
_FILLED
  1

  0
SOLID
  5
215
100
AcDbEntity
  8
0
  6
BYBLOCK
 62
0
100
AcDbTrace
 10
0.0
 20
0.0
 11
-1.0
 21
0.25
 12
-1.0
 22
-0.25
 13
-1.0
 23
-0.25
  0
ENDBLK
  5
216
100
AcDbEntity
  8
0
  6
BYBLOCK
 62
0
100
AcDbBlockEnd
  0
ENDSEC
  0
SECTION
  2
ENTITIES
  0
LINE
  5
217
100
AcDbEntity
  8
0
100
AcDbLine
 62
7
  6
BYLAYER
 10
5.3800200279
 20
47.2773091065
 11
5.3800200279
 21
20.4776091458
  0
LINE
  5
218
100
AcDbEntity
  8
0
100
AcDbLine
 62
7
  6
BYLAYER
 10
6.4050200279
 20
37.7271674398
 11
6.4050200279
 21
30.027167451
  0
LINE
  5
219
100
AcDbEntity
  8
0
100
AcDbLine
 62
7
  6
BYLAYER
 10
6.8300200279
 20
52.934832098
 11
6.8300200279
 21
47.2773343924
  0
LINE
  5
21A
100
AcDbEntity
  8
0
100
AcDbLine
 62
7
  6
BYLAYER
 10
6.8300200279
 20
20.4776859772
 11
6.8300200279
 21
14.9651680354
  0
LINE
  5
21B
100
AcDbEntity
  8
0
100
AcDbLine
 62
7
  6
BYLAYER
 10
6.8300200279
 20
14.965168036
 11
42.8300200279
 21
14.965168036
  0
LINE
  5
21C
100
AcDbEntity
  8
0
100
AcDbLine
 62
7
  6
BYLAYER
 10
8.3104876014
 20
26.3764356968
 11
8.3123578956
 21
22.1964366443
  0
LINE
  5
21D
100
AcDbEntity
  8
0
100
AcDbLine
 62
7
  6
BYLAYER
 10
8.6300200279
 20
52.9348321738
 11
8.6300200279
 21
45.9456671972
  0
LINE
  5
21E
100
AcDbEntity
  8
0
100
AcDbLine
 62
7
  6
BYLAYER
 10
8.6300200279
 20
14.9651677719
 11
8.6300200279
 21
21.8087757021
  0
LINE
  5
21F
100
AcDbEntity
  8
0
100
AcDbLine
 62
7
  6
BYLAYER
 10
8.6400200279
 20
50.6380059227
 11
8.6400200279
 21
48.5280710556
  0
LINE
  5
220
100
AcDbEntity
  8
0
100
AcDbLine
 62
7
  6
BYLAYER
 10
8.6400200279
 20
19.2265014537
 11
8.6400200279
 21
17.1165014568
  0
LINE
  5
221
100
AcDbEntity
  8
0
100
AcDbLine
 62
7
  6
BYLAYER
 10
8.3123578956
 20
45.5580062549
 11
8.3104876014
 21
41.3780072025
  0
LINE
  5
222
100
AcDbEntity
  8
0
100
AcDbLine
 62
7
  6
BYLAYER
 10
31.6962234891
 20
16.32763219
 11
29.7242852332
 21
16.32763219
  0
LINE
  5
223
100
AcDbEntity
  8
0
100
AcDbLine
 62
7
  6
BYLAYER
 10
28.7061164311
 20
16.32763219
 11
26.6653827595
 21
16.32763219
  0
LINE
  5
224
100
AcDbEntity
  8
0
100
AcDbLine
 62
7
  6
BYLAYER
 10
23.1195167819
 20
16.32763219
 11
21.0814983135
 21
16.32763219
  0
LINE
  5
225
100
AcDbEntity
  8
0
100
AcDbLine
 62
7
  6
BYLAYER
 10
20.0574695409
 20
16.32763219
 11
18.0984898701
 21
16.32763219
  0
LINE
  5
226
100
AcDbEntity
  8
0
100
AcDbLine
 62
7
  6
BYLAYER
 10
14.4750118601
 20
16.32763219
 11
12.4918708767
 21
16.32763219
  0
LINE
  5
227
100
AcDbEntity
  8
0
100
AcDbLine
 62
7
  6
BYLAYER
 10
11.4736850348
 20
16.32763219
 11
9.4329513632
 21
16.32763219
  0
LINE
  5
228
100
AcDbEntity
  8
0
100
AcDbLine
 62
7
  6
BYLAYER
 10
35.3309180342
 20
16.3276340366
 11
37.2899009666
 21
16.3276322077
  0
LINE
  5
229
100
AcDbEntity
  8
0
100
AcDbLine
 62
7
  6
BYLAYER
 10
38.3139202467
 20
16.327634037
 11
40.3401429812
 21
16.3276322007
  0
LINE
  5
22A
100
AcDbEntity
  8
0
100
AcDbLine
 62
7
  6
BYLAYER
 10
23.9124514242
 20
17.728524366
 11
22.9300200279
 21
17.7285243662
  0
LINE
  5
22B
100
AcDbEntity
  8
0
100
AcDbLine
 62
7
  6
BYLAYER
 10
23.9124514242
 20
18.5288236513
 11
22.9300200279
 21
18.5288189133
  0
LINE
  5
22C
100
AcDbEntity
  8
0
100
AcDbLine
 62
7
  6
BYLAYER
 10
12.0600200934
 20
26.3764051852
 11
12.076235726
 21
22.1964366443
  0
LINE
  5
22D
100
AcDbEntity
  8
0
100
AcDbLine
 62
7
  6
BYLAYER
 10
11.7466510381
 20
16.4965112538
 11
11.7385737816
 21
19.8265014528
  0
LINE
  5
22E
100
AcDbEntity
  8
0
100
AcDbLine
 62
7
  6
BYLAYER
 10
12.1944094828
 20
19.8364941464
 11
12.1966444361
 21
16.5064989229
  0
LINE
  5
22F
100
AcDbEntity
  8
0
100
AcDbLine
 62
7
  6
BYLAYER
 10
11.8623578956
 20
22.1964366443
 11
11.8604876014
 21
26.3764356968
  0
LINE
  5
230
100
AcDbEntity
  8
0
100
AcDbLine
 62
7
  6
BYLAYER
 10
11.8604876014
 20
41.3780072025
 11
11.8623578956
 21
45.5580062549
  0
LINE
  5
231
100
AcDbEntity
  8
0
100
AcDbLine
 62
7
  6
BYLAYER
 10
12.1966444691
 20
51.2481046175
 11
12.1944094794
 21
47.9180732866
  0
LINE
  5
232
100
AcDbEntity
  8
0
100
AcDbLine
 62
7
  6
BYLAYER
 10
11.7385737816
 20
47.9280710565
 11
11.7466510941
 21
51.2580843511
  0
LINE
  5
233
100
AcDbEntity
  8
0
100
AcDbLine
 62
7
  6
BYLAYER
 10
12.076235726
 20
45.5580062549
 11
12.0600200934
 21
41.3780377141
  0
LINE
  5
234
100
AcDbEntity
  8
0
100
AcDbLine
 62
7
  6
BYLAYER
 10
5.3800200279
 20
20.4779072525
 11
6.8300200279
 21
20.4779072525
  0
LINE
  5
235
100
AcDbEntity
  8
0
100
AcDbLine
 62
7
  6
BYLAYER
 10
42.8300200279
 20
20.4779072525
 11
44.1800200279
 21
20.4779072525
  0
LINE
  5
236
100
AcDbEntity
  8
0
100
AcDbLine
 62
7
  6
BYLAYER
 10
41.0800200279
 20
21.8087757021
 11
34.4300200279
 21
21.8087757021
  0
LINE
  5
237
100
AcDbEntity
  8
0
100
AcDbLine
 62
7
  6
BYLAYER
 10
32.4800200279
 20
21.8087757021
 11
25.8300200279
 21
21.8087757021
  0
LINE
  5
238
100
AcDbEntity
  8
0
100
AcDbLine
 62
7
  6
BYLAYER
 10
23.8800200279
 20
21.8087757021
 11
17.2300200279
 21
21.8087757021
  0
LINE
  5
239
100
AcDbEntity
  8
0
100
AcDbLine
 62
7
  6
BYLAYER
 10
15.2800200279
 20
21.8087757021
 11
8.6300200279
 21
21.8087757021
  0
LINE
  5
23A
100
AcDbEntity
  8
0
100
AcDbLine
 62
7
  6
BYLAYER
 10
8.3123578956
 20
22.1964366443
 11
11.8623578956
 21
22.1964366443
  0
LINE
  5
23B
100
AcDbEntity
  8
0
100
AcDbLine
 62
7
  6
BYLAYER
 10
12.076235726
 20
22.1964366443
 11
15.626235726
 21
22.1964366443
  0
LINE
  5
23C
100
AcDbEntity
  8
0
100
AcDbLine
 62
7
  6
BYLAYER
 10
16.926235726
 20
22.1964366443
 11
20.476235726
 21
22.1964366443
  0
LINE
  5
23D
100
AcDbEntity
  8
0
100
AcDbLine
 62
7
  6
BYLAYER
 10
20.6901135565
 20
22.1964366443
 11
24.2401135565
 21
22.1964366443
  0
LINE
  5
23E
100
AcDbEntity
  8
0
100
AcDbLine
 62
7
  6
BYLAYER
 10
25.5447892919
 20
22.1964366443
 11
29.0947892919
 21
22.1964366443
  0
LINE
  5
23F
100
AcDbEntity
  8
0
100
AcDbLine
 62
7
  6
BYLAYER
 10
29.3086671223
 20
22.1964366443
 11
32.8586671223
 21
22.1964366443
  0
LINE
  5
240
100
AcDbEntity
  8
0
100
AcDbLine
 62
7
  6
BYLAYER
 10
34.1586671223
 20
22.1964366443
 11
37.7086671223
 21
22.1964366443
  0
LINE
  5
241
100
AcDbEntity
  8
0
100
AcDbLine
 62
7
  6
BYLAYER
 10
37.9225449527
 20
22.1964366443
 11
41.4725449527
 21
22.1964366443
  0
LINE
  5
242
100
AcDbEntity
  8
0
100
AcDbLine
 62
7
  6
BYLAYER
 10
15.626235726
 20
22.1964366443
 11
15.6100200934
 21
26.3764051852
  0
LINE
  5
243
100
AcDbEntity
  8
0
100
AcDbLine
 62
7
  6
BYLAYER
 10
15.2800200279
 20
14.9651677721
 11
15.2800200279
 21
17.0892348223
  0
LINE
  5
244
100
AcDbEntity
  8
0
100
AcDbLine
 62
7
  6
BYLAYER
 10
15.2800200279
 20
19.253676353
 11
15.2800200279
 21
21.8087757021
  0
LINE
  5
245
100
AcDbEntity
  8
0
100
AcDbLine
 62
7
  6
BYLAYER
 10
15.2800200279
 20
45.9456671972
 11
15.2800200279
 21
48.5007665462
  0
LINE
  5
246
100
AcDbEntity
  8
0
100
AcDbLine
 62
7
  6
BYLAYER
 10
15.2800200279
 20
50.6652080769
 11
15.2800200279
 21
52.9348322281
  0
LINE
  5
247
100
AcDbEntity
  8
0
100
AcDbLine
 62
7
  6
BYLAYER
 10
15.296235726
 20
17.1164366517
 11
15.296235726
 21
19.2264366487
  0
LINE
  5
248
100
AcDbEntity
  8
0
100
AcDbLine
 62
7
  6
BYLAYER
 10
15.296235726
 20
48.5280062506
 11
15.296235726
 21
50.6380062475
  0
LINE
  5
249
100
AcDbEntity
  8
0
100
AcDbLine
 62
7
  6
BYLAYER
 10
15.6100200934
 20
41.3780377141
 11
15.626235726
 21
45.5580062549
  0
LINE
  5
24A
100
AcDbEntity
  8
0
100
AcDbLine
 62
7
  6
BYLAYER
 10
16.926235726
 20
45.5580062549
 11
16.9424513586
 21
41.3780377141
  0
LINE
  5
24B
100
AcDbEntity
  8
0
100
AcDbLine
 62
7
  6
BYLAYER
 10
17.2300200279
 20
52.9348322281
 11
17.2300200279
 21
45.9456671972
  0
LINE
  5
24C
100
AcDbEntity
  8
0
100
AcDbLine
 62
7
  6
BYLAYER
 10
17.2300200279
 20
14.9651677721
 11
17.2300200279
 21
21.8087757021
  0
LINE
  5
24D
100
AcDbEntity
  8
0
100
AcDbLine
 62
7
  6
BYLAYER
 10
17.256235726
 20
50.6380710525
 11
17.2562357587
 21
48.5277395706
  0
LINE
  5
24E
100
AcDbEntity
  8
0
100
AcDbLine
 62
7
  6
BYLAYER
 10
17.2562357587
 20
19.2268587847
 11
17.256235726
 21
17.1165014568
  0
LINE
  5
24F
100
AcDbEntity
  8
0
100
AcDbLine
 62
7
  6
BYLAYER
 10
16.9424513586
 20
26.3764051852
 11
16.926235726
 21
22.1964366443
  0
LINE
  5
250
100
AcDbEntity
  8
0
100
AcDbLine
 62
7
  6
BYLAYER
 10
37.7248827549
 20
26.3764051852
 11
34.1748827549
 21
26.3764051852
  0
LINE
  5
251
100
AcDbEntity
  8
0
100
AcDbLine
 62
7
  6
BYLAYER
 10
32.8424514897
 20
26.3764051852
 11
29.2924514897
 21
26.3764051852
  0
LINE
  5
252
100
AcDbEntity
  8
0
100
AcDbLine
 62
7
  6
BYLAYER
 10
20.4924513586
 20
26.3764051852
 11
16.9424513586
 21
26.3764051852
  0
LINE
  5
253
100
AcDbEntity
  8
0
100
AcDbLine
 62
7
  6
BYLAYER
 10
15.6100200934
 20
26.3764051852
 11
12.0600200934
 21
26.3764051852
  0
LINE
  5
254
100
AcDbEntity
  8
0
100
AcDbLine
 62
7
  6
BYLAYER
 10
41.4744152469
 20
26.3764356968
 11
37.9244152469
 21
26.3764356968
  0
LINE
  5
255
100
AcDbEntity
  8
0
100
AcDbLine
 62
7
  6
BYLAYER
 10
29.0929189977
 20
26.3764356968
 11
25.5429189977
 21
26.3764356968
  0
LINE
  5
256
100
AcDbEntity
  8
0
100
AcDbLine
 62
7
  6
BYLAYER
 10
24.2419838506
 20
26.3764356968
 11
20.6919838506
 21
26.3764356968
  0
LINE
  5
257
100
AcDbEntity
  8
0
100
AcDbLine
 62
7
  6
BYLAYER
 10
11.8604876014
 20
26.3764356968
 11
8.3104876014
 21
26.3764356968
  0
LINE
  5
258
100
AcDbEntity
  8
0
100
AcDbLine
 62
7
  6
BYLAYER
 10
20.4924513586
 20
41.3780377141
 11
20.476235726
 21
45.5580062549
  0
LINE
  5
259
100
AcDbEntity
  8
0
100
AcDbLine
 62
7
  6
BYLAYER
 10
20.805820414
 20
51.2580612555
 11
20.8138976704
 21
47.9280710565
  0
LINE
  5
25A
100
AcDbEntity
  8
0
100
AcDbLine
 62
7
  6
BYLAYER
 10
20.3580618969
 20
47.9181852517
 11
20.3558270159
 21
51.2480736867
  0
LINE
  5
25B
100
AcDbEntity
  8
0
100
AcDbLine
 62
7
  6
BYLAYER
 10
20.6901135565
 20
45.5580062549
 11
20.6919838506
 21
41.3780072025
  0
LINE
  5
25C
100
AcDbEntity
  8
0
100
AcDbLine
 62
7
  6
BYLAYER
 10
20.6919838506
 20
26.3764356968
 11
20.6901135565
 21
22.1964366443
  0
LINE
  5
25D
100
AcDbEntity
  8
0
100
AcDbLine
 62
7
  6
BYLAYER
 10
20.3558269817
 20
16.5064671353
 11
20.3580618942
 21
19.8363832947
  0
LINE
  5
25E
100
AcDbEntity
  8
0
100
AcDbLine
 62
7
  6
BYLAYER
 10
20.8138976704
 20
19.8265014528
 11
20.8058203681
 21
16.4964923452
  0
LINE
  5
25F
100
AcDbEntity
  8
0
100
AcDbLine
 62
7
  6
BYLAYER
 10
20.476235726
 20
22.1964366443
 11
20.4924513586
 21
26.3764051852
  0
LINE
  5
260
100
AcDbEntity
  8
0
100
AcDbLine
 62
7
  6
BYLAYER
 10
6.4050200279
 20
30.027167451
 11
23.1050200279
 21
30.027167451
  0
LINE
  5
261
100
AcDbEntity
  8
0
100
AcDbLine
 62
7
  6
BYLAYER
 10
22.5550200279
 20
47.6261515961
 11
22.5550200279
 21
51.4283888526
  0
LINE
  5
262
100
AcDbEntity
  8
0
100
AcDbLine
 62
7
  6
BYLAYER
 10
22.9300200279
 20
20.0336132576
 11
22.9300200279
 21
16.32763219
  0
LINE
  5
263
100
AcDbEntity
  8
0
100
AcDbLine
 62
7
  6
BYLAYER
 10
23.1050200279
 20
30.027167451
 11
23.1050200279
 21
37.7271674398
  0
LINE
  5
264
100
AcDbEntity
  8
0
100
AcDbLine
 62
7
  6
BYLAYER
 10
24.2419838506
 20
41.3780072025
 11
24.2401135565
 21
45.5580062549
  0
LINE
  5
265
100
AcDbEntity
  8
0
100
AcDbLine
 62
7
  6
BYLAYER
 10
23.8800200279
 20
14.9651677721
 11
23.8800200279
 21
17.061627832
  0
LINE
  5
266
100
AcDbEntity
  8
0
100
AcDbLine
 62
7
  6
BYLAYER
 10
23.8800200279
 20
19.2784166646
 11
23.8800200279
 21
21.8087757021
  0
LINE
  5
267
100
AcDbEntity
  8
0
100
AcDbLine
 62
7
  6
BYLAYER
 10
23.8800200279
 20
45.9456671972
 11
23.8800200279
 21
48.4760262346
  0
LINE
  5
268
100
AcDbEntity
  8
0
100
AcDbLine
 62
7
  6
BYLAYER
 10
23.8800200279
 20
50.6928150673
 11
23.8800200279
 21
52.9348322281
  0
LINE
  5
269
100
AcDbEntity
  8
0
100
AcDbLine
 62
7
  6
BYLAYER
 10
23.9124514242
 20
17.1164366517
 11
23.9124514242
 21
19.2264366487
  0
LINE
  5
26A
100
AcDbEntity
  8
0
100
AcDbLine
 62
7
  6
BYLAYER
 10
23.9124514242
 20
48.5280062506
 11
23.9124514242
 21
50.6380062475
  0
LINE
  5
26B
100
AcDbEntity
  8
0
100
AcDbLine
 62
7
  6
BYLAYER
 10
24.2401135565
 20
22.1964366443
 11
24.2419838506
 21
26.3764356968
  0
LINE
  5
26C
100
AcDbEntity
  8
0
100
AcDbLine
 62
7
  6
BYLAYER
 10
42.7176469785
 20
33.1272214507
 11
37.55423283
 21
33.1272214507
  0
LINE
  5
26D
100
AcDbEntity
  8
0
100
AcDbLine
 62
7
  6
BYLAYER
 10
25.5429189977
 20
26.3764356968
 11
25.5447892919
 21
22.1964366443
  0
LINE
  5
26E
100
AcDbEntity
  8
0
100
AcDbLine
 62
7
  6
BYLAYER
 10
25.8300200279
 20
52.9348322281
 11
25.8300200279
 21
45.9456671972
  0
LINE
  5
26F
100
AcDbEntity
  8
0
100
AcDbLine
 62
7
  6
BYLAYER
 10
25.8300200279
 20
14.9651677721
 11
25.8300200279
 21
21.8087757021
  0
LINE
  5
270
100
AcDbEntity
  8
0
100
AcDbLine
 62
7
  6
BYLAYER
 10
25.8724514242
 20
50.6380059227
 11
25.8724514242
 21
48.5280710556
  0
LINE
  5
271
100
AcDbEntity
  8
0
100
AcDbLine
 62
7
  6
BYLAYER
 10
25.8724514242
 20
19.2265014537
 11
25.8724514242
 21
17.1165014568
  0
LINE
  5
272
100
AcDbEntity
  8
0
100
AcDbLine
 62
7
  6
BYLAYER
 10
25.5447892919
 20
45.5580062549
 11
25.5429189977
 21
41.3780072025
  0
LINE
  5
273
100
AcDbEntity
  8
0
100
AcDbLine
 62
7
  6
BYLAYER
 10
37.55423283
 20
34.6272214485
 11
42.7176469785
 21
34.6272214485
  0
LINE
  5
274
100
AcDbEntity
  8
0
100
AcDbLine
 62
7
  6
BYLAYER
 10
23.1050200279
 20
37.7271674398
 11
6.4050200279
 21
37.7271674398
  0
LINE
  5
275
100
AcDbEntity
  8
0
100
AcDbLine
 62
7
  6
BYLAYER
 10
29.2924514897
 20
26.3764051852
 11
29.3086671223
 21
22.1964366443
  0
LINE
  5
276
100
AcDbEntity
  8
0
100
AcDbLine
 62
7
  6
BYLAYER
 10
28.9790824343
 20
16.4965112538
 11
28.9710051779
 21
19.8265014528
  0
LINE
  5
277
100
AcDbEntity
  8
0
100
AcDbLine
 62
7
  6
BYLAYER
 10
29.4268408776
 20
19.8364952498
 11
29.4290758302
 21
16.5065022077
  0
LINE
  5
278
100
AcDbEntity
  8
0
100
AcDbLine
 62
7
  6
BYLAYER
 10
29.0947892919
 20
22.1964366443
 11
29.0929189977
 21
26.3764356968
  0
LINE
  5
279
100
AcDbEntity
  8
0
100
AcDbLine
 62
7
  6
BYLAYER
 10
29.0929189977
 20
41.3780072025
 11
29.0947892919
 21
45.5580062549
  0
LINE
  5
27A
100
AcDbEntity
  8
0
100
AcDbLine
 62
7
  6
BYLAYER
 10
29.4290758522
 20
51.2481031246
 11
29.4268408727
 21
47.9180700069
  0
LINE
  5
27B
100
AcDbEntity
  8
0
100
AcDbLine
 62
7
  6
BYLAYER
 10
28.9710051779
 20
47.9280710565
 11
28.9790824904
 21
51.2580843511
  0
LINE
  5
27C
100
AcDbEntity
  8
0
100
AcDbLine
 62
7
  6
BYLAYER
 10
29.3086671223
 20
45.5580062549
 11
29.2924514897
 21
41.3780377141
  0
LINE
  5
27D
100
AcDbEntity
  8
0
100
AcDbLine
 62
7
  6
BYLAYER
 10
8.3104876014
 20
41.3780072025
 11
11.8604876014
 21
41.3780072025
  0
LINE
  5
27E
100
AcDbEntity
  8
0
100
AcDbLine
 62
7
  6
BYLAYER
 10
20.6919838506
 20
41.3780072025
 11
24.2419838506
 21
41.3780072025
  0
LINE
  5
27F
100
AcDbEntity
  8
0
100
AcDbLine
 62
7
  6
BYLAYER
 10
25.5429189977
 20
41.3780072025
 11
29.0929189977
 21
41.3780072025
  0
LINE
  5
280
100
AcDbEntity
  8
0
100
AcDbLine
 62
7
  6
BYLAYER
 10
37.9244152469
 20
41.3780072025
 11
41.4744152469
 21
41.3780072025
  0
LINE
  5
281
100
AcDbEntity
  8
0
100
AcDbLine
 62
7
  6
BYLAYER
 10
12.0600200934
 20
41.3780377141
 11
15.6100200934
 21
41.3780377141
  0
LINE
  5
282
100
AcDbEntity
  8
0
100
AcDbLine
 62
7
  6
BYLAYER
 10
16.9424513586
 20
41.3780377141
 11
20.4924513586
 21
41.3780377141
  0
LINE
  5
283
100
AcDbEntity
  8
0
100
AcDbLine
 62
7
  6
BYLAYER
 10
29.2924514897
 20
41.3780377141
 11
32.8424514897
 21
41.3780377141
  0
LINE
  5
284
100
AcDbEntity
  8
0
100
AcDbLine
 62
7
  6
BYLAYER
 10
34.1748827549
 20
41.3780377141
 11
37.7248827549
 21
41.3780377141
  0
LINE
  5
285
100
AcDbEntity
  8
0
100
AcDbLine
 62
7
  6
BYLAYER
 10
32.8586671223
 20
22.1964366443
 11
32.8424514897
 21
26.3764051852
  0
LINE
  5
286
100
AcDbEntity
  8
0
100
AcDbLine
 62
7
  6
BYLAYER
 10
32.4800200279
 20
14.9651677721
 11
32.4800200279
 21
17.0374821016
  0
LINE
  5
287
100
AcDbEntity
  8
0
100
AcDbLine
 62
7
  6
BYLAYER
 10
32.4800200279
 20
19.3055155508
 11
32.4800200279
 21
21.8087757021
  0
LINE
  5
288
100
AcDbEntity
  8
0
100
AcDbLine
 62
7
  6
BYLAYER
 10
32.4800200279
 20
45.9456671972
 11
32.4800200279
 21
48.4489273485
  0
LINE
  5
289
100
AcDbEntity
  8
0
100
AcDbLine
 62
7
  6
BYLAYER
 10
32.4800200279
 20
50.7169607977
 11
32.4800200279
 21
52.9348322281
  0
LINE
  5
28A
100
AcDbEntity
  8
0
100
AcDbLine
 62
7
  6
BYLAYER
 10
32.5286671223
 20
17.1164366518
 11
32.5286671223
 21
19.2264366486
  0
LINE
  5
28B
100
AcDbEntity
  8
0
100
AcDbLine
 62
7
  6
BYLAYER
 10
32.5286671223
 20
48.5280062506
 11
32.5286671223
 21
50.6380062475
  0
LINE
  5
28C
100
AcDbEntity
  8
0
100
AcDbLine
 62
7
  6
BYLAYER
 10
32.8424514897
 20
41.3780377141
 11
32.8586671223
 21
45.5580062549
  0
LINE
  5
28D
100
AcDbEntity
  8
0
100
AcDbLine
 62
7
  6
BYLAYER
 10
34.1586671223
 20
45.5580062549
 11
34.1748827549
 21
41.3780377141
  0
LINE
  5
28E
100
AcDbEntity
  8
0
100
AcDbLine
 62
7
  6
BYLAYER
 10
34.4300200279
 20
52.9348322281
 11
34.4300200279
 21
45.9456671972
  0
LINE
  5
28F
100
AcDbEntity
  8
0
100
AcDbLine
 62
7
  6
BYLAYER
 10
34.4300200279
 20
14.9651677721
 11
34.4300200279
 21
21.8087757021
  0
LINE
  5
290
100
AcDbEntity
  8
0
100
AcDbLine
 62
7
  6
BYLAYER
 10
34.4886671223
 20
50.6380710525
 11
34.488667155
 21
48.5277395707
  0
LINE
  5
291
100
AcDbEntity
  8
0
100
AcDbLine
 62
7
  6
BYLAYER
 10
34.488667155
 20
19.2268587848
 11
34.4886671223
 21
17.1165014568
  0
LINE
  5
292
100
AcDbEntity
  8
0
100
AcDbLine
 62
7
  6
BYLAYER
 10
34.1748827549
 20
26.3764051852
 11
34.1586671223
 21
22.1964366443
  0
LINE
  5
293
100
AcDbEntity
  8
0
100
AcDbLine
 62
7
  6
BYLAYER
 10
37.5904932932
 20
47.9181852517
 11
37.5882584121
 21
51.2480736867
  0
LINE
  5
294
100
AcDbEntity
  8
0
100
AcDbLine
 62
7
  6
BYLAYER
 10
37.55423283
 20
33.1272214507
 11
37.55423283
 21
34.6272214485
  0
LINE
  5
295
100
AcDbEntity
  8
0
100
AcDbLine
 62
7
  6
BYLAYER
 10
37.588258378
 20
16.5064671353
 11
37.5904932905
 21
19.8363832948
  0
LINE
  5
296
100
AcDbEntity
  8
0
100
AcDbLine
 62
7
  6
BYLAYER
 10
41.4725449527
 20
45.5580062549
 11
37.9225449527
 21
45.5580062549
  0
LINE
  5
297
100
AcDbEntity
  8
0
100
AcDbLine
 62
7
  6
BYLAYER
 10
37.7086671223
 20
45.5580062549
 11
34.1586671223
 21
45.5580062549
  0
LINE
  5
298
100
AcDbEntity
  8
0
100
AcDbLine
 62
7
  6
BYLAYER
 10
32.8586671223
 20
45.5580062549
 11
29.3086671223
 21
45.5580062549
  0
LINE
  5
299
100
AcDbEntity
  8
0
100
AcDbLine
 62
7
  6
BYLAYER
 10
29.0947892919
 20
45.5580062549
 11
25.5447892919
 21
45.5580062549
  0
LINE
  5
29A
100
AcDbEntity
  8
0
100
AcDbLine
 62
7
  6
BYLAYER
 10
24.2401135565
 20
45.5580062549
 11
20.6901135565
 21
45.5580062549
  0
LINE
  5
29B
100
AcDbEntity
  8
0
100
AcDbLine
 62
7
  6
BYLAYER
 10
20.476235726
 20
45.5580062549
 11
16.926235726
 21
45.5580062549
  0
LINE
  5
29C
100
AcDbEntity
  8
0
100
AcDbLine
 62
7
  6
BYLAYER
 10
15.626235726
 20
45.5580062549
 11
12.076235726
 21
45.5580062549
  0
LINE
  5
29D
100
AcDbEntity
  8
0
100
AcDbLine
 62
7
  6
BYLAYER
 10
11.8623578956
 20
45.5580062549
 11
8.3123578956
 21
45.5580062549
  0
LINE
  5
29E
100
AcDbEntity
  8
0
100
AcDbLine
 62
7
  6
BYLAYER
 10
8.6300200279
 20
45.9456671972
 11
15.2800200279
 21
45.9456671972
  0
LINE
  5
29F
100
AcDbEntity
  8
0
100
AcDbLine
 62
7
  6
BYLAYER
 10
17.2300200279
 20
45.9456671972
 11
23.8800200279
 21
45.9456671972
  0
LINE
  5
2A0
100
AcDbEntity
  8
0
100
AcDbLine
 62
7
  6
BYLAYER
 10
25.8300200279
 20
45.9456671972
 11
32.4800200279
 21
45.9456671972
  0
LINE
  5
2A1
100
AcDbEntity
  8
0
100
AcDbLine
 62
7
  6
BYLAYER
 10
34.4300200279
 20
45.9456671972
 11
41.0800200279
 21
45.9456671972
  0
LINE
  5
2A2
100
AcDbEntity
  8
0
100
AcDbLine
 62
7
  6
BYLAYER
 10
37.7248827549
 20
41.3780377141
 11
37.7086671223
 21
45.5580062549
  0
LINE
  5
2A3
100
AcDbEntity
  8
0
100
AcDbLine
 62
7
  6
BYLAYER
 10
38.0382518103
 20
51.2580612555
 11
38.0463290667
 21
47.9280710565
  0
LINE
  5
2A4
100
AcDbEntity
  8
0
100
AcDbLine
 62
7
  6
BYLAYER
 10
37.9225449527
 20
45.5580062549
 11
37.9244152469
 21
41.3780072025
  0
LINE
  5
2A5
100
AcDbEntity
  8
0
100
AcDbLine
 62
7
  6
BYLAYER
 10
37.9244152469
 20
26.3764356968
 11
37.9225449527
 21
22.1964366443
  0
LINE
  5
2A6
100
AcDbEntity
  8
0
100
AcDbLine
 62
7
  6
BYLAYER
 10
38.0463290667
 20
19.8265014528
 11
38.0382517747
 21
16.4964965827
  0
LINE
  5
2A7
100
AcDbEntity
  8
0
100
AcDbLine
 62
7
  6
BYLAYER
 10
37.7086671223
 20
22.1964366443
 11
37.7248827549
 21
26.3764051852
  0
LINE
  5
2A8
100
AcDbEntity
  8
0
100
AcDbLine
 62
7
  6
BYLAYER
 10
5.3800200279
 20
47.2773091062
 11
6.8300200279
 21
47.2773343924
  0
LINE
  5
2A9
100
AcDbEntity
  8
0
100
AcDbLine
 62
7
  6
BYLAYER
 10
42.8300200279
 20
47.2773343924
 11
44.1800200279
 21
47.2773091062
  0
LINE
  5
2AA
100
AcDbEntity
  8
0
100
AcDbLine
 62
7
  6
BYLAYER
 10
40.9300200279
 20
34.6271728447
 11
40.9300200279
 21
33.1271728469
  0
LINE
  5
2AB
100
AcDbEntity
  8
0
100
AcDbLine
 62
7
  6
BYLAYER
 10
41.0800200279
 20
14.9651677721
 11
41.0800200279
 21
17.0103291117
  0
LINE
  5
2AC
100
AcDbEntity
  8
0
100
AcDbLine
 62
7
  6
BYLAYER
 10
41.0800200279
 20
19.3272002393
 11
41.0800200279
 21
21.8087757021
  0
LINE
  5
2AD
100
AcDbEntity
  8
0
100
AcDbLine
 62
7
  6
BYLAYER
 10
41.0800200279
 20
45.9456671972
 11
41.0800200279
 21
48.4272426599
  0
LINE
  5
2AE
100
AcDbEntity
  8
0
100
AcDbLine
 62
7
  6
BYLAYER
 10
41.0800200279
 20
50.7441137875
 11
41.0800200279
 21
52.9348321738
  0
LINE
  5
2AF
100
AcDbEntity
  8
0
100
AcDbLine
 62
7
  6
BYLAYER
 10
41.1448828204
 20
17.1164366517
 11
41.1448828204
 21
19.2264366487
  0
LINE
  5
2B0
100
AcDbEntity
  8
0
100
AcDbLine
 62
7
  6
BYLAYER
 10
41.1448828204
 20
48.5280062506
 11
41.1448828204
 21
50.6380062475
  0
LINE
  5
2B1
100
AcDbEntity
  8
0
100
AcDbLine
 62
7
  6
BYLAYER
 10
22.5550200279
 20
49.0288298935
 11
23.9124514242
 21
49.0288298935
  0
LINE
  5
2B2
100
AcDbEntity
  8
0
100
AcDbLine
 62
7
  6
BYLAYER
 10
22.5550200279
 20
50.328540126
 11
23.9124514242
 21
50.328540126
  0
LINE
  5
2B3
100
AcDbEntity
  8
0
100
AcDbLine
 62
7
  6
BYLAYER
 10
41.4744152469
 20
41.3780072025
 11
41.4725449527
 21
45.5580062549
  0
LINE
  5
2B4
100
AcDbEntity
  8
0
100
AcDbLine
 62
7
  6
BYLAYER
 10
42.4300200279
 20
33.1271728469
 11
42.4300200279
 21
34.6271728447
  0
LINE
  5
2B5
100
AcDbEntity
  8
0
100
AcDbLine
 62
7
  6
BYLAYER
 10
42.7176469785
 20
34.6272214485
 11
42.7176469785
 21
33.1272214507
  0
LINE
  5
2B6
100
AcDbEntity
  8
0
100
AcDbLine
 62
7
  6
BYLAYER
 10
42.8300200279
 20
52.9348320978
 11
42.8300200279
 21
47.2773343924
  0
LINE
  5
2B7
100
AcDbEntity
  8
0
100
AcDbLine
 62
7
  6
BYLAYER
 10
42.8300200279
 20
20.4776859776
 11
42.8300200279
 21
14.965168036
  0
LINE
  5
2B8
100
AcDbEntity
  8
0
100
AcDbLine
 62
7
  6
BYLAYER
 10
41.4725449527
 20
22.1964366443
 11
41.4744152469
 21
26.3764356968
  0
LINE
  5
2B9
100
AcDbEntity
  8
0
100
AcDbLine
 62
7
  6
BYLAYER
 10
31.690493938
 20
51.4283912242
 11
29.7298315071
 21
51.4283824687
  0
LINE
  5
2BA
100
AcDbEntity
  8
0
100
AcDbLine
 62
7
  6
BYLAYER
 10
28.7010294748
 20
51.4283911967
 11
26.6672003494
 21
51.4283823819
  0
LINE
  5
2BB
100
AcDbEntity
  8
0
100
AcDbLine
 62
7
  6
BYLAYER
 10
35.311821804
 20
51.4283823819
 11
37.2906504664
 21
51.4283823819
  0
LINE
  5
2BC
100
AcDbEntity
  8
0
100
AcDbLine
 62
7
  6
BYLAYER
 10
38.313541484
 20
51.4283823819
 11
40.338594617
 21
51.4283823819
  0
LINE
  5
2BD
100
AcDbEntity
  8
0
100
AcDbLine
 62
7
  6
BYLAYER
 10
23.117683046
 20
51.4283912912
 11
21.0811101462
 21
51.4283824645
  0
LINE
  5
2BE
100
AcDbEntity
  8
0
100
AcDbLine
 62
7
  6
BYLAYER
 10
20.0582044849
 20
51.4283912185
 11
18.0793737113
 21
51.4283823819
  0
LINE
  5
2BF
100
AcDbEntity
  8
0
100
AcDbLine
 62
7
  6
BYLAYER
 10
14.4510067113
 20
51.4283911927
 11
12.4974053606
 21
51.4283824687
  0
LINE
  5
2C0
100
AcDbEntity
  8
0
100
AcDbLine
 62
7
  6
BYLAYER
 10
11.4685980785
 20
51.4283911967
 11
9.4347689531
 21
51.4283823819
  0
LINE
  5
2C1
100
AcDbEntity
  8
0
100
AcDbLine
 62
7
  6
BYLAYER
 10
44.1800200279
 20
47.2773091062
 11
44.1800200279
 21
20.4776091462
  0
LINE
  5
2C2
100
AcDbEntity
  8
0
100
AcDbLine
 62
7
  6
BYLAYER
 10
8.6300200279
 20
52.9034723428
 11
15.2800200279
 21
52.9034723428
  0
LINE
  5
2C3
100
AcDbEntity
  8
0
100
AcDbLine
 62
7
  6
BYLAYER
 10
17.2300200279
 20
52.9034723428
 11
23.8800200279
 21
52.9034723428
  0
LINE
  5
2C4
100
AcDbEntity
  8
0
100
AcDbLine
 62
7
  6
BYLAYER
 10
25.8300200279
 20
52.9034723428
 11
32.4800200279
 21
52.9034723428
  0
LINE
  5
2C5
100
AcDbEntity
  8
0
100
AcDbLine
 62
7
  6
BYLAYER
 10
34.4300200279
 20
52.9034723428
 11
41.0800200279
 21
52.9034723428
  0
LINE
  5
2C6
100
AcDbEntity
  8
0
100
AcDbLine
 62
7
  6
BYLAYER
 10
34.4300200279
 20
52.9348322281
 11
32.4800200279
 21
52.9348322281
  0
LINE
  5
2C7
100
AcDbEntity
  8
0
100
AcDbLine
 62
7
  6
BYLAYER
 10
25.8300200279
 20
52.9348322281
 11
23.8800200279
 21
52.9348322281
  0
LINE
  5
2C8
100
AcDbEntity
  8
0
100
AcDbLine
 62
7
  6
BYLAYER
 10
17.2300200279
 20
52.9348322281
 11
15.2800200279
 21
52.9348322281
  0
LINE
  5
2C9
100
AcDbEntity
  8
0
100
AcDbLine
 62
7
  6
BYLAYER
 10
42.8300200279
 20
52.9348321522
 11
41.0800200279
 21
52.9348322064
  0
LINE
  5
2CA
100
AcDbEntity
  8
0
100
AcDbLine
 62
7
  6
BYLAYER
 10
8.6300200279
 20
52.9348322064
 11
6.8300200279
 21
52.9348321522
  0
SPLINE
  5
2CB
100
AcDbEntity
  8
0
100
AcDbSpline
 62
7
  6
BYLAYER
 70
0
 71
3
 72
9
 73
5
 74
0
 42
0.0000001
 43
0.0000001
 44
0.0000000001
 40
0.0
 40
0.0
 40
0.0
 40
0.0
 40
0.5
 40
1.0
 40
1.0
 40
1.0
 40
1.0
 10
23.8800200279
 20
19.2784814696
 30
0.0
 10
23.6899727781
 20
19.5732933168
 30
0.0
 10
23.1556823743
 20
20.0666451691
 30
0.0
 10
22.4452848706
 20
20.2460296169
 30
0.0
 10
22.089875055
 20
20.2460296385
 30
0.0
  0
SPLINE
  5
2CC
100
AcDbEntity
  8
0
100
AcDbSpline
 62
7
  6
BYLAYER
 70
0
 71
3
 72
9
 73
5
 74
0
 42
0.0000001
 43
0.0000001
 44
0.0000000001
 40
0.0
 40
0.0
 40
0.0
 40
0.0
 40
0.5
 40
1.0
 40
1.0
 40
1.0
 40
1.0
 10
22.089875055
 20
20.2460296385
 30
0.0
 10
21.8616474689
 20
20.2460296523
 30
0.0
 10
21.4052357292
 20
20.1729853625
 30
0.0
 10
20.9960821656
 20
19.9614407203
 30
0.0
 10
20.8138976704
 20
19.8265014528
 30
0.0
  0
SPLINE
  5
2CD
100
AcDbEntity
  8
0
100
AcDbSpline
 62
7
  6
BYLAYER
 70
0
 71
3
 72
9
 73
5
 74
0
 42
0.0000001
 43
0.0000001
 44
0.0000000001
 40
0.0
 40
0.0
 40
0.0
 40
0.0
 40
0.4999019864
 40
1.0
 40
1.0
 40
1.0
 40
1.0
 10
20.8058295407
 20
16.4965041802
 30
0.0
 10
20.9880788886
 20
16.3552538082
 30
0.0
 10
21.3992862899
 20
16.1334300476
 30
0.0
 10
21.8598091305
 20
16.0567693535
 30
0.0
 10
22.0901345557
 20
16.0567981852
 30
0.0
  0
SPLINE
  5
2CE
100
AcDbEntity
  8
0
100
AcDbSpline
 62
7
  6
BYLAYER
 70
0
 71
3
 72
9
 73
5
 74
0
 42
0.0000001
 43
0.0000001
 44
0.0000000001
 40
0.0
 40
0.0
 40
0.0
 40
0.0
 40
0.4999282319
 40
1.0
 40
1.0
 40
1.0
 40
1.0
 10
22.0901345552
 20
16.0567981854
 30
0.0
 10
22.4471430998
 20
16.0568434518
 30
0.0
 10
23.1607933676
 20
16.2436950862
 30
0.0
 10
23.6930405141
 20
16.7562870337
 30
0.0
 10
23.8800452629
 20
17.0617338539
 30
0.0
  0
SPLINE
  5
2CF
100
AcDbEntity
  8
0
100
AcDbSpline
 62
7
  6
BYLAYER
 70
0
 71
3
 72
11
 73
7
 74
0
 42
0.0000001
 43
0.0000001
 44
0.0000000001
 40
0.0
 40
0.0
 40
0.0
 40
0.0
 40
0.2500263962
 40
0.500038718
 40
0.7500510398
 40
1.0
 40
1.0
 40
1.0
 40
1.0
 10
20.3581189131
 20
19.8364579909
 30
0.0
 10
20.1215443905
 20
20.0170458583
 30
0.0
 10
19.5706547739
 20
20.2765518087
 30
0.0
 10
18.656818325
 20
20.2923677264
 30
0.0
 10
17.8174515367
 20
19.9318347217
 30
0.0
 10
17.4065480959
 20
19.4833024381
 30
0.0
 10
17.2563914975
 20
19.2267676267
 30
0.0
  0
SPLINE
  5
2D0
100
AcDbEntity
  8
0
100
AcDbSpline
 62
7
  6
BYLAYER
 70
0
 71
3
 72
9
 73
5
 74
0
 42
0.0000001
 43
0.0000001
 44
0.0000000001
 40
0.0
 40
0.0
 40
0.0
 40
0.0
 40
0.5000321897
 40
1.0
 40
1.0
 40
1.0
 40
1.0
 10
17.256235726
 20
17.1165014568
 30
0.0
 10
17.4404304157
 20
16.8021125151
 30
0.0
 10
17.9778340339
 20
16.2714420113
 30
0.0
 10
18.7103197193
 20
16.0771450158
 30
0.0
 10
19.0767991055
 20
16.0771199743
 30
0.0
  0
SPLINE
  5
2D1
100
AcDbEntity
  8
0
100
AcDbSpline
 62
7
  6
BYLAYER
 70
0
 71
3
 72
9
 73
5
 74
0
 42
0.0000001
 43
0.0000001
 44
0.0000000001
 40
0.0
 40
0.0
 40
0.0
 40
0.0
 40
0.5000592377
 40
1.0
 40
1.0
 40
1.0
 40
1.0
 10
19.0767991053
 20
16.0771199743
 30
0.0
 10
19.3059117457
 20
16.0771045374
 30
0.0
 10
19.7640423702
 20
16.1519199596
 30
0.0
 10
20.1738234056
 20
16.368484545
 30
0.0
 10
20.3558101092
 20
16.5064893851
 30
0.0
  0
SPLINE
  5
2D2
100
AcDbEntity
  8
0
100
AcDbSpline
 62
7
  6
BYLAYER
 70
0
 71
3
 72
9
 73
5
 74
0
 42
0.0000001
 43
0.0000001
 44
0.0000000001
 40
0.0
 40
0.0
 40
0.0
 40
0.0
 40
0.5
 40
1.0
 40
1.0
 40
1.0
 40
1.0
 10
41.0800200279
 20
19.3272650444
 30
0.0
 10
40.8871561563
 20
19.608680103
 30
0.0
 10
40.3584990735
 20
20.0766907834
 30
0.0
 10
39.6678257687
 20
20.2460295642
 30
0.0
 10
39.3223067844
 20
20.2460296385
 30
0.0
  0
SPLINE
  5
2D3
100
AcDbEntity
  8
0
100
AcDbSpline
 62
7
  6
BYLAYER
 70
0
 71
3
 72
9
 73
5
 74
0
 42
0.0000001
 43
0.0000001
 44
0.0000000001
 40
0.0
 40
0.0
 40
0.0
 40
0.0
 40
0.5
 40
1.0
 40
1.0
 40
1.0
 40
1.0
 10
39.3223067844
 20
20.2460296385
 30
0.0
 10
39.0940791427
 20
20.2460296876
 30
0.0
 10
38.6376672804
 20
20.1729854323
 30
0.0
 10
38.2285136063
 20
19.9614407531
 30
0.0
 10
38.0463290667
 20
19.8265014528
 30
0.0
  0
SPLINE
  5
2D4
100
AcDbEntity
  8
0
100
AcDbSpline
 62
7
  6
BYLAYER
 70
0
 71
3
 72
9
 73
5
 74
0
 42
0.0000001
 43
0.0000001
 44
0.0000000001
 40
0.0
 40
0.0
 40
0.0
 40
0.0
 40
0.4999716997
 40
1.0
 40
1.0
 40
1.0
 40
1.0
 10
38.0382588916
 20
16.4965057654
 30
0.0
 10
38.2205087563
 20
16.3552546306
 30
0.0
 10
38.6316602907
 20
16.1334606905
 30
0.0
 10
39.0921138843
 20
16.0567904399
 30
0.0
 10
39.3223759535
 20
16.0567981701
 30
0.0
  0
SPLINE
  5
2D5
100
AcDbEntity
  8
0
100
AcDbSpline
 62
7
  6
BYLAYER
 70
0
 71
3
 72
9
 73
5
 74
0
 42
0.0000001
 43
0.0000001
 44
0.0000000001
 40
0.0
 40
0.0
 40
0.0
 40
0.0
 40
0.4999668125
 40
1.0
 40
1.0
 40
1.0
 40
1.0
 10
39.3223759534
 20
16.0567981701
 30
0.0
 10
39.6693611778
 20
16.0568099543
 30
0.0
 10
40.3629864282
 20
16.2330280534
 30
0.0
 10
40.8898959816
 20
16.7190018346
 30
0.0
 10
41.0800578102
 20
17.0104518215
 30
0.0
  0
SPLINE
  5
2D6
100
AcDbEntity
  8
0
100
AcDbSpline
 62
7
  6
BYLAYER
 70
0
 71
3
 72
11
 73
7
 74
0
 42
0.0000001
 43
0.0000001
 44
0.0000000001
 40
0.0
 40
0.0
 40
0.0
 40
0.0
 40
0.2500263962
 40
0.500038718
 40
0.7500510398
 40
1.0
 40
1.0
 40
1.0
 40
1.0
 10
37.5905503094
 20
19.8364579909
 30
0.0
 10
37.3539757868
 20
20.0170458583
 30
0.0
 10
36.8030861702
 20
20.2765518087
 30
0.0
 10
35.8892497213
 20
20.2923677264
 30
0.0
 10
35.049882933
 20
19.9318347217
 30
0.0
 10
34.6389794922
 20
19.4833024382
 30
0.0
 10
34.4888228938
 20
19.2267676267
 30
0.0
  0
SPLINE
  5
2D7
100
AcDbEntity
  8
0
100
AcDbSpline
 62
7
  6
BYLAYER
 70
0
 71
3
 72
9
 73
5
 74
0
 42
0.0000001
 43
0.0000001
 44
0.0000000001
 40
0.0
 40
0.0
 40
0.0
 40
0.0
 40
0.5000321896
 40
1.0
 40
1.0
 40
1.0
 40
1.0
 10
34.4886671223
 20
17.1165014568
 30
0.0
 10
34.672861812
 20
16.8021125151
 30
0.0
 10
35.2102654302
 20
16.2714420113
 30
0.0
 10
35.9427511156
 20
16.0771450158
 30
0.0
 10
36.3092305019
 20
16.0771199743
 30
0.0
  0
SPLINE
  5
2D8
100
AcDbEntity
  8
0
100
AcDbSpline
 62
7
  6
BYLAYER
 70
0
 71
3
 72
9
 73
5
 74
0
 42
0.0000001
 43
0.0000001
 44
0.0000000001
 40
0.0
 40
0.0
 40
0.0
 40
0.0
 40
0.5000592377
 40
1.0
 40
1.0
 40
1.0
 40
1.0
 10
36.3092305016
 20
16.0771199743
 30
0.0
 10
36.538343142
 20
16.0771045374
 30
0.0
 10
36.9964737665
 20
16.1519199596
 30
0.0
 10
37.4062548019
 20
16.368484545
 30
0.0
 10
37.5882415055
 20
16.5064893851
 30
0.0
  0
SPLINE
  5
2D9
100
AcDbEntity
  8
0
100
AcDbSpline
 62
7
  6
BYLAYER
 70
0
 71
3
 72
9
 73
5
 74
0
 42
0.0000001
 43
0.0000001
 44
0.0000000001
 40
0.0
 40
0.0
 40
0.0
 40
0.0
 40
0.4999224012
 40
1.0
 40
1.0
 40
1.0
 40
1.0
 10
27.6947417656
 20
51.6977743204
 30
0.0
 10
27.3271587407
 20
51.6977228822
 30
0.0
 10
26.5924249268
 20
51.4993661549
 30
0.0
 10
26.055417673
 20
50.9582215145
 30
0.0
 10
25.8724233657
 20
50.6380219581
 30
0.0
  0
SPLINE
  5
2DA
100
AcDbEntity
  8
0
100
AcDbSpline
 62
7
  6
BYLAYER
 70
0
 71
3
 72
9
 73
5
 74
0
 42
0.0000001
 43
0.0000001
 44
0.0000000001
 40
0.0
 40
0.0
 40
0.0
 40
0.0
 40
0.4998914215
 40
1.0
 40
1.0
 40
1.0
 40
1.0
 10
28.9790712867
 20
51.2580698954
 30
0.0
 10
28.7968224558
 20
51.3993195087
 30
0.0
 10
28.3856078323
 20
51.6211468554
 30
0.0
 10
27.925076054
 20
51.6978060996
 30
0.0
 10
27.6947417649
 20
51.6977743207
 30
0.0
  0
SPLINE
  5
2DB
100
AcDbEntity
  8
0
100
AcDbSpline
 62
7
  6
BYLAYER
 70
0
 71
3
 72
9
 73
5
 74
0
 42
0.0000001
 43
0.0000001
 44
0.0000000001
 40
0.0
 40
0.0
 40
0.0
 40
0.0
 40
0.5000512033
 40
1.0
 40
1.0
 40
1.0
 40
1.0
 10
30.7080830418
 20
51.6774525363
 30
0.0
 10
30.4789773052
 20
51.6774657183
 30
0.0
 10
30.0208538505
 20
51.602649214
 30
0.0
 10
29.6110786248
 20
51.3860875325
 30
0.0
 10
29.429091647
 20
51.248082296
 30
0.0
  0
SPLINE
  5
2DC
100
AcDbEntity
  8
0
100
AcDbSpline
 62
7
  6
BYLAYER
 70
0
 71
3
 72
9
 73
5
 74
0
 42
0.0000001
 43
0.0000001
 44
0.0000000001
 40
0.0
 40
0.0
 40
0.0
 40
0.0
 40
0.5000287006
 40
1.0
 40
1.0
 40
1.0
 40
1.0
 10
32.4800200279
 20
50.7170256027
 30
0.0
 10
32.290375117
 20
51.0100356517
 30
0.0
 10
31.7605273827
 20
51.4996117829
 30
0.0
 10
31.0590227903
 20
51.6774320981
 30
0.0
 10
30.7080830417
 20
51.6774525363
 30
0.0
  0
SPLINE
  5
2DD
100
AcDbEntity
  8
0
100
AcDbSpline
 62
7
  6
BYLAYER
 70
0
 71
3
 72
9
 73
5
 74
0
 42
0.0000001
 43
0.0000001
 44
0.0000000001
 40
0.0
 40
0.0
 40
0.0
 40
0.0
 40
0.5000648382
 40
1.0
 40
1.0
 40
1.0
 40
1.0
 10
30.7077421142
 20
47.4852305713
 30
0.0
 10
31.0585826544
 20
47.4851932945
 30
0.0
 10
31.7597880099
 20
47.6635327258
 30
0.0
 10
32.2899442503
 20
48.1548119045
 30
0.0
 10
32.4799567546
 20
48.4488942194
 30
0.0
  0
SPLINE
  5
2DE
100
AcDbEntity
  8
0
100
AcDbSpline
 62
7
  6
BYLAYER
 70
0
 71
3
 72
9
 73
5
 74
0
 42
0.0000001
 43
0.0000001
 44
0.0000000001
 40
0.0
 40
0.0
 40
0.0
 40
0.0
 40
0.5000734923
 40
1.0
 40
1.0
 40
1.0
 40
1.0
 10
29.4268413792
 20
47.9180706704
 30
0.0
 10
29.6090945525
 20
47.7789587235
 30
0.0
 10
30.0194586573
 20
47.560698053
 30
0.0
 10
30.4783190173
 20
47.4852546544
 30
0.0
 10
30.7077421141
 20
47.4852305712
 30
0.0
  0
SPLINE
  5
2DF
100
AcDbEntity
  8
0
100
AcDbSpline
 62
7
  6
BYLAYER
 70
0
 71
3
 72
9
 73
5
 74
0
 42
0.0000001
 43
0.0000001
 44
0.0000000001
 40
0.0
 40
0.0
 40
0.0
 40
0.0
 40
0.4999224012
 40
1.0
 40
1.0
 40
1.0
 40
1.0
 10
10.4623103693
 20
51.6977743204
 30
0.0
 10
10.0947273444
 20
51.6977228822
 30
0.0
 10
9.3599935305
 20
51.4993661549
 30
0.0
 10
8.8229862768
 20
50.9582215145
 30
0.0
 10
8.6399919694
 20
50.6380219581
 30
0.0
  0
SPLINE
  5
2E0
100
AcDbEntity
  8
0
100
AcDbSpline
 62
7
  6
BYLAYER
 70
0
 71
3
 72
9
 73
5
 74
0
 42
0.0000001
 43
0.0000001
 44
0.0000000001
 40
0.0
 40
0.0
 40
0.0
 40
0.0
 40
0.4998914215
 40
1.0
 40
1.0
 40
1.0
 40
1.0
 10
11.7466398904
 20
51.2580698954
 30
0.0
 10
11.5643910595
 20
51.3993195087
 30
0.0
 10
11.153176436
 20
51.6211468554
 30
0.0
 10
10.6926446577
 20
51.6978060996
 30
0.0
 10
10.4623103686
 20
51.6977743207
 30
0.0
  0
SPLINE
  5
2E1
100
AcDbEntity
  8
0
100
AcDbSpline
 62
7
  6
BYLAYER
 70
0
 71
3
 72
9
 73
5
 74
0
 42
0.0000001
 43
0.0000001
 44
0.0000000001
 40
0.0
 40
0.0
 40
0.0
 40
0.0
 40
0.5000583124
 40
1.0
 40
1.0
 40
1.0
 40
1.0
 10
13.4756702369
 20
51.6774525352
 30
0.0
 10
13.2465582957
 20
51.6774677422
 30
0.0
 10
12.7884282955
 20
51.6026521908
 30
0.0
 10
12.3786477691
 20
51.3860878171
 30
0.0
 10
12.1966609778
 20
51.2480828474
 30
0.0
  0
SPLINE
  5
2E2
100
AcDbEntity
  8
0
100
AcDbSpline
 62
7
  6
BYLAYER
 70
0
 71
3
 72
9
 73
5
 74
0
 42
0.0000001
 43
0.0000001
 44
0.0000000001
 40
0.0
 40
0.0
 40
0.0
 40
0.0
 40
0.5001123727
 40
1.0
 40
1.0
 40
1.0
 40
1.0
 10
12.194408403
 20
47.9180718763
 30
0.0
 10
12.3766615748
 20
47.7789596598
 30
0.0
 10
12.786993894
 20
47.5607154579
 30
0.0
 10
13.2458151008
 20
47.4852664966
 30
0.0
 10
13.4752026745
 20
47.4852305853
 30
0.0
  0
SPLINE
  5
2E3
100
AcDbEntity
  8
0
100
AcDbSpline
 62
7
  6
BYLAYER
 70
0
 71
3
 72
9
 73
5
 74
0
 42
0.0000001
 43
0.0000001
 44
0.0000000001
 40
0.0
 40
0.0
 40
0.0
 40
0.0
 40
0.5000947474
 40
1.0
 40
1.0
 40
1.0
 40
1.0
 10
13.4752026746
 20
47.4852305856
 30
0.0
 10
13.8362872002
 20
47.4851732968
 30
0.0
 10
14.5578802178
 20
47.6742716515
 30
0.0
 10
15.0932916262
 20
48.1925266546
 30
0.0
 10
15.2799374055
 20
48.5006949226
 30
0.0
  0
SPLINE
  5
2E4
100
AcDbEntity
  8
0
100
AcDbSpline
 62
7
  6
BYLAYER
 70
0
 71
3
 72
9
 73
5
 74
0
 42
0.0000001
 43
0.0000001
 44
0.0000000001
 40
0.0
 40
0.0
 40
0.0
 40
0.0
 40
0.5000321895
 40
1.0
 40
1.0
 40
1.0
 40
1.0
 10
15.2800200279
 20
50.665272882
 30
0.0
 10
15.0937906168
 20
50.972348525
 30
0.0
 10
14.5587472695
 20
51.4888450233
 30
0.0
 10
13.8368412915
 20
51.6774282397
 30
0.0
 10
13.4756702367
 20
51.6774525351
 30
0.0
  0
ELLIPSE
  5
2E5
100
AcDbEntity
  8
0
100
AcDbEllipse
 62
7
  6
BYLAYER
 10
13.4755305998
 20
49.588006249
 30
0.0
 11
2.1081347042
 21
0.0
 31
0.0
 40
0.9974886758
 41
-0.5433820313
 42
-0.5283164852
  0
ELLIPSE
  5
2E6
100
AcDbEntity
  8
0
100
AcDbEllipse
 62
7
  6
BYLAYER
 10
13.4755305998
 20
49.588006249
 30
0.0
 11
2.1059488668
 21
0.0
 31
0.0
 40
0.9921330564
 41
0.5265354393
 42
0.5416612475
  0
ELLIPSE
  5
2E7
100
AcDbEntity
  8
0
100
AcDbEllipse
 62
7
  6
BYLAYER
 10
30.7079619961
 20
49.588006249
 30
0.0
 11
2.1081347042
 21
0.0
 31
0.0
 40
0.9974886758
 41
-0.5724413708
 42
-0.5283164852
  0
ELLIPSE
  5
2E8
100
AcDbEntity
  8
0
100
AcDbEllipse
 62
7
  6
BYLAYER
 10
30.7079619961
 20
49.588006249
 30
0.0
 11
2.1059488668
 21
-0.0
 31
0.0
 40
0.9921330564
 41
0.5265354393
 42
0.5708286986
  0
ELLIPSE
  5
2E9
100
AcDbEntity
  8
0
100
AcDbEllipse
 62
7
  6
BYLAYER
 10
39.3223063201
 20
18.1664366502
 30
0.0
 11
-0.0
 21
2.1097032863
 31
0.0
 40
0.9960255397
 41
-2.1507621217
 42
-2.0917416888
  0
ELLIPSE
  5
2EA
100
AcDbEntity
  8
0
100
AcDbEllipse
 62
7
  6
BYLAYER
 10
39.3223063201
 20
18.1664366502
 30
0.0
 11
2.1184526716
 21
-0.0
 31
0.0
 40
0.9816259816
 41
0.5348721021
 42
0.5921979384
  0
ELLIPSE
  5
2EB
100
AcDbEntity
  8
0
100
AcDbEllipse
 62
7
  6
BYLAYER
 10
30.7079619961
 20
18.1664366502
 30
0.0
 11
2.1081347042
 21
-0.0
 31
0.0
 40
0.9974886758
 41
0.5283164852
 42
0.5724413708
  0
ELLIPSE
  5
2EC
100
AcDbEntity
  8
0
100
AcDbEllipse
 62
7
  6
BYLAYER
 10
22.0898749238
 20
18.1664366502
 30
0.0
 11
0.0
 21
2.1097032863
 31
0.0
 40
0.9960255397
 41
-2.1219609173
 42
-2.0917416888
  0
ELLIPSE
  5
2ED
100
AcDbEntity
  8
0
100
AcDbEllipse
 62
7
  6
BYLAYER
 10
22.0898749238
 20
18.1664366502
 30
0.0
 11
2.1184526716
 21
0.0
 31
0.0
 40
0.9816259816
 41
0.5348721021
 42
0.5641847307
  0
ELLIPSE
  5
2EE
100
AcDbEntity
  8
0
100
AcDbEllipse
 62
7
  6
BYLAYER
 10
13.4755305998
 20
18.1664366502
 30
0.0
 11
2.1081347042
 21
-0.0
 31
0.0
 40
0.9974886758
 41
0.5283164852
 42
0.5433820313
  0
ELLIPSE
  5
2EF
100
AcDbEntity
  8
0
100
AcDbEllipse
 62
7
  6
BYLAYER
 10
13.4755305998
 20
18.1665014552
 30
0.0
 11
2.1081347042
 21
-0.0
 31
0.0
 40
0.9974886758
 41
6.8265834298
 42
8.5071495669
  0
ELLIPSE
  5
2F0
100
AcDbEntity
  8
0
100
AcDbEllipse
 62
7
  6
BYLAYER
 10
13.4755305998
 20
18.1665014552
 30
0.0
 11
2.1059488668
 21
0.0
 31
0.0
 40
0.9921330564
 41
4.0597660661
 42
5.7566498679
  0
ELLIPSE
  5
2F1
100
AcDbEntity
  8
0
100
AcDbEllipse
 62
7
  6
BYLAYER
 10
10.4625965282
 20
18.1665014552
 30
0.0
 11
2.1184526716
 21
0.0
 31
0.0
 40
0.9816259816
 41
0.9243974698
 42
2.6067205515
  0
ELLIPSE
  5
2F2
100
AcDbEntity
  8
0
100
AcDbEllipse
 62
7
  6
BYLAYER
 10
10.4625965282
 20
18.1665014552
 30
0.0
 11
-0.0
 21
2.1097032863
 31
0.0
 40
0.9960255397
 41
2.0917416888
 42
3.7990054173
  0
ELLIPSE
  5
2F3
100
AcDbEntity
  8
0
100
AcDbEllipse
 62
7
  6
BYLAYER
 10
30.7079619961
 20
18.1665014552
 30
0.0
 11
2.1081347042
 21
0.0
 31
0.0
 40
0.9974886758
 41
6.8556414981
 42
8.5071492496
  0
ELLIPSE
  5
2F4
100
AcDbEntity
  8
0
100
AcDbEllipse
 62
7
  6
BYLAYER
 10
30.7079619961
 20
18.1665014552
 30
0.0
 11
2.1059488668
 21
-0.0
 31
0.0
 40
0.9921330564
 41
4.05976512
 42
5.7566498679
  0
ELLIPSE
  5
2F5
100
AcDbEntity
  8
0
100
AcDbEllipse
 62
7
  6
BYLAYER
 10
27.6950279245
 20
18.1665014552
 30
0.0
 11
2.1184526716
 21
0.0
 31
0.0
 40
0.9816259816
 41
0.9243974698
 42
2.6067205515
  0
ELLIPSE
  5
2F6
100
AcDbEntity
  8
0
100
AcDbEllipse
 62
7
  6
BYLAYER
 10
27.6950279245
 20
18.1665014552
 30
0.0
 11
0.0
 21
2.1097032863
 31
0.0
 40
0.9960255397
 41
2.0917416888
 42
3.7990054173
  0
ELLIPSE
  5
2F7
100
AcDbEntity
  8
0
100
AcDbEllipse
 62
7
  6
BYLAYER
 10
36.3093722485
 20
49.5880710541
 30
0.0
 11
2.1081347042
 21
-0.0
 31
0.0
 40
0.9974886758
 41
-2.6131402015
 42
-0.9175976277
  0
ELLIPSE
  5
2F8
100
AcDbEntity
  8
0
100
AcDbEllipse
 62
7
  6
BYLAYER
 10
36.3093722485
 20
49.5880710541
 30
0.0
 11
2.1059488668
 21
-0.0
 31
0.0
 40
0.9921330564
 41
0.9181734413
 42
2.6150572143
  0
ELLIPSE
  5
2F9
100
AcDbEntity
  8
0
100
AcDbEllipse
 62
7
  6
BYLAYER
 10
39.3223063201
 20
49.5880710541
 30
0.0
 11
0.0
 21
2.1097032863
 31
0.0
 40
0.9960255397
 41
5.2333343424
 42
6.9405980709
  0
ELLIPSE
  5
2FA
100
AcDbEntity
  8
0
100
AcDbEllipse
 62
7
  6
BYLAYER
 10
39.3223063201
 20
49.5880710541
 30
0.0
 11
2.1184526716
 21
-0.0
 31
0.0
 40
0.9816259816
 41
-2.2171951838
 42
-0.5348721021
  0
ELLIPSE
  5
2FB
100
AcDbEntity
  8
0
100
AcDbEllipse
 62
7
  6
BYLAYER
 10
27.6950279245
 20
49.5880710541
 30
0.0
 11
2.1184526716
 21
0.0
 31
0.0
 40
0.9816259816
 41
-2.6067205515
 42
-0.9243974698
  0
ELLIPSE
  5
2FC
100
AcDbEntity
  8
0
100
AcDbEllipse
 62
7
  6
BYLAYER
 10
19.0769408522
 20
49.5880710541
 30
0.0
 11
2.1081347042
 21
0.0
 31
0.0
 40
0.9974886758
 41
-2.6131402015
 42
-0.9175976277
  0
ELLIPSE
  5
2FD
100
AcDbEntity
  8
0
100
AcDbEllipse
 62
7
  6
BYLAYER
 10
19.0769408522
 20
49.5880710541
 30
0.0
 11
2.1059488668
 21
0.0
 31
0.0
 40
0.9921330564
 41
0.9181734413
 42
2.6150572143
  0
ELLIPSE
  5
2FE
100
AcDbEntity
  8
0
100
AcDbEllipse
 62
7
  6
BYLAYER
 10
22.0898749238
 20
49.5880710541
 30
0.0
 11
0.0
 21
2.1097032863
 31
0.0
 40
0.9960255397
 41
5.2333343424
 42
6.9405980709
  0
ELLIPSE
  5
2FF
100
AcDbEntity
  8
0
100
AcDbEllipse
 62
7
  6
BYLAYER
 10
22.0898749238
 20
49.5880710541
 30
0.0
 11
2.1184526716
 21
0.0
 31
0.0
 40
0.9816259816
 41
-2.2171951838
 42
-0.5348721021
  0
ELLIPSE
  5
300
100
AcDbEntity
  8
0
100
AcDbEllipse
 62
7
  6
BYLAYER
 10
10.4625965282
 20
49.5880710541
 30
0.0
 11
2.1184526716
 21
0.0
 31
0.0
 40
0.9816259816
 41
-2.6067205515
 42
-0.9243974698
  0
ENDSEC
  0
SECTION
  2
OBJECTS
  0
DICTIONARY
  5
C
100
AcDbDictionary
280
0
281
1
  3
ACAD_GROUP
350
D
  3
ACAD_MLINESTYLE
350
17
  3
ACAD_LAYOUT
350
1A
  3
ACAD_PLOTSETTINGS
350
19
  3
ACAD_PLOTSTYLENAME
350
E
  0
DICTIONARY
  5
D
102
{ACAD_REACTORS
330
C
102
}
100
AcDbDictionary
280
0
281
1
  0
ACDBDICTIONARYWDFLT
  5
E
102
{ACAD_REACTORS
330
C
102
}
100
AcDbDictionary
281
1
  3
Normal
350
F
100
AcDbDictionaryWithDefault
340
F
  0
DICTIONARY
  5
17
102
{ACAD_REACTORS
330
C
102
}
100
AcDbDictionary
280
0
281
1
  3
Standard
350
18
  0
DICTIONARY
  5
19
102
{ACAD_REACTORS
330
C
102
}
100
AcDbDictionary
281
1
  0
DICTIONARY
  5
1A
102
{ACAD_REACTORS
330
C
102
}
100
AcDbDictionary
281
1
  3
Model
350
301
  3
Layout1
350
302
  0
ACDBPLACEHOLDER
  5
F
102
{ACAD_REACTORS
330
E
102
}
  0
MLINESTYLE
  5
18
102
{ACAD_REACTORS
330
17
102
}
100
AcDbMlineStyle
  2
STANDARD
 70
0
  3

 62
256
 51
90.0
 52
90.0
 71
2
 49
0.5
 62
256
  6
BYLAYER
 49
-0.5
 62
256
  6
BYLAYER
  0
LAYOUT
  5
301
102
{ACAD_REACTORS
330
1A
102
}
100
AcDbPlotSettings
  1

  2
none_device
  4

  6

 40
0.0
 41
0.0
 42
0.0
 43
0.0
 44
210.0
 45
297.0
 46
0.0
 47
0.0
 48
0.0
 49
0.0
140
0.0
141
0.0
142
1.0
143
1.0
 70
1024
 72
1
 73
0
 74
0
  7

 75
0
147
1.0
148
0.0
149
0.0
100
AcDbLayout
  1
Model
 70
0
 71
0
 10
0.0
 20
0.0
 11
210.0
 21
297.0
 12
0.0
 22
0.0
 32
0.0
 14
0.0
 24
0.0
 34
0.0
 15
0.0
 25
0.0
 35
0.0
146
0.0
 13
0.0
 23
0.0
 33
0.0
 16
1.0
 26
0.0
 36
0.0
 17
0.0
 27
1.0
 37
0.0
 76
0
330
210
345
0
346
0
  0
LAYOUT
  5
302
102
{ACAD_REACTORS
330
1A
102
}
100
AcDbPlotSettings
  1

  2
none_device
  4

  6

 40
0.0
 41
0.0
 42
0.0
 43
0.0
 44
210.0
 45
297.0
 46
0.0
 47
0.0
 48
0.0
 49
0.0
140
0.0
141
0.0
142
1.0
143
1.0
 70
0
 72
1
 73
0
 74
0
  7

 75
0
147
1.0
148
0.0
149
0.0
100
AcDbLayout
  1
Layout1
 70
0
 71
1
 10
0.0
 20
0.0
 11
210.0
 21
297.0
 12
0.0
 22
0.0
 32
0.0
 14
0.0
 24
0.0
 34
0.0
 15
0.0
 25
0.0
 35
0.0
146
0.0
 13
0.0
 23
0.0
 33
0.0
 16
1.0
 26
0.0
 36
0.0
 17
0.0
 27
1.0
 37
0.0
 76
0
330
211
345
0
346
0
  0
ENDSEC
  0
EOF
