999
DXF file: C:\Users\sesa63760\Dev\_Creo\CAD\MCADPP0003354_3D-CAD\drw0001_1.dxf
999
Pro/ENGINEER 2019471 by Parametric Technology Corporation
  0
SECTION
  2
HEADER
  9
$ACADVER
  1
AC1024
  9
$DWGCODEPAGE
  3
ANSI_1252
  9
$EXTMAX
 10
91.4928736553
 20
129.3970641696
 30
0.0
  9
$EXTMIN
 10
0.0
 20
0.0
 30
0.0
  9
$LIMMIN
 10
0.0
 20
0.0
  9
$LIMMAX
 10
91.4928736553
 20
129.3970641696
  9
$VIEWCTR
 10
45.7464368276
 20
64.6985320848
  9
$VIEWSIZE
 40
129.3970641696
  9
$CLAYER
  8
0
  9
$LTSCALE
 40
8.4347715903
  9
$CELTYPE
  6
BYLAYER
  9
$DIMSCALE
 40
1.0
  9
$DIMASZ
 40
1.0892008768
  9
$DIMEXO
 40
1.0
  9
$DIMDLI
 40
5.8276603715
  9
$DIMEXE
 40
1.0
  9
$DIMCEN
 40
1.3802353511
  9
$DIMLFAC
 40
1.0
  9
$DIMBLK
  1
_FILLED
  9
$DIMALT
 70
0
  9
$DIMALTF
 40
0.0393700787
  9
$DIMTXT
 40
1.5248812276
  9
$DIMTOL
 70
1
  9
$DIMLIM
 70
0
  9
$DIMTFAC
 40
1.0
  9
$DIMTP
 40
0.01
  9
$DIMTM
 40
0.01
  9
$DIMGAP
 40
0.625
  9
$DIMDSEP
 70
46
  9
$AUNITS
 70
0
  9
$PDMODE
 70
3
  9
$PDSIZE
 40
0.3125
  9
$HANDSEED
  5
423
  9
$TILEMODE
 70
1
  9
$MEASUREMENT
 70
1
  9
$INSUNITS
 70
4
  0
ENDSEC
  0
SECTION
  2
CLASSES
  0
CLASS
  1
ACDBDICTIONARYWDFLT
  2
AcDbDictionaryWithDefault
  3
AutoCAD 2000
 90
0
 91
1
280
0
281
0
  0
CLASS
  1
ACDBPLACEHOLDER
  2
AcDbPlaceHolder
  3
AutoCAD 2000
 90
0
 91
1
280
0
281
0
  0
CLASS
  1
LAYOUT
  2
AcDbLayout
  3
AutoCAD 2000
 90
0
 91
0
280
0
281
0
  0
ENDSEC
  0
SECTION
  2
TABLES
  0
TABLE
  2
VPORT
  5
8
100
AcDbSymbolTable
 70
2
  0
VPORT
  5
1F4
100
AcDbSymbolTableRecord
100
AcDbViewportTableRecord
  2
*ACTIVE
 70
0
 10
0.0
 20
0.0
 11
1.0
 21
1.0
 12
45.7464368276
 22
64.6985320848
 13
0.0
 23
0.0
 14
1.0
 24
1.0
 15
0.0
 25
0.0
 16
0.0
 26
0.0
 36
1.0
 17
0.0
 27
0.0
 37
0.0
 40
129.3970641696
 41
0.7070707071
 42
50.0
 43
0.0
 44
0.0
 50
0.0
 51
0.0
 71
0
 72
100
 73
1
 74
1
 75
0
 76
0
 77
0
 78
0
  0
ENDTAB
  0
TABLE
  2
LTYPE
  5
5
100
AcDbSymbolTable
 70
6
  0
LTYPE
  5
14
100
AcDbSymbolTableRecord
100
AcDbLinetypeTableRecord
  2
BYBLOCK
 70
0
  3

 72
65
 73
0
 40
0.0
  0
LTYPE
  5
15
100
AcDbSymbolTableRecord
100
AcDbLinetypeTableRecord
  2
BYLAYER
 70
0
  3

 72
65
 73
0
 40
0.0
  0
LTYPE
  5
16
100
AcDbSymbolTableRecord
100
AcDbLinetypeTableRecord
  2
CONTINUOUS
 70
64
  3
Solid line
 72
65
 73
0
 40
0.0
  0
LTYPE
  5
1F5
100
AcDbSymbolTableRecord
100
AcDbLinetypeTableRecord
  2
CENTER
 70
64
  3
____ _ ____ _ ____ _ ____ _ ____ _ ____ _ ____
 72
65
 73
4
 40
0.6
 49
0.375
 74
0
 49
-0.075
 74
0
 49
0.075
 74
0
 49
-0.075
 74
0
  0
LTYPE
  5
1F6
100
AcDbSymbolTableRecord
100
AcDbLinetypeTableRecord
  2
HIDDEN
 70
64
  3
- - - - - - - - - - - - - - - - - - - -
 72
65
 73
2
 40
0.2
 49
0.1
 74
0
 49
-0.1
 74
0
  0
LTYPE
  5
1F7
100
AcDbSymbolTableRecord
100
AcDbLinetypeTableRecord
  2
PHANTOM
 70
64
  3
_____ _ _ _____ _ _ _____ _ _ _____
 72
65
 73
6
 40
0.8
 49
0.45
 74
0
 49
-0.05
 74
0
 49
0.1
 74
0
 49
-0.05
 74
0
 49
0.1
 74
0
 49
-0.05
 74
0
  0
LTYPE
  5
1F8
100
AcDbSymbolTableRecord
100
AcDbLinetypeTableRecord
  2
DOT
 70
64
  3
. . . . . . . . . . . . . . . . . . . .
 72
65
 73
2
 40
0.2
 49
0.1
 74
0
 49
-0.1
 74
0
  0
LTYPE
  5
1F9
100
AcDbSymbolTableRecord
100
AcDbLinetypeTableRecord
  2
DASHED
 70
64
  3
- - - - - - - - - - - - - - - - - - - -
 72
65
 73
2
 40
0.2
 49
0.1
 74
0
 49
-0.1
 74
0
  0
ENDTAB
  0
TABLE
  2
LAYER
  5
2
100
AcDbSymbolTable
 70
36
  0
LAYER
  5
10
100
AcDbSymbolTableRecord
100
AcDbLayerTableRecord
  2
0
 70
0
 62
7
  6
CONTINUOUS
370
-3
390
F
  0
LAYER
  5
1FA
100
AcDbSymbolTableRecord
100
AcDbLayerTableRecord
  2
DEFAULT_1
 70
0
 62
7
  6
CENTER
370
-3
390
F
  0
LAYER
  5
1FB
100
AcDbSymbolTableRecord
100
AcDbLayerTableRecord
  2
DEFAULT_2
 70
0
 62
8
  6
HIDDEN
370
-3
390
F
  0
LAYER
  5
1FC
100
AcDbSymbolTableRecord
100
AcDbLayerTableRecord
  2
DEFAULT_3
 70
0
 62
7
  6
PHANTOM
370
-3
390
F
  0
LAYER
  5
1FD
100
AcDbSymbolTableRecord
100
AcDbLayerTableRecord
  2
00_COMPONENTS
 70
0
 62
7
  6
CONTINUOUS
370
-3
390
F
  0
LAYER
  5
1FE
100
AcDbSymbolTableRecord
100
AcDbLayerTableRecord
  2
01_1_DEFAULT_DATUMS
 70
0
 62
7
  6
CONTINUOUS
370
-3
390
F
  0
LAYER
  5
1FF
100
AcDbSymbolTableRecord
100
AcDbLayerTableRecord
  2
01_PLANES
 70
0
 62
7
  6
CONTINUOUS
370
-3
390
F
  0
LAYER
  5
200
100
AcDbSymbolTableRecord
100
AcDbLayerTableRecord
  2
02_COORD_SYS
 70
0
 62
7
  6
CONTINUOUS
370
-3
390
F
  0
LAYER
  5
201
100
AcDbSymbolTableRecord
100
AcDbLayerTableRecord
  2
03_AXES
 70
0
 62
7
  6
CONTINUOUS
370
-3
390
F
  0
LAYER
  5
202
100
AcDbSymbolTableRecord
100
AcDbLayerTableRecord
  2
04_POINTS
 70
0
 62
7
  6
CONTINUOUS
370
-3
390
F
  0
LAYER
  5
203
100
AcDbSymbolTableRecord
100
AcDbLayerTableRecord
  2
05_CURVES
 70
0
 62
7
  6
CONTINUOUS
370
-3
390
F
  0
LAYER
  5
204
100
AcDbSymbolTableRecord
100
AcDbLayerTableRecord
  2
06_SURFS
 70
0
 62
7
  6
CONTINUOUS
370
-3
390
F
  0
LAYER
  5
205
100
AcDbSymbolTableRecord
100
AcDbLayerTableRecord
  2
07_COSMETICS
 70
0
 62
7
  6
CONTINUOUS
370
-3
390
F
  0
LAYER
  5
206
100
AcDbSymbolTableRecord
100
AcDbLayerTableRecord
  2
10_NOTES
 70
0
 62
7
  6
CONTINUOUS
370
-3
390
F
  0
LAYER
  5
207
100
AcDbSymbolTableRecord
100
AcDbLayerTableRecord
  2
11_NOTES_PUB
 70
0
 62
7
  6
CONTINUOUS
370
-3
390
F
  0
LAYER
  5
208
100
AcDbSymbolTableRecord
100
AcDbLayerTableRecord
  2
13_REF_GTOL
 70
0
 62
7
  6
CONTINUOUS
370
-3
390
F
  0
LAYER
  5
209
100
AcDbSymbolTableRecord
100
AcDbLayerTableRecord
  2
16_MISC
 70
0
 62
7
  6
CONTINUOUS
370
-3
390
F
  0
LAYER
  5
20A
100
AcDbSymbolTableRecord
100
AcDbLayerTableRecord
  2
17_NO_PRINT
 70
0
 62
7
  6
CONTINUOUS
370
-3
390
F
  0
LAYER
  5
20B
100
AcDbSymbolTableRecord
100
AcDbLayerTableRecord
  2
18_DATUM_CAMS_JOINTS
 70
0
 62
7
  6
CONTINUOUS
370
-3
390
F
  0
LAYER
  5
20C
100
AcDbSymbolTableRecord
100
AcDbLayerTableRecord
  2
19_DATUM_FUNCTIONAL
 70
0
 62
7
  6
CONTINUOUS
370
-3
390
F
  0
LAYER
  5
20D
100
AcDbSymbolTableRecord
100
AcDbLayerTableRecord
  2
20_DATUM_KINEMATIC_SCHEME
 70
0
 62
7
  6
CONTINUOUS
370
-3
390
F
  0
ENDTAB
  0
TABLE
  2
STYLE
  5
3
100
AcDbSymbolTable
 70
1
  0
STYLE
  5
11
100
AcDbSymbolTableRecord
100
AcDbTextStyleTableRecord
  2
STANDARD
 70
0
 40
0.0
 41
0.8
 50
0.0
 71
0
 42
0.2
  3
txt
  4

  0
STYLE
  5
20E
100
AcDbSymbolTableRecord
100
AcDbTextStyleTableRecord
  2
TEXTSTYLE_1
 70
0
 40
0.0
 41
0.8
 50
0.0
 71
0
 42
0.2
  3
gdt
  4

  0
ENDTAB
  0
TABLE
  2
VIEW
  5
6
100
AcDbSymbolTable
 70
0
  0
ENDTAB
  0
TABLE
  2
UCS
  5
7
100
AcDbSymbolTable
 70
0
  0
ENDTAB
  0
TABLE
  2
APPID
  5
9
100
AcDbSymbolTable
 70
1
  0
APPID
  5
20F
100
AcDbSymbolTableRecord
100
AcDbRegAppTableRecord
  2
ACAD
 70
0
  0
ENDTAB
  0
TABLE
  2
BLOCK_RECORD
  5
1
100
AcDbSymbolTable
 70
0
  0
BLOCK_RECORD
  5
210
100
AcDbSymbolTableRecord
100
AcDbBlockTableRecord
  2
*Model_Space
  0
BLOCK_RECORD
  5
211
100
AcDbSymbolTableRecord
100
AcDbBlockTableRecord
  2
*Paper_Space
  0
BLOCK_RECORD
  5
212
100
AcDbSymbolTableRecord
100
AcDbBlockTableRecord
  2
_FILLED
  0
ENDTAB
  0
TABLE
  2
DIMSTYLE
  5
A
100
AcDbSymbolTable
 70
1
100
AcDbDimStyleTable
 71
0
  0
DIMSTYLE
105
213
100
AcDbSymbolTableRecord
100
AcDbDimStyleTableRecord
  2
STANDARD
 70
0
  3

  4

 40
1.0
 41
1.0892008768
 42
1.0
 43
0.38
 44
1.0
 45
0.0
 46
0.0
 47
0.01
 48
0.01
140
1.5248812276
141
0.09
142
0.0
143
25.4
144
1.0
145
0.0
146
1.0
147
0.625
 71
1
 72
0
 73
0
 74
0
 75
0
 76
0
 77
1
 78
8
 79
2
170
0
171
1
172
0
173
0
174
0
175
0
176
0
177
0
178
0
270
2
179
2
271
2
272
2
273
2
274
2
275
0
280
0
281
0
282
0
283
1
284
8
285
0
286
0
287
3
288
0
340
11
278
46
341
212
342
212
343
212
344
212
  0
ENDTAB
  0
ENDSEC
  0
SECTION
  2
BLOCKS
  0
BLOCK
  5
20
100
AcDbEntity
  8
0
100
AcDbBlockBegin
  2
*Model_Space
 70
0
 10
0.0
 20
0.0
 30
0.0
  3
*Model_Space
  1

  0
ENDBLK
  5
21
100
AcDbEntity
  8
0
100
AcDbBlockEnd
  0
BLOCK
  5
1C
100
AcDbEntity
  8
0
100
AcDbBlockBegin
  2
*Paper_Space
 70
0
 10
0.0
 20
0.0
 30
0.0
  3
*Paper_Space
  1

  0
ENDBLK
  5
1D
100
AcDbEntity
  8
0
100
AcDbBlockEnd
  0
BLOCK
  5
214
100
AcDbEntity
  8
0
100
AcDbBlockBegin
  2
_FILLED
 70
64
 10
0.0
 20
0.0
  3
_FILLED
  1

  0
SOLID
  5
215
100
AcDbEntity
  8
0
  6
BYBLOCK
 62
0
100
AcDbTrace
 10
0.0
 20
0.0
 11
-1.0
 21
0.25
 12
-1.0
 22
-0.25
 13
-1.0
 23
-0.25
  0
ENDBLK
  5
216
100
AcDbEntity
  8
0
  6
BYBLOCK
 62
0
100
AcDbBlockEnd
  0
ENDSEC
  0
SECTION
  2
ENTITIES
  0
LINE
  5
217
100
AcDbEntity
  8
0
100
AcDbLine
 62
7
  6
CONTINUOUS
 10
10.6142974374
 20
38.8205086412
 11
42.434235069
 21
20.4496746878
  0
LINE
  5
218
100
AcDbEntity
  8
0
100
AcDbLine
 62
7
  6
CONTINUOUS
 10
10.614311726
 20
38.8205168907
 11
10.6142259945
 21
86.2345994677
  0
LINE
  5
219
100
AcDbEntity
  8
0
100
AcDbLine
 62
7
  6
CONTINUOUS
 10
11.9223896675
 20
79.5719510762
 11
11.9223952776
 21
76.4692451301
  0
LINE
  5
21A
100
AcDbEntity
  8
0
100
AcDbLine
 62
7
  6
CONTINUOUS
 10
11.9224484263
 20
47.0751887988
 11
11.9224540364
 21
43.9724828527
  0
LINE
  5
21B
100
AcDbEntity
  8
0
100
AcDbLine
 62
7
  6
CONTINUOUS
 10
12.0107704846
 20
83.8892138812
 11
12.0107737671
 21
82.0738005163
  0
LINE
  5
21C
100
AcDbEntity
  8
0
100
AcDbLine
 62
7
  6
CONTINUOUS
 10
12.010847368
 20
41.3685732239
 11
12.0108506506
 21
39.5531598591
  0
LINE
  5
21D
100
AcDbEntity
  8
0
100
AcDbLine
 62
7
  6
CONTINUOUS
 10
12.2201128387
 20
84.0714071992
 11
12.0107704846
 21
83.8892138812
  0
LINE
  5
21E
100
AcDbEntity
  8
0
100
AcDbLine
 62
7
  6
CONTINUOUS
 10
45.5699228529
 20
106.4284894648
 11
50.4797882201
 21
109.2631846354
  0
LINE
  5
21F
100
AcDbEntity
  8
0
100
AcDbLine
 62
7
  6
CONTINUOUS
 10
22.7994200022
 20
90.8325053441
 11
26.5980063638
 21
93.025607255
  0
LINE
  5
220
100
AcDbEntity
  8
0
100
AcDbLine
 62
7
  6
CONTINUOUS
 10
20.8672333065
 20
91.9480286165
 11
10.6142402831
 21
86.2346077172
  0
LINE
  5
221
100
AcDbEntity
  8
0
100
AcDbLine
 62
7
  6
CONTINUOUS
 10
48.280845988
 20
102.8870001475
 11
48.0876221405
 21
102.817997424
  0
LINE
  5
222
100
AcDbEntity
  8
0
100
AcDbLine
 62
7
  6
CONTINUOUS
 10
43.141762436
 20
23.5397182545
 11
43.2826882308
 21
23.458355316
  0
LINE
  5
223
100
AcDbEntity
  8
0
100
AcDbLine
 62
7
  6
CONTINUOUS
 10
11.9224540364
 20
43.9724828527
 11
14.1498496706
 21
42.6865244759
  0
LINE
  5
224
100
AcDbEntity
  8
0
100
AcDbLine
 62
7
  6
CONTINUOUS
 10
14.5741155057
 20
42.4415800232
 11
16.8015111399
 21
41.1556216465
  0
LINE
  5
225
100
AcDbEntity
  8
0
100
AcDbLine
 62
7
  6
CONTINUOUS
 10
18.0389531589
 20
40.4412003261
 11
20.2663487932
 21
39.1552419493
  0
LINE
  5
226
100
AcDbEntity
  8
0
100
AcDbLine
 62
7
  6
CONTINUOUS
 10
20.6906146282
 20
38.9102974966
 11
22.9180102625
 21
37.6243391199
  0
LINE
  5
227
100
AcDbEntity
  8
0
100
AcDbLine
 62
7
  6
CONTINUOUS
 10
24.1554522815
 20
36.9099177995
 11
26.3828479157
 21
35.6239594227
  0
LINE
  5
228
100
AcDbEntity
  8
0
100
AcDbLine
 62
7
  6
CONTINUOUS
 10
26.8071137508
 20
35.37901497
 11
29.034509385
 21
34.0930565933
  0
LINE
  5
229
100
AcDbEntity
  8
0
100
AcDbLine
 62
7
  6
CONTINUOUS
 10
30.271951404
 20
33.3786352729
 11
32.4993470382
 21
32.0926768961
  0
LINE
  5
22A
100
AcDbEntity
  8
0
100
AcDbLine
 62
7
  6
CONTINUOUS
 10
32.9236128733
 20
31.8477324434
 11
35.1510085075
 21
30.5617740667
  0
LINE
  5
22B
100
AcDbEntity
  8
0
100
AcDbLine
 62
7
  6
CONTINUOUS
 10
36.3884505265
 20
29.8473527463
 11
38.6158461607
 21
28.5613943695
  0
LINE
  5
22C
100
AcDbEntity
  8
0
100
AcDbLine
 62
7
  6
CONTINUOUS
 10
39.0401119958
 20
28.3164499168
 11
41.26750763
 21
27.0304915401
  0
LINE
  5
22D
100
AcDbEntity
  8
0
100
AcDbLine
 62
7
  6
CONTINUOUS
 10
13.1244944721
 20
68.7726013339
 11
13.1244996453
 21
65.9115827753
  0
LINE
  5
22E
100
AcDbEntity
  8
0
100
AcDbLine
 62
7
  6
CONTINUOUS
 10
14.0437056081
 20
78.3472364536
 11
14.0437067892
 21
77.693982706
  0
LINE
  5
22F
100
AcDbEntity
  8
0
100
AcDbLine
 62
7
  6
CONTINUOUS
 10
14.0437643669
 20
45.8504741762
 11
14.0437655481
 21
45.1972204286
  0
LINE
  5
230
100
AcDbEntity
  8
0
100
AcDbLine
 62
7
  6
CONTINUOUS
 10
14.1498585144
 20
37.7954289798
 11
14.1498533413
 21
40.6564475384
  0
LINE
  5
231
100
AcDbEntity
  8
0
100
AcDbLine
 62
7
  6
CONTINUOUS
 10
14.1498496706
 20
42.6865244759
 11
14.1498440605
 21
45.789230422
  0
LINE
  5
232
100
AcDbEntity
  8
0
100
AcDbLine
 62
7
  6
CONTINUOUS
 10
14.1497909118
 20
75.1832867534
 11
14.1497853017
 21
78.2859926995
  0
LINE
  5
233
100
AcDbEntity
  8
0
100
AcDbLine
 62
7
  6
CONTINUOUS
 10
14.149781631
 20
80.3160696371
 11
14.1497764579
 21
83.1770881956
  0
LINE
  5
234
100
AcDbEntity
  8
0
100
AcDbLine
 62
7
  6
CONTINUOUS
 10
14.574042293
 20
82.9321437429
 11
14.5740474661
 21
80.0711251843
  0
LINE
  5
235
100
AcDbEntity
  8
0
100
AcDbLine
 62
7
  6
CONTINUOUS
 10
14.5740511368
 20
78.0410482468
 11
14.5740567469
 21
74.9383423007
  0
LINE
  5
236
100
AcDbEntity
  8
0
100
AcDbLine
 62
7
  6
CONTINUOUS
 10
14.5741098956
 20
45.5442859693
 11
14.5741155057
 21
42.4415800232
  0
LINE
  5
237
100
AcDbEntity
  8
0
100
AcDbLine
 62
7
  6
CONTINUOUS
 10
14.5741191764
 20
40.4115030857
 11
14.5741243495
 21
37.5504845271
  0
LINE
  5
238
100
AcDbEntity
  8
0
100
AcDbLine
 62
7
  6
CONTINUOUS
 10
15.2458104127
 20
67.5478867113
 11
15.2458111569
 21
67.1363203512
  0
LINE
  5
239
100
AcDbEntity
  8
0
100
AcDbLine
 62
7
  6
CONTINUOUS
 10
15.5993836833
 20
64.4827401345
 11
15.5993785101
 21
67.3437586931
  0
LINE
  5
23A
100
AcDbEntity
  8
0
100
AcDbLine
 62
7
  6
CONTINUOUS
 10
16.5037110853
 20
79.1768061808
 11
16.7130534394
 21
79.3589994988
  0
LINE
  5
23B
100
AcDbEntity
  8
0
100
AcDbLine
 62
7
  6
CONTINUOUS
 10
18.3366119612
 20
80.5401246726
 11
18.1272696071
 21
80.3579313546
  0
LINE
  5
23C
100
AcDbEntity
  8
0
100
AcDbLine
 62
7
  6
CONTINUOUS
 10
12.4454833134
 20
84.1401949998
 11
12.0107704846
 21
83.8892138812
  0
LINE
  5
23D
100
AcDbEntity
  8
0
100
AcDbLine
 62
7
  6
CONTINUOUS
 10
27.6279160354
 20
92.4310020776
 11
23.8293296765
 21
90.2379001682
  0
LINE
  5
23E
100
AcDbEntity
  8
0
100
AcDbLine
 62
7
  6
CONTINUOUS
 10
12.0107737671
 20
82.0738005163
 11
14.0737508564
 21
83.2648587582
  0
LINE
  5
23F
100
AcDbEntity
  8
0
100
AcDbLine
 62
7
  6
CONTINUOUS
 10
27.7147629461
 20
90.5676531838
 11
45.3179302085
 21
100.7307858756
  0
LINE
  5
240
100
AcDbEntity
  8
0
100
AcDbLine
 62
7
  6
CONTINUOUS
 10
27.7687376856
 20
89.409595074
 11
26.516393591
 21
88.6865581898
  0
LINE
  5
241
100
AcDbEntity
  8
0
100
AcDbLine
 62
7
  6
CONTINUOUS
 10
48.1548407478
 20
100.0381535051
 11
50.3011806422
 21
101.1474572833
  0
LINE
  5
242
100
AcDbEntity
  8
0
100
AcDbLine
 62
7
  6
CONTINUOUS
 10
49.7750555093
 20
99.102743241
 11
49.968280869
 21
99.1717450355
  0
LINE
  5
243
100
AcDbEntity
  8
0
100
AcDbLine
 62
7
  6
CONTINUOUS
 10
14.0437655481
 20
45.1972204286
 11
14.1498452417
 21
45.1359766744
  0
LINE
  5
244
100
AcDbEntity
  8
0
100
AcDbLine
 62
7
  6
CONTINUOUS
 10
16.6954270174
 20
43.6663175991
 11
16.801506711
 21
43.605073845
  0
LINE
  5
245
100
AcDbEntity
  8
0
100
AcDbLine
 62
7
  6
CONTINUOUS
 10
20.1602646706
 20
41.665937902
 11
20.2663443642
 21
41.6046941478
  0
LINE
  5
246
100
AcDbEntity
  8
0
100
AcDbLine
 62
7
  6
CONTINUOUS
 10
22.8119261399
 20
40.1350350725
 11
22.9180058335
 21
40.0737913184
  0
LINE
  5
247
100
AcDbEntity
  8
0
100
AcDbLine
 62
7
  6
CONTINUOUS
 10
26.2767637931
 20
38.1346553754
 11
26.3828434867
 21
38.0734116212
  0
LINE
  5
248
100
AcDbEntity
  8
0
100
AcDbLine
 62
7
  6
CONTINUOUS
 10
28.9284252624
 20
36.6037525459
 11
29.034504956
 21
36.5425087918
  0
LINE
  5
249
100
AcDbEntity
  8
0
100
AcDbLine
 62
7
  6
CONTINUOUS
 10
32.3932629156
 20
34.6033728488
 11
32.4993426092
 21
34.5421290946
  0
LINE
  5
24A
100
AcDbEntity
  8
0
100
AcDbLine
 62
7
  6
CONTINUOUS
 10
35.0449243849
 20
33.0724700193
 11
35.1510040785
 21
33.0112262652
  0
LINE
  5
24B
100
AcDbEntity
  8
0
100
AcDbLine
 62
7
  6
CONTINUOUS
 10
38.5097620381
 20
31.0720903222
 11
38.6158417318
 21
31.010846568
  0
LINE
  5
24C
100
AcDbEntity
  8
0
100
AcDbLine
 62
7
  6
CONTINUOUS
 10
41.1614235074
 20
29.5411874927
 11
41.2675032011
 21
29.4799437386
  0
LINE
  5
24D
100
AcDbEntity
  8
0
100
AcDbLine
 62
7
  6
CONTINUOUS
 10
41.2675020199
 20
30.1331974862
 11
39.0401063857
 21
31.4191558629
  0
LINE
  5
24E
100
AcDbEntity
  8
0
100
AcDbLine
 62
7
  6
CONTINUOUS
 10
38.6158405506
 20
31.6641003156
 11
36.3884449164
 21
32.9500586924
  0
LINE
  5
24F
100
AcDbEntity
  8
0
100
AcDbLine
 62
7
  6
CONTINUOUS
 10
35.1510028974
 20
33.6644800128
 11
32.9236072631
 21
34.9504383895
  0
LINE
  5
250
100
AcDbEntity
  8
0
100
AcDbLine
 62
7
  6
CONTINUOUS
 10
32.4993414281
 20
35.1953828422
 11
30.2719457938
 21
36.481341219
  0
LINE
  5
251
100
AcDbEntity
  8
0
100
AcDbLine
 62
7
  6
CONTINUOUS
 10
29.0345037748
 20
37.1957625394
 11
26.8071081406
 21
38.4817209161
  0
LINE
  5
252
100
AcDbEntity
  8
0
100
AcDbLine
 62
7
  6
CONTINUOUS
 10
26.3828423055
 20
38.7266653688
 11
24.1554466713
 21
40.0126237456
  0
LINE
  5
253
100
AcDbEntity
  8
0
100
AcDbLine
 62
7
  6
CONTINUOUS
 10
22.9180046523
 20
40.727045066
 11
20.6906090181
 21
42.0130034427
  0
LINE
  5
254
100
AcDbEntity
  8
0
100
AcDbLine
 62
7
  6
CONTINUOUS
 10
20.266343183
 20
42.2579478954
 11
18.0389475488
 21
43.5439062722
  0
LINE
  5
255
100
AcDbEntity
  8
0
100
AcDbLine
 62
7
  6
CONTINUOUS
 10
16.8015055298
 20
44.2583275926
 11
14.5741098956
 21
45.5442859693
  0
LINE
  5
256
100
AcDbEntity
  8
0
100
AcDbLine
 62
7
  6
CONTINUOUS
 10
14.1498440605
 20
45.789230422
 11
11.9224484263
 21
47.0751887988
  0
LINE
  5
257
100
AcDbEntity
  8
0
100
AcDbLine
 62
7
  6
CONTINUOUS
 10
16.6953670774
 20
76.8163336242
 11
16.6953682586
 21
76.1630798766
  0
LINE
  5
258
100
AcDbEntity
  8
0
100
AcDbLine
 62
7
  6
CONTINUOUS
 10
16.6954258362
 20
44.3195713467
 11
16.6954270174
 21
43.6663175991
  0
LINE
  5
259
100
AcDbEntity
  8
0
100
AcDbLine
 62
7
  6
CONTINUOUS
 10
16.7131303228
 20
36.8383588415
 11
16.7131270403
 21
38.6537722064
  0
LINE
  5
25A
100
AcDbEntity
  8
0
100
AcDbLine
 62
7
  6
CONTINUOUS
 10
16.7130534394
 20
79.3589994988
 11
16.7130501568
 21
81.1744128636
  0
LINE
  5
25B
100
AcDbEntity
  8
0
100
AcDbLine
 62
7
  6
CONTINUOUS
 10
16.8015111399
 20
41.1556216465
 11
16.8015055298
 21
44.2583275926
  0
LINE
  5
25C
100
AcDbEntity
  8
0
100
AcDbLine
 62
7
  6
CONTINUOUS
 10
16.8014523811
 20
73.652383924
 11
16.801446771
 21
76.75508987
  0
LINE
  5
25D
100
AcDbEntity
  8
0
100
AcDbLine
 62
7
  6
CONTINUOUS
 10
18.03888879
 20
76.0406685496
 11
18.0388944001
 21
72.9379626035
  0
LINE
  5
25E
100
AcDbEntity
  8
0
100
AcDbLine
 62
7
  6
CONTINUOUS
 10
18.0389475488
 20
43.5439062722
 11
18.0389531589
 21
40.4412003261
  0
LINE
  5
25F
100
AcDbEntity
  8
0
100
AcDbLine
 62
7
  6
CONTINUOUS
 10
18.1272696071
 20
80.3579313546
 11
18.1272728897
 21
78.5425179897
  0
LINE
  5
260
100
AcDbEntity
  8
0
100
AcDbLine
 62
7
  6
CONTINUOUS
 10
18.1273464906
 20
37.8372906973
 11
18.1273497731
 21
36.0218773325
  0
LINE
  5
261
100
AcDbEntity
  8
0
100
AcDbLine
 62
7
  6
CONTINUOUS
 10
19.0089453121
 20
52.4552987356
 11
19.0089503317
 21
49.6791934154
  0
LINE
  5
262
100
AcDbEntity
  8
0
100
AcDbLine
 62
7
  6
CONTINUOUS
 10
20.1602047306
 20
74.815953927
 11
20.1602059118
 21
74.1627001794
  0
LINE
  5
263
100
AcDbEntity
  8
0
100
AcDbLine
 62
7
  6
CONTINUOUS
 10
20.1602634894
 20
42.3191916496
 11
20.1602646706
 21
41.665937902
  0
LINE
  5
264
100
AcDbEntity
  8
0
100
AcDbLine
 62
7
  6
CONTINUOUS
 10
20.266357637
 20
34.2641464532
 11
20.2663524638
 21
37.1251650118
  0
LINE
  5
265
100
AcDbEntity
  8
0
100
AcDbLine
 62
7
  6
CONTINUOUS
 10
20.2663487932
 20
39.1552419493
 11
20.266343183
 21
42.2579478954
  0
LINE
  5
266
100
AcDbEntity
  8
0
100
AcDbLine
 62
7
  6
CONTINUOUS
 10
20.2662900343
 20
71.6520042268
 11
20.2662844242
 21
74.7547101729
  0
LINE
  5
267
100
AcDbEntity
  8
0
100
AcDbLine
 62
7
  6
CONTINUOUS
 10
20.2662807535
 20
76.7847871105
 11
20.2662755804
 21
79.645805669
  0
LINE
  5
268
100
AcDbEntity
  8
0
100
AcDbLine
 62
7
  6
CONTINUOUS
 10
14.5740474661
 20
80.0711251844
 11
16.6560380732
 21
81.2731608662
  0
LINE
  5
269
100
AcDbEntity
  8
0
100
AcDbLine
 62
7
  6
CONTINUOUS
 10
33.1467660182
 20
89.2447646006
 11
29.3481796491
 21
87.0516627332
  0
LINE
  5
26A
100
AcDbEntity
  8
0
100
AcDbLine
 62
7
  6
CONTINUOUS
 10
18.5619824359
 20
80.6089124732
 11
18.1272696071
 21
80.3579313546
  0
LINE
  5
26B
100
AcDbEntity
  8
0
100
AcDbLine
 62
7
  6
CONTINUOUS
 10
11.9223952776
 20
76.4692451301
 11
14.0437067892
 21
77.693982706
  0
LINE
  5
26C
100
AcDbEntity
  8
0
100
AcDbLine
 62
7
  6
CONTINUOUS
 10
33.7849281856
 20
88.8763298727
 11
29.9863418266
 21
86.6832279633
  0
LINE
  5
26D
100
AcDbEntity
  8
0
100
AcDbLine
 62
7
  6
CONTINUOUS
 10
50.0459650393
 20
99.2427482286
 11
49.7750627273
 21
99.102739071
  0
LINE
  5
26E
100
AcDbEntity
  8
0
100
AcDbLine
 62
7
  6
CONTINUOUS
 10
39.1815206537
 20
35.5833158488
 11
40.737162049
 21
34.6851861888
  0
LINE
  5
26F
100
AcDbEntity
  8
0
100
AcDbLine
 62
7
  6
CONTINUOUS
 10
52.5525021896
 20
28.810253513
 11
52.687100888
 21
28.7325446763
  0
LINE
  5
270
100
AcDbEntity
  8
0
100
AcDbLine
 62
7
  6
CONTINUOUS
 10
40.7371576199
 20
37.1346908831
 11
39.1815162246
 21
38.032820543
  0
LINE
  5
271
100
AcDbEntity
  8
0
100
AcDbLine
 62
7
  6
CONTINUOUS
 10
19.0089503317
 20
49.6791934154
 11
21.9786109814
 21
47.964697827
  0
LINE
  5
272
100
AcDbEntity
  8
0
100
AcDbLine
 62
7
  6
CONTINUOUS
 10
31.226633313
 20
42.6254704338
 11
34.196291166
 21
40.91097646
  0
LINE
  5
273
100
AcDbEntity
  8
0
100
AcDbLine
 62
7
  6
CONTINUOUS
 10
24.1200782815
 20
47.1694165369
 11
26.8778062095
 21
45.5772775943
  0
LINE
  5
274
100
AcDbEntity
  8
0
100
AcDbLine
 62
7
  6
CONTINUOUS
 10
20.6905414155
 20
79.4008612163
 11
20.6905465886
 21
76.5398426577
  0
LINE
  5
275
100
AcDbEntity
  8
0
100
AcDbLine
 62
7
  6
CONTINUOUS
 10
20.6905502593
 20
74.5097657202
 11
20.6905558694
 21
71.4070597741
  0
LINE
  5
276
100
AcDbEntity
  8
0
100
AcDbLine
 62
7
  6
CONTINUOUS
 10
20.6906090181
 20
42.0130034427
 11
20.6906146282
 21
38.9102974966
  0
LINE
  5
277
100
AcDbEntity
  8
0
100
AcDbLine
 62
7
  6
CONTINUOUS
 10
20.6906182989
 20
36.8802205591
 11
20.690623472
 21
34.0192020005
  0
LINE
  5
278
100
AcDbEntity
  8
0
100
AcDbLine
 62
7
  6
CONTINUOUS
 10
21.1302612527
 20
51.230584113
 11
21.1302618433
 21
50.9039309913
  0
LINE
  5
279
100
AcDbEntity
  8
0
100
AcDbLine
 62
7
  6
CONTINUOUS
 10
21.9786109814
 20
47.964697827
 11
21.9786059618
 21
50.7408031471
  0
LINE
  5
27A
100
AcDbEntity
  8
0
100
AcDbLine
 62
7
  6
CONTINUOUS
 10
22.8118661999
 20
73.2850510976
 11
22.8118673811
 21
72.63179735
  0
LINE
  5
27B
100
AcDbEntity
  8
0
100
AcDbLine
 62
7
  6
CONTINUOUS
 10
22.8119249587
 20
40.7882888201
 11
22.8119261399
 21
40.1350350725
  0
LINE
  5
27C
100
AcDbEntity
  8
0
100
AcDbLine
 62
7
  6
CONTINUOUS
 10
22.8296294453
 20
33.3070763149
 11
22.8296261628
 21
35.1224896798
  0
LINE
  5
27D
100
AcDbEntity
  8
0
100
AcDbLine
 62
7
  6
CONTINUOUS
 10
22.8295525619
 20
75.8277169722
 11
22.8295492794
 21
77.643130337
  0
LINE
  5
27E
100
AcDbEntity
  8
0
100
AcDbLine
 62
7
  6
CONTINUOUS
 10
22.9180102625
 20
37.6243391199
 11
22.9180046523
 21
40.727045066
  0
LINE
  5
27F
100
AcDbEntity
  8
0
100
AcDbLine
 62
7
  6
CONTINUOUS
 10
22.9179515036
 20
70.1211013974
 11
22.9179458935
 21
73.2238073434
  0
LINE
  5
280
100
AcDbEntity
  8
0
100
AcDbLine
 62
7
  6
CONTINUOUS
 10
24.1200740594
 20
49.5044539345
 11
24.1200782815
 21
47.1694165369
  0
LINE
  5
281
100
AcDbEntity
  8
0
100
AcDbLine
 62
7
  6
CONTINUOUS
 10
22.6202102079
 20
75.6455236542
 11
22.8295525619
 21
75.8277169722
  0
LINE
  5
282
100
AcDbEntity
  8
0
100
AcDbLine
 62
7
  6
CONTINUOUS
 10
24.4531110837
 20
77.008842146
 11
24.2437687297
 21
76.826648828
  0
LINE
  5
283
100
AcDbEntity
  8
0
100
AcDbLine
 62
7
  6
CONTINUOUS
 10
18.1272728897
 20
78.5425179897
 11
20.1902499789
 21
79.7335762316
  0
LINE
  5
284
100
AcDbEntity
  8
0
100
AcDbLine
 62
7
  6
CONTINUOUS
 10
14.5740567469
 20
74.9383423007
 11
16.6953682585
 21
76.1630798766
  0
LINE
  5
285
100
AcDbEntity
  8
0
100
AcDbLine
 62
7
  6
CONTINUOUS
 10
33.9257498358
 20
85.8549228691
 11
32.6734057412
 21
85.1318859849
  0
LINE
  5
286
100
AcDbEntity
  8
0
100
AcDbLine
 62
7
  6
CONTINUOUS
 10
20.6905465886
 20
76.5398426578
 11
22.7725371958
 21
77.7418783396
  0
LINE
  5
287
100
AcDbEntity
  8
0
100
AcDbLine
 62
7
  6
CONTINUOUS
 10
43.1886642205
 20
37.7197803147
 11
43.2826882308
 21
37.6654970887
  0
LINE
  5
288
100
AcDbEntity
  8
0
100
AcDbLine
 62
7
  6
CONTINUOUS
 10
38.4036916829
 20
40.6078377204
 11
41.6563964186
 21
38.7299302496
  0
LINE
  5
289
100
AcDbEntity
  8
0
100
AcDbLine
 62
7
  6
CONTINUOUS
 10
21.1302618433
 20
50.9039309913
 11
21.9786065525
 21
50.4141500254
  0
LINE
  5
28A
100
AcDbEntity
  8
0
100
AcDbLine
 62
7
  6
CONTINUOUS
 10
33.3479448247
 20
43.8502080097
 11
34.196286737
 21
43.3604286585
  0
LINE
  5
28B
100
AcDbEntity
  8
0
100
AcDbLine
 62
7
  6
CONTINUOUS
 10
34.1962861464
 20
43.6870817802
 11
31.2266282934
 21
45.401575754
  0
LINE
  5
28C
100
AcDbEntity
  8
0
100
AcDbLine
 62
7
  6
CONTINUOUS
 10
26.8778019875
 20
47.9123149919
 11
24.1200740594
 21
49.5044539345
  0
LINE
  5
28D
100
AcDbEntity
  8
0
100
AcDbLine
 62
7
  6
CONTINUOUS
 10
21.9786059618
 20
50.7408031471
 11
19.0089453121
 21
52.4552987356
  0
LINE
  5
28E
100
AcDbEntity
  8
0
100
AcDbLine
 62
7
  6
CONTINUOUS
 10
41.6563919951
 20
41.1763866649
 11
38.4036872594
 21
43.0542941357
  0
LINE
  5
28F
100
AcDbEntity
  8
0
100
AcDbLine
 62
7
  6
CONTINUOUS
 10
24.1553879125
 20
72.509386023
 11
24.1553935227
 21
69.4066800769
  0
LINE
  5
290
100
AcDbEntity
  8
0
100
AcDbLine
 62
7
  6
CONTINUOUS
 10
24.1554466713
 20
40.0126237456
 11
24.1554522815
 21
36.9099177995
  0
LINE
  5
291
100
AcDbEntity
  8
0
100
AcDbLine
 62
7
  6
CONTINUOUS
 10
24.2437687297
 20
76.826648828
 11
24.2437720122
 21
75.0112354631
  0
LINE
  5
292
100
AcDbEntity
  8
0
100
AcDbLine
 62
7
  6
CONTINUOUS
 10
24.2438456131
 20
34.3060081707
 11
24.2438488956
 21
32.4905948059
  0
LINE
  5
293
100
AcDbEntity
  8
0
100
AcDbLine
 62
7
  6
CONTINUOUS
 10
25.110105254
 20
62.1601836297
 11
25.1101114547
 21
58.7308770577
  0
LINE
  5
294
100
AcDbEntity
  8
0
100
AcDbLine
 62
7
  6
CONTINUOUS
 10
26.2767038531
 20
71.2846714004
 11
26.2767050343
 21
70.6314176528
  0
LINE
  5
295
100
AcDbEntity
  8
0
100
AcDbLine
 62
7
  6
CONTINUOUS
 10
26.2767626119
 20
38.787909123
 11
26.2767637931
 21
38.1346553754
  0
LINE
  5
296
100
AcDbEntity
  8
0
100
AcDbLine
 62
7
  6
CONTINUOUS
 10
26.3828567595
 20
30.7328639266
 11
26.3828515863
 21
33.5938824852
  0
LINE
  5
297
100
AcDbEntity
  8
0
100
AcDbLine
 62
7
  6
CONTINUOUS
 10
26.3828479157
 20
35.6239594227
 11
26.3828423055
 21
38.7266653688
  0
LINE
  5
298
100
AcDbEntity
  8
0
100
AcDbLine
 62
7
  6
CONTINUOUS
 10
26.3827891569
 20
68.1207217002
 11
26.3827835467
 21
71.2234276463
  0
LINE
  5
299
100
AcDbEntity
  8
0
100
AcDbLine
 62
7
  6
CONTINUOUS
 10
26.3827798761
 20
73.2535045839
 11
26.3827747029
 21
76.1145231424
  0
LINE
  5
29A
100
AcDbEntity
  8
0
100
AcDbLine
 62
7
  6
CONTINUOUS
 10
26.807040538
 20
75.8695786897
 11
26.8070457111
 21
73.0085601311
  0
LINE
  5
29B
100
AcDbEntity
  8
0
100
AcDbLine
 62
7
  6
CONTINUOUS
 10
26.8070493818
 20
70.9784831936
 11
26.807054992
 21
67.8757772475
  0
LINE
  5
29C
100
AcDbEntity
  8
0
100
AcDbLine
 62
7
  6
CONTINUOUS
 10
26.8071081406
 20
38.4817209161
 11
26.8071137508
 21
35.37901497
  0
LINE
  5
29D
100
AcDbEntity
  8
0
100
AcDbLine
 62
7
  6
CONTINUOUS
 10
26.8071174214
 20
33.3489380325
 11
26.8071225946
 21
30.4879194739
  0
LINE
  5
29E
100
AcDbEntity
  8
0
100
AcDbLine
 62
7
  6
CONTINUOUS
 10
26.8778062095
 20
45.5772775943
 11
26.8778019875
 21
47.9123149919
  0
LINE
  5
29F
100
AcDbEntity
  8
0
100
AcDbLine
 62
7
  6
CONTINUOUS
 10
27.2314211946
 20
60.9354690071
 11
27.2314229663
 21
59.9556146336
  0
LINE
  5
2A0
100
AcDbEntity
  8
0
100
AcDbLine
 62
7
  6
CONTINUOUS
 10
39.2287538266
 20
85.7334067398
 11
35.4301674575
 21
83.5403048724
  0
LINE
  5
2A1
100
AcDbEntity
  8
0
100
AcDbLine
 62
7
  6
CONTINUOUS
 10
24.6784815585
 20
77.0776299466
 11
24.2437687297
 21
76.826648828
  0
LINE
  5
2A2
100
AcDbEntity
  8
0
100
AcDbLine
 62
7
  6
CONTINUOUS
 10
18.0388944001
 20
72.9379626035
 11
20.1602059118
 21
74.1627001794
  0
LINE
  5
2A3
100
AcDbEntity
  8
0
100
AcDbLine
 62
7
  6
CONTINUOUS
 10
39.9019929959
 20
85.3447207535
 11
36.1034066369
 21
83.1516188441
  0
LINE
  5
2A4
100
AcDbEntity
  8
0
100
AcDbLine
 62
7
  6
CONTINUOUS
 10
24.2437720122
 20
75.0112354631
 11
26.3067491014
 21
76.202293705
  0
LINE
  5
2A5
100
AcDbEntity
  8
0
100
AcDbLine
 62
7
  6
CONTINUOUS
 10
20.6905558694
 20
71.4070597741
 11
22.8118673811
 21
72.63179735
  0
LINE
  5
2A6
100
AcDbEntity
  8
0
100
AcDbLine
 62
7
  6
CONTINUOUS
 10
29.46473372
 20
48.9288577602
 11
30.2305899276
 21
48.4867004755
  0
LINE
  5
2A7
100
AcDbEntity
  8
0
100
AcDbLine
 62
7
  6
CONTINUOUS
 10
28.1152390607
 20
49.9331739134
 11
29.3521320766
 21
49.2190695529
  0
LINE
  5
2A8
100
AcDbEntity
  8
0
100
AcDbLine
 62
7
  6
CONTINUOUS
 10
30.4256235455
 20
48.5993029854
 11
35.2570472847
 21
45.8099422928
  0
LINE
  5
2A9
100
AcDbEntity
  8
0
100
AcDbLine
 62
7
  6
CONTINUOUS
 10
30.62727689
 20
49.4648404064
 11
30.3020064164
 21
49.6526311534
  0
LINE
  5
2AA
100
AcDbEntity
  8
0
100
AcDbLine
 62
7
  6
CONTINUOUS
 10
48.2702109929
 20
40.5450275096
 11
48.0230416451
 21
40.6877284478
  0
LINE
  5
2AB
100
AcDbEntity
  8
0
100
AcDbLine
 62
7
  6
CONTINUOUS
 10
30.3020031759
 20
51.4447856305
 11
30.6272736495
 21
51.2569948834
  0
LINE
  5
2AC
100
AcDbEntity
  8
0
100
AcDbLine
 62
7
  6
CONTINUOUS
 10
58.5648822854
 20
35.5199528408
 11
58.6824576888
 21
35.4520721856
  0
LINE
  5
2AD
100
AcDbEntity
  8
0
100
AcDbLine
 62
7
  6
CONTINUOUS
 10
33.2540388943
 20
50.2322864199
 11
35.2570413794
 21
49.0758785574
  0
LINE
  5
2AE
100
AcDbEntity
  8
0
100
AcDbLine
 62
7
  6
CONTINUOUS
 10
45.4417956441
 20
43.198688584
 11
45.0879243272
 21
43.40299095
  0
LINE
  5
2AF
100
AcDbEntity
  8
0
100
AcDbLine
 62
7
  6
CONTINUOUS
 10
58.5983332886
 20
36.2763176282
 11
58.6824576888
 21
36.2277494819
  0
LINE
  5
2B0
100
AcDbEntity
  8
0
100
AcDbLine
 62
7
  6
CONTINUOUS
 10
30.2305823217
 20
52.6931920203
 11
29.464726114
 21
53.135349305
  0
LINE
  5
2B1
100
AcDbEntity
  8
0
100
AcDbLine
 62
7
  6
CONTINUOUS
 10
29.46473372
 20
48.9288577602
 11
29.0868643103
 21
49.9027525942
  0
LINE
  5
2B2
100
AcDbEntity
  8
0
100
AcDbLine
 62
7
  6
CONTINUOUS
 10
30.2305823217
 20
52.6931920203
 11
30.6272729013
 21
51.6707887871
  0
LINE
  5
2B3
100
AcDbEntity
  8
0
100
AcDbLine
 62
7
  6
CONTINUOUS
 10
27.6279160354
 20
92.4310020415
 11
27.7687376856
 21
89.409595074
  0
LINE
  5
2B4
100
AcDbEntity
  8
0
100
AcDbLine
 62
7
  6
CONTINUOUS
 10
28.0797693077
 20
57.0163830839
 11
28.079763107
 21
60.4456896559
  0
LINE
  5
2B5
100
AcDbEntity
  8
0
100
AcDbLine
 62
7
  6
CONTINUOUS
 10
28.1152300549
 20
54.9138334585
 11
28.1152390607
 21
49.9331739134
  0
LINE
  5
2B6
100
AcDbEntity
  8
0
100
AcDbLine
 62
7
  6
CONTINUOUS
 10
28.9283653224
 20
69.753768571
 11
28.9283665036
 21
69.1005148234
  0
LINE
  5
2B7
100
AcDbEntity
  8
0
100
AcDbLine
 62
7
  6
CONTINUOUS
 10
28.9284240812
 20
37.2570062935
 11
28.9284252624
 21
36.6037525459
  0
LINE
  5
2B8
100
AcDbEntity
  8
0
100
AcDbLine
 62
7
  6
CONTINUOUS
 10
28.9461285678
 20
29.7757937883
 11
28.9461252853
 21
31.5912071532
  0
LINE
  5
2B9
100
AcDbEntity
  8
0
100
AcDbLine
 62
7
  6
CONTINUOUS
 10
28.9460516844
 20
72.2964344456
 11
28.9460484019
 21
74.1118478104
  0
LINE
  5
2BA
100
AcDbEntity
  8
0
100
AcDbLine
 62
7
  6
CONTINUOUS
 10
29.034509385
 20
34.0930565933
 11
29.0345037748
 21
37.1957625394
  0
LINE
  5
2BB
100
AcDbEntity
  8
0
100
AcDbLine
 62
7
  6
CONTINUOUS
 10
29.0344506262
 20
66.5898188708
 11
29.034445016
 21
69.6925248168
  0
LINE
  5
2BC
100
AcDbEntity
  8
0
100
AcDbLine
 62
7
  6
CONTINUOUS
 10
29.0868594373
 20
52.5977690332
 11
29.0868643103
 21
49.9027525942
  0
LINE
  5
2BD
100
AcDbEntity
  8
0
100
AcDbLine
 62
7
  6
CONTINUOUS
 10
30.2365459955
 20
53.6891188359
 11
30.2365461911
 21
53.5809590351
  0
LINE
  5
2BE
100
AcDbEntity
  8
0
100
AcDbLine
 62
7
  6
CONTINUOUS
 10
30.271887035
 20
68.9781034964
 11
30.2718926452
 21
65.8753975503
  0
LINE
  5
2BF
100
AcDbEntity
  8
0
100
AcDbLine
 62
7
  6
CONTINUOUS
 10
30.2719457938
 20
36.481341219
 11
30.271951404
 21
33.3786352729
  0
LINE
  5
2C0
100
AcDbEntity
  8
0
100
AcDbLine
 62
7
  6
CONTINUOUS
 10
30.3020064164
 20
49.6526311534
 11
30.3020031759
 21
51.4447856305
  0
LINE
  5
2C1
100
AcDbEntity
  8
0
100
AcDbLine
 62
7
  6
CONTINUOUS
 10
30.3602678522
 20
73.2953663014
 11
30.3602711347
 21
71.4799529365
  0
LINE
  5
2C2
100
AcDbEntity
  8
0
100
AcDbLine
 62
7
  6
CONTINUOUS
 10
30.3603447356
 20
30.7747256441
 11
30.3603480181
 21
28.9593122793
  0
LINE
  5
2C3
100
AcDbEntity
  8
0
100
AcDbLine
 62
7
  6
CONTINUOUS
 10
30.6272776381
 20
49.0510569018
 11
30.62727689
 21
49.4648404064
  0
LINE
  5
2C4
100
AcDbEntity
  8
0
100
AcDbLine
 62
7
  6
CONTINUOUS
 10
30.6272736495
 20
51.2569948834
 11
30.6272729013
 21
51.6707887871
  0
LINE
  5
2C5
100
AcDbEntity
  8
0
100
AcDbLine
 62
7
  6
CONTINUOUS
 10
31.2266282934
 20
45.401575754
 11
31.226633313
 21
42.6254704338
  0
LINE
  5
2C6
100
AcDbEntity
  8
0
100
AcDbLine
 62
7
  6
CONTINUOUS
 10
31.4739918397
 20
58.1787537541
 11
31.4739970128
 21
55.3177351955
  0
LINE
  5
2C7
100
AcDbEntity
  8
0
100
AcDbLine
 62
7
  6
CONTINUOUS
 10
28.7367093304
 20
72.1142411276
 11
28.9460516844
 21
72.2964344456
  0
LINE
  5
2C8
100
AcDbEntity
  8
0
100
AcDbLine
 62
7
  6
CONTINUOUS
 10
30.5696102062
 20
73.4775596194
 11
30.3602678522
 21
73.2953663014
  0
LINE
  5
2C9
100
AcDbEntity
  8
0
100
AcDbLine
 62
7
  6
CONTINUOUS
 10
40.0428146461
 20
82.3233137499
 11
38.7904705515
 21
81.6002768657
  0
LINE
  5
2CA
100
AcDbEntity
  8
0
100
AcDbLine
 62
7
  6
CONTINUOUS
 10
13.1244996453
 20
65.9115827753
 11
15.2458111569
 21
67.1363203512
  0
LINE
  5
2CB
100
AcDbEntity
  8
0
100
AcDbLine
 62
7
  6
CONTINUOUS
 10
26.8070457111
 20
73.0085601311
 11
28.8890363183
 21
74.210595813
  0
LINE
  5
2CC
100
AcDbEntity
  8
0
100
AcDbLine
 62
7
  6
CONTINUOUS
 10
45.3458186369
 20
82.2017976206
 11
41.5472322678
 21
80.0086957531
  0
LINE
  5
2CD
100
AcDbEntity
  8
0
100
AcDbLine
 62
7
  6
CONTINUOUS
 10
30.794980681
 20
73.54634742
 11
30.3602678522
 21
73.2953663014
  0
LINE
  5
2CE
100
AcDbEntity
  8
0
100
AcDbLine
 62
7
  6
CONTINUOUS
 10
24.1553935227
 20
69.4066800769
 11
26.2767050343
 21
70.6314176528
  0
LINE
  5
2CF
100
AcDbEntity
  8
0
100
AcDbLine
 62
7
  6
CONTINUOUS
 10
45.9370330781
 20
81.8604675618
 11
42.1384467191
 21
79.6673656524
  0
LINE
  5
2D0
100
AcDbEntity
  8
0
100
AcDbLine
 62
7
  6
CONTINUOUS
 10
34.0213753086
 20
51.4244205278
 11
33.696104835
 21
51.6122112749
  0
LINE
  5
2D1
100
AcDbEntity
  8
0
100
AcDbLine
 62
7
  6
CONTINUOUS
 10
35.2570382789
 20
50.7906018378
 11
28.1152300549
 21
54.9138334585
  0
LINE
  5
2D2
100
AcDbEntity
  8
0
100
AcDbLine
 62
7
  6
CONTINUOUS
 10
38.9693626381
 20
49.586314676
 11
41.6563795937
 21
48.0349998089
  0
LINE
  5
2D3
100
AcDbEntity
  8
0
100
AcDbLine
 62
7
  6
CONTINUOUS
 10
47.7406637751
 20
44.5259327957
 11
48.0230416451
 21
44.3629062148
  0
LINE
  5
2D4
100
AcDbEntity
  8
0
100
AcDbLine
 62
7
  6
CONTINUOUS
 10
25.1101114547
 20
58.7308770577
 11
28.0797693077
 21
57.0163830839
  0
LINE
  5
2D5
100
AcDbEntity
  8
0
100
AcDbLine
 62
7
  6
CONTINUOUS
 10
13.1244996453
 20
65.9115827753
 11
15.5993836833
 21
64.4827401345
  0
LINE
  5
2D6
100
AcDbEntity
  8
0
100
AcDbLine
 62
7
  6
CONTINUOUS
 10
31.4739970128
 20
55.3177351955
 11
33.9488810508
 21
53.8888925547
  0
LINE
  5
2D7
100
AcDbEntity
  8
0
100
AcDbLine
 62
7
  6
CONTINUOUS
 10
41.656375687
 20
50.1955959488
 11
38.9693587315
 21
51.746910816
  0
LINE
  5
2D8
100
AcDbEntity
  8
0
100
AcDbLine
 62
7
  6
CONTINUOUS
 10
33.7849281856
 20
88.8763298366
 11
33.9257498358
 21
85.8549228691
  0
LINE
  5
2D9
100
AcDbEntity
  8
0
100
AcDbLine
 62
7
  6
CONTINUOUS
 10
32.3932029756
 20
67.7533888738
 11
32.3932041568
 21
67.1001351262
  0
LINE
  5
2DA
100
AcDbEntity
  8
0
100
AcDbLine
 62
7
  6
CONTINUOUS
 10
32.3932617344
 20
35.2566265964
 11
32.3932629156
 21
34.6033728488
  0
LINE
  5
2DB
100
AcDbEntity
  8
0
100
AcDbLine
 62
7
  6
CONTINUOUS
 10
32.499355882
 20
27.2015814
 11
32.4993507089
 21
30.0625999586
  0
LINE
  5
2DC
100
AcDbEntity
  8
0
100
AcDbLine
 62
7
  6
CONTINUOUS
 10
32.4993470382
 20
32.0926768961
 11
32.4993414281
 21
35.1953828422
  0
LINE
  5
2DD
100
AcDbEntity
  8
0
100
AcDbLine
 62
7
  6
CONTINUOUS
 10
32.4992882794
 20
64.5894391736
 11
32.4992826693
 21
67.6921451197
  0
LINE
  5
2DE
100
AcDbEntity
  8
0
100
AcDbLine
 62
7
  6
CONTINUOUS
 10
32.4992789986
 20
69.7222220573
 11
32.4992738255
 21
72.5832406158
  0
LINE
  5
2DF
100
AcDbEntity
  8
0
100
AcDbLine
 62
7
  6
CONTINUOUS
 10
32.9235396605
 20
72.3382961631
 11
32.9235448337
 21
69.4772776045
  0
LINE
  5
2E0
100
AcDbEntity
  8
0
100
AcDbLine
 62
7
  6
CONTINUOUS
 10
32.9235485043
 20
67.447200667
 11
32.9235541145
 21
64.3444947209
  0
LINE
  5
2E1
100
AcDbEntity
  8
0
100
AcDbLine
 62
7
  6
CONTINUOUS
 10
32.9236072631
 20
34.9504383895
 11
32.9236128733
 21
31.8477324434
  0
LINE
  5
2E2
100
AcDbEntity
  8
0
100
AcDbLine
 62
7
  6
CONTINUOUS
 10
32.923616544
 20
29.8176555059
 11
32.9236217171
 21
26.9566369473
  0
LINE
  5
2E3
100
AcDbEntity
  8
0
100
AcDbLine
 62
7
  6
CONTINUOUS
 10
33.347944234
 20
44.1768611314
 11
33.3479448247
 21
43.8502080097
  0
LINE
  5
2E4
100
AcDbEntity
  8
0
100
AcDbLine
 62
7
  6
CONTINUOUS
 10
33.5953077803
 20
56.9540391315
 11
33.5953085245
 21
56.5424727714
  0
LINE
  5
2E5
100
AcDbEntity
  8
0
100
AcDbLine
 62
7
  6
CONTINUOUS
 10
33.696104835
 20
51.6122112749
 11
33.6961046911
 21
51.6917868774
  0
LINE
  5
2E6
100
AcDbEntity
  8
0
100
AcDbLine
 62
7
  6
CONTINUOUS
 10
33.9488810508
 20
53.8888925547
 11
33.9488758777
 21
56.7499111133
  0
LINE
  5
2E7
100
AcDbEntity
  8
0
100
AcDbLine
 62
7
  6
CONTINUOUS
 10
34.0213760568
 20
51.0106370232
 11
34.0213753086
 21
51.4244205278
  0
LINE
  5
2E8
100
AcDbEntity
  8
0
100
AcDbLine
 62
7
  6
CONTINUOUS
 10
34.196291166
 20
40.91097646
 11
34.1962861464
 21
43.6870817802
  0
LINE
  5
2E9
100
AcDbEntity
  8
0
100
AcDbLine
 62
7
  6
CONTINUOUS
 10
35.0448644449
 20
66.2224860444
 11
35.0448656261
 21
65.5692322968
  0
LINE
  5
2EA
100
AcDbEntity
  8
0
100
AcDbLine
 62
7
  6
CONTINUOUS
 10
35.0449232037
 20
33.7257237669
 11
35.0449243849
 21
33.0724700193
  0
LINE
  5
2EB
100
AcDbEntity
  8
0
100
AcDbLine
 62
7
  6
CONTINUOUS
 10
35.0626276904
 20
26.2445112617
 11
35.0626244078
 21
28.0599246266
  0
LINE
  5
2EC
100
AcDbEntity
  8
0
100
AcDbLine
 62
7
  6
CONTINUOUS
 10
35.0625508069
 20
68.765151919
 11
35.0625475244
 21
70.5805652838
  0
LINE
  5
2ED
100
AcDbEntity
  8
0
100
AcDbLine
 62
7
  6
CONTINUOUS
 10
35.1510085075
 20
30.5617740667
 11
35.1510028974
 21
33.6644800128
  0
LINE
  5
2EE
100
AcDbEntity
  8
0
100
AcDbLine
 62
7
  6
CONTINUOUS
 10
35.1509497487
 20
63.0585363441
 11
35.1509441386
 21
66.1612422902
  0
LINE
  5
2EF
100
AcDbEntity
  8
0
100
AcDbLine
 62
7
  6
CONTINUOUS
 10
35.2570472847
 20
45.8099422928
 11
35.2570382789
 21
50.7906018378
  0
LINE
  5
2F0
100
AcDbEntity
  8
0
100
AcDbLine
 62
7
  6
CONTINUOUS
 10
30.3602711347
 20
71.4799529365
 11
32.423248224
 21
72.6710111784
  0
LINE
  5
2F1
100
AcDbEntity
  8
0
100
AcDbLine
 62
7
  6
CONTINUOUS
 10
26.807054992
 20
67.8757772475
 11
28.9283665036
 21
69.1005148234
  0
LINE
  5
2F2
100
AcDbEntity
  8
0
100
AcDbLine
 62
7
  6
CONTINUOUS
 10
46.0778547283
 20
78.8390605582
 11
44.8255106337
 21
78.1160236741
  0
LINE
  5
2F3
100
AcDbEntity
  8
0
100
AcDbLine
 62
7
  6
CONTINUOUS
 10
45.4417956441
 20
48.6692547788
 11
45.229186952
 21
48.7920009708
  0
LINE
  5
2F4
100
AcDbEntity
  8
0
100
AcDbLine
 62
7
  6
CONTINUOUS
 10
27.2314229663
 20
59.9556146336
 11
28.0797648787
 21
59.4658352824
  0
LINE
  5
2F5
100
AcDbEntity
  8
0
100
AcDbLine
 62
7
  6
CONTINUOUS
 10
15.2458111569
 20
67.1363203512
 11
15.5993792543
 21
66.932192333
  0
LINE
  5
2F6
100
AcDbEntity
  8
0
100
AcDbLine
 62
7
  6
CONTINUOUS
 10
33.5953085245
 20
56.5424727714
 11
33.9488766219
 21
56.3383447532
  0
LINE
  5
2F7
100
AcDbEntity
  8
0
100
AcDbLine
 62
7
  6
CONTINUOUS
 10
63.8443157005
 20
39.4528762579
 11
64.0564468516
 21
39.3304050513
  0
LINE
  5
2F8
100
AcDbEntity
  8
0
100
AcDbLine
 62
7
  6
CONTINUOUS
 10
33.9488758777
 20
56.7499111133
 11
31.4739918397
 21
58.1787537541
  0
LINE
  5
2F9
100
AcDbEntity
  8
0
100
AcDbLine
 62
7
  6
CONTINUOUS
 10
15.5993785101
 20
67.3437586931
 11
13.1244944721
 21
68.7726013339
  0
LINE
  5
2FA
100
AcDbEntity
  8
0
100
AcDbLine
 62
7
  6
CONTINUOUS
 10
28.079763107
 20
60.4456896559
 11
25.110105254
 21
62.1601836297
  0
LINE
  5
2FB
100
AcDbEntity
  8
0
100
AcDbLine
 62
7
  6
CONTINUOUS
 10
39.1814872881
 20
54.0362512123
 11
40.7371286834
 21
53.1381215524
  0
LINE
  5
2FC
100
AcDbEntity
  8
0
100
AcDbLine
 62
7
  6
CONTINUOUS
 10
43.1412674633
 20
51.7909873723
 11
43.2826882308
 21
51.7093386633
  0
LINE
  5
2FD
100
AcDbEntity
  8
0
100
AcDbLine
 62
7
  6
CONTINUOUS
 10
48.2702109929
 20
50.3022313943
 11
48.0604749914
 21
50.4233202139
  0
LINE
  5
2FE
100
AcDbEntity
  8
0
100
AcDbLine
 62
7
  6
CONTINUOUS
 10
36.3883861576
 20
65.4468209698
 11
36.3883917677
 21
62.3441150237
  0
LINE
  5
2FF
100
AcDbEntity
  8
0
100
AcDbLine
 62
7
  6
CONTINUOUS
 10
36.3884449164
 20
32.9500586924
 11
36.3884505265
 21
29.8473527463
  0
LINE
  5
300
100
AcDbEntity
  8
0
100
AcDbLine
 62
7
  6
CONTINUOUS
 10
36.4767669747
 20
69.7640837748
 11
36.4767702572
 21
67.9486704099
  0
LINE
  5
301
100
AcDbEntity
  8
0
100
AcDbLine
 62
7
  6
CONTINUOUS
 10
36.4768438581
 20
27.2434431175
 11
36.4768471406
 21
25.4280297527
  0
LINE
  5
302
100
AcDbEntity
  8
0
100
AcDbLine
 62
7
  6
CONTINUOUS
 10
38.4036872594
 20
43.0542941357
 11
38.4036916829
 21
40.6078377204
  0
LINE
  5
303
100
AcDbEntity
  8
0
100
AcDbLine
 62
7
  6
CONTINUOUS
 10
38.5097020982
 20
64.2221063472
 11
38.5097032793
 21
63.5688525996
  0
LINE
  5
304
100
AcDbEntity
  8
0
100
AcDbLine
 62
7
  6
CONTINUOUS
 10
38.509760857
 20
31.7253440698
 11
38.5097620381
 21
31.0720903222
  0
LINE
  5
305
100
AcDbEntity
  8
0
100
AcDbLine
 62
7
  6
CONTINUOUS
 10
38.6158550045
 20
23.6702988734
 11
38.6158498314
 21
26.531317432
  0
LINE
  5
306
100
AcDbEntity
  8
0
100
AcDbLine
 62
7
  6
CONTINUOUS
 10
38.6158461607
 20
28.5613943695
 11
38.6158405506
 21
31.6641003156
  0
LINE
  5
307
100
AcDbEntity
  8
0
100
AcDbLine
 62
7
  6
CONTINUOUS
 10
38.6157874019
 20
61.058156647
 11
38.6157817918
 21
64.1608625931
  0
LINE
  5
308
100
AcDbEntity
  8
0
100
AcDbLine
 62
7
  6
CONTINUOUS
 10
38.6157781211
 20
66.1909395307
 11
38.615772948
 21
69.0519580892
  0
LINE
  5
309
100
AcDbEntity
  8
0
100
AcDbLine
 62
7
  6
CONTINUOUS
 10
38.9693587315
 20
51.746910816
 11
38.9693626381
 21
49.586314676
  0
LINE
  5
30A
100
AcDbEntity
  8
0
100
AcDbLine
 62
7
  6
CONTINUOUS
 10
39.0400387831
 20
68.8070136365
 11
39.0400439562
 21
65.9459950779
  0
LINE
  5
30B
100
AcDbEntity
  8
0
100
AcDbLine
 62
7
  6
CONTINUOUS
 10
39.0400476269
 20
63.9159181404
 11
39.040053237
 21
60.8132121943
  0
LINE
  5
30C
100
AcDbEntity
  8
0
100
AcDbLine
 62
7
  6
CONTINUOUS
 10
39.0401063857
 20
31.4191558629
 11
39.0401119958
 21
28.3164499168
  0
LINE
  5
30D
100
AcDbEntity
  8
0
100
AcDbLine
 62
7
  6
CONTINUOUS
 10
39.0401156665
 20
26.2863729793
 11
39.0401208396
 21
23.4253544207
  0
LINE
  5
30E
100
AcDbEntity
  8
0
100
AcDbLine
 62
7
  6
CONTINUOUS
 10
39.1814828591
 20
56.4857559066
 11
39.1814872881
 21
54.0362512123
  0
LINE
  5
30F
100
AcDbEntity
  8
0
100
AcDbLine
 62
7
  6
CONTINUOUS
 10
39.1815162246
 20
38.032820543
 11
39.1815206537
 21
35.5833158488
  0
LINE
  5
310
100
AcDbEntity
  8
0
100
AcDbLine
 62
7
  6
CONTINUOUS
 10
29.0868594373
 20
52.5977690332
 11
29.464726114
 21
53.135349305
  0
LINE
  5
311
100
AcDbEntity
  8
0
100
AcDbLine
 62
7
  6
CONTINUOUS
 10
34.8532084529
 20
68.582958601
 11
35.0625508069
 21
68.765151919
  0
LINE
  5
312
100
AcDbEntity
  8
0
100
AcDbLine
 62
7
  6
CONTINUOUS
 10
36.6861093287
 20
69.9462770928
 11
36.4767669747
 21
69.7640837748
  0
LINE
  5
313
100
AcDbEntity
  8
0
100
AcDbLine
 62
7
  6
CONTINUOUS
 10
32.9235448337
 20
69.4772776045
 11
35.0055354408
 21
70.6793132864
  0
LINE
  5
314
100
AcDbEntity
  8
0
100
AcDbLine
 62
7
  6
CONTINUOUS
 10
51.4558830609
 20
78.6742300848
 11
47.6572966918
 21
76.4811282174
  0
LINE
  5
315
100
AcDbEntity
  8
0
100
AcDbLine
 62
7
  6
CONTINUOUS
 10
36.9114798035
 20
70.0150648934
 11
36.4767669747
 21
69.7640837748
  0
LINE
  5
316
100
AcDbEntity
  8
0
100
AcDbLine
 62
7
  6
CONTINUOUS
 10
30.2718926452
 20
65.8753975503
 11
32.3932041568
 21
67.1001351262
  0
LINE
  5
317
100
AcDbEntity
  8
0
100
AcDbLine
 62
7
  6
CONTINUOUS
 10
52.0401678268
 20
78.3369007855
 11
48.2415814678
 21
76.1437988761
  0
LINE
  5
318
100
AcDbEntity
  8
0
100
AcDbLine
 62
7
  6
CONTINUOUS
 10
36.4767702572
 20
67.9486704099
 11
38.5397473465
 21
69.1397286518
  0
LINE
  5
319
100
AcDbEntity
  8
0
100
AcDbLine
 62
7
  6
CONTINUOUS
 10
72.6356884722
 20
88.7793192387
 11
73.0761925042
 21
89.0069825816
  0
LINE
  5
31A
100
AcDbEntity
  8
0
100
AcDbLine
 62
7
  6
CONTINUOUS
 10
40.7371242544
 20
55.5876262467
 11
39.1814828591
 21
56.4857559066
  0
LINE
  5
31B
100
AcDbEntity
  8
0
100
AcDbLine
 62
7
  6
CONTINUOUS
 10
47.9006846849
 20
54.3755242443
 11
48.0633465638
 21
54.2816138754
  0
LINE
  5
31C
100
AcDbEntity
  8
0
100
AcDbLine
 62
7
  6
CONTINUOUS
 10
11.9223952776
 20
76.4692451301
 11
14.1497909118
 21
75.1832867534
  0
LINE
  5
31D
100
AcDbEntity
  8
0
100
AcDbLine
 62
7
  6
CONTINUOUS
 10
14.5740567469
 20
74.9383423007
 11
16.8014523811
 21
73.652383924
  0
LINE
  5
31E
100
AcDbEntity
  8
0
100
AcDbLine
 62
7
  6
CONTINUOUS
 10
18.0388944001
 20
72.9379626035
 11
20.2662900343
 21
71.6520042268
  0
LINE
  5
31F
100
AcDbEntity
  8
0
100
AcDbLine
 62
7
  6
CONTINUOUS
 10
20.6905558694
 20
71.4070597741
 11
22.9179515036
 21
70.1211013974
  0
LINE
  5
320
100
AcDbEntity
  8
0
100
AcDbLine
 62
7
  6
CONTINUOUS
 10
24.1553935227
 20
69.4066800769
 11
26.3827891569
 21
68.1207217002
  0
LINE
  5
321
100
AcDbEntity
  8
0
100
AcDbLine
 62
7
  6
CONTINUOUS
 10
26.807054992
 20
67.8757772475
 11
29.0344506262
 21
66.5898188708
  0
LINE
  5
322
100
AcDbEntity
  8
0
100
AcDbLine
 62
7
  6
CONTINUOUS
 10
30.2718926452
 20
65.8753975503
 11
32.4992882794
 21
64.5894391736
  0
LINE
  5
323
100
AcDbEntity
  8
0
100
AcDbLine
 62
7
  6
CONTINUOUS
 10
32.9235541145
 20
64.3444947209
 11
35.1509497487
 21
63.0585363441
  0
LINE
  5
324
100
AcDbEntity
  8
0
100
AcDbLine
 62
7
  6
CONTINUOUS
 10
36.3883917677
 20
62.3441150237
 11
38.6157874019
 21
61.058156647
  0
LINE
  5
325
100
AcDbEntity
  8
0
100
AcDbLine
 62
7
  6
CONTINUOUS
 10
39.040053237
 20
60.8132121943
 11
41.2674488712
 21
59.5272538175
  0
LINE
  5
326
100
AcDbEntity
  8
0
100
AcDbLine
 62
7
  6
CONTINUOUS
 10
39.9019929959
 20
85.3447207174
 11
40.0428146461
 21
82.3233137499
  0
LINE
  5
327
100
AcDbEntity
  8
0
100
AcDbLine
 62
7
  6
CONTINUOUS
 10
40.737162049
 20
34.6851861888
 11
40.7371576199
 21
37.1346908831
  0
LINE
  5
328
100
AcDbEntity
  8
0
100
AcDbLine
 62
7
  6
CONTINUOUS
 10
40.7371286834
 20
53.1381215524
 11
40.7371242544
 21
55.5876262467
  0
LINE
  5
329
100
AcDbEntity
  8
0
100
AcDbLine
 62
7
  6
CONTINUOUS
 10
41.1613635675
 20
62.6912035178
 11
41.1613647486
 21
62.0379497702
  0
LINE
  5
32A
100
AcDbEntity
  8
0
100
AcDbLine
 62
7
  6
CONTINUOUS
 10
41.1614223263
 20
30.1944412403
 11
41.1614235074
 21
29.5411874927
  0
LINE
  5
32B
100
AcDbEntity
  8
0
100
AcDbLine
 62
7
  6
CONTINUOUS
 10
41.1791268129
 20
22.7132287351
 11
41.1791235303
 21
24.5286421
  0
LINE
  5
32C
100
AcDbEntity
  8
0
100
AcDbLine
 62
7
  6
CONTINUOUS
 10
41.1790499295
 20
65.2338693924
 11
41.1790466469
 21
67.0492827572
  0
LINE
  5
32D
100
AcDbEntity
  8
0
100
AcDbLine
 62
7
  6
CONTINUOUS
 10
41.26750763
 20
27.0304915401
 11
41.2675020199
 21
30.1331974862
  0
LINE
  5
32E
100
AcDbEntity
  8
0
100
AcDbLine
 62
7
  6
CONTINUOUS
 10
41.2674488712
 20
59.5272538175
 11
41.2674432611
 21
62.6299597636
  0
LINE
  5
32F
100
AcDbEntity
  8
0
100
AcDbLine
 62
7
  6
CONTINUOUS
 10
41.6563964186
 20
38.7299302496
 11
41.6563919951
 21
41.1763866649
  0
LINE
  5
330
100
AcDbEntity
  8
0
100
AcDbLine
 62
7
  6
CONTINUOUS
 10
41.6563795937
 20
48.0349998089
 11
41.656375687
 21
50.1955959488
  0
LINE
  5
331
100
AcDbEntity
  8
0
100
AcDbLine
 62
7
  6
CONTINUOUS
 10
42.434235069
 20
20.4496746877
 11
42.4341779147
 21
67.8637737638
  0
LINE
  5
332
100
AcDbEntity
  8
0
100
AcDbLine
 62
7
  6
CONTINUOUS
 10
43.1412674633
 20
65.918332956
 11
43.1412674633
 21
51.4398671448
  0
LINE
  5
333
100
AcDbEntity
  8
0
100
AcDbLine
 62
7
  6
CONTINUOUS
 10
43.141762436
 20
37.6927017185
 11
43.141762436
 21
23.2154588967
  0
LINE
  5
334
100
AcDbEntity
  8
0
100
AcDbLine
 62
7
  6
CONTINUOUS
 10
30.6272776381
 20
49.0510569018
 11
30.2305899276
 21
48.4867004755
  0
LINE
  5
335
100
AcDbEntity
  8
0
100
AcDbLine
 62
7
  6
CONTINUOUS
 10
12.2201897221
 20
41.5507665419
 11
12.010847368
 21
41.3685732239
  0
LINE
  5
336
100
AcDbEntity
  8
0
100
AcDbLine
 62
7
  6
CONTINUOUS
 10
40.9697075754
 20
65.0516760744
 11
41.1790499295
 21
65.2338693924
  0
LINE
  5
337
100
AcDbEntity
  8
0
100
AcDbLine
 62
7
  6
CONTINUOUS
 10
32.9235541145
 20
64.3444947209
 11
35.0448656261
 21
65.5692322968
  0
LINE
  5
338
100
AcDbEntity
  8
0
100
AcDbLine
 62
7
  6
CONTINUOUS
 10
52.180989477
 20
75.3154937819
 11
50.9286453824
 21
74.5924568977
  0
LINE
  5
339
100
AcDbEntity
  8
0
100
AcDbLine
 62
7
  6
CONTINUOUS
 10
25.1101114547
 20
58.7308770577
 11
27.2314229663
 21
59.9556146336
  0
LINE
  5
33A
100
AcDbEntity
  8
0
100
AcDbLine
 62
7
  6
CONTINUOUS
 10
39.0400439562
 20
65.9459950779
 11
41.1220345633
 21
67.1480307598
  0
LINE
  5
33B
100
AcDbEntity
  8
0
100
AcDbLine
 62
7
  6
CONTINUOUS
 10
77.3898604845
 20
88.0576555114
 11
82.2997258517
 21
90.892350682
  0
LINE
  5
33C
100
AcDbEntity
  8
0
100
AcDbLine
 62
7
  6
CONTINUOUS
 10
57.4839934678
 20
75.1939776525
 11
52.68717022
 21
72.4245468696
  0
LINE
  5
33D
100
AcDbEntity
  8
0
100
AcDbLine
 62
7
  6
CONTINUOUS
 10
42.4341779147
 20
67.8637737638
 11
52.6871709381
 21
73.5771946631
  0
LINE
  5
33E
100
AcDbEntity
  8
0
100
AcDbLine
 62
7
  6
CONTINUOUS
 10
75.0369584712
 20
87.3256606638
 11
72.5137223549
 21
86.021592773
  0
LINE
  5
33F
100
AcDbEntity
  8
0
100
AcDbLine
 62
7
  6
CONTINUOUS
 10
72.5814312627
 20
43.47660042
 11
77.3898604845
 21
40.7005153179
  0
LINE
  5
340
100
AcDbEntity
  8
0
100
AcDbLine
 62
7
  6
CONTINUOUS
 10
14.0437067892
 20
77.693982706
 11
14.1497864829
 21
77.6327389519
  0
LINE
  5
341
100
AcDbEntity
  8
0
100
AcDbLine
 62
7
  6
CONTINUOUS
 10
16.6953682585
 20
76.1630798766
 11
16.8014479522
 21
76.1018361224
  0
LINE
  5
342
100
AcDbEntity
  8
0
100
AcDbLine
 62
7
  6
CONTINUOUS
 10
20.1602059118
 20
74.1627001794
 11
20.2662856054
 21
74.1014564253
  0
LINE
  5
343
100
AcDbEntity
  8
0
100
AcDbLine
 62
7
  6
CONTINUOUS
 10
22.8118673811
 20
72.63179735
 11
22.9179470747
 21
72.5705535958
  0
LINE
  5
344
100
AcDbEntity
  8
0
100
AcDbLine
 62
7
  6
CONTINUOUS
 10
26.2767050343
 20
70.6314176528
 11
26.3827847279
 21
70.5701738987
  0
LINE
  5
345
100
AcDbEntity
  8
0
100
AcDbLine
 62
7
  6
CONTINUOUS
 10
28.9283665036
 20
69.1005148234
 11
29.0344461972
 21
69.0392710692
  0
LINE
  5
346
100
AcDbEntity
  8
0
100
AcDbLine
 62
7
  6
CONTINUOUS
 10
32.3932041568
 20
67.1001351262
 11
32.4992838504
 21
67.0388913721
  0
LINE
  5
347
100
AcDbEntity
  8
0
100
AcDbLine
 62
7
  6
CONTINUOUS
 10
35.0448656261
 20
65.5692322968
 11
35.1509453197
 21
65.5079885426
  0
LINE
  5
348
100
AcDbEntity
  8
0
100
AcDbLine
 62
7
  6
CONTINUOUS
 10
38.5097032793
 20
63.5688525996
 11
38.615782973
 21
63.5076088455
  0
LINE
  5
349
100
AcDbEntity
  8
0
100
AcDbLine
 62
7
  6
CONTINUOUS
 10
41.1613647486
 20
62.0379497702
 11
41.2674444423
 21
61.976706016
  0
LINE
  5
34A
100
AcDbEntity
  8
0
100
AcDbLine
 62
7
  6
CONTINUOUS
 10
41.2674432611
 20
62.6299597636
 11
39.0400476269
 21
63.9159181404
  0
LINE
  5
34B
100
AcDbEntity
  8
0
100
AcDbLine
 62
7
  6
CONTINUOUS
 10
38.6157817918
 20
64.1608625931
 11
36.3883861576
 21
65.4468209698
  0
LINE
  5
34C
100
AcDbEntity
  8
0
100
AcDbLine
 62
7
  6
CONTINUOUS
 10
35.1509441386
 20
66.1612422902
 11
32.9235485043
 21
67.447200667
  0
LINE
  5
34D
100
AcDbEntity
  8
0
100
AcDbLine
 62
7
  6
CONTINUOUS
 10
32.4992826693
 20
67.6921451197
 11
30.271887035
 21
68.9781034964
  0
LINE
  5
34E
100
AcDbEntity
  8
0
100
AcDbLine
 62
7
  6
CONTINUOUS
 10
29.034445016
 20
69.6925248168
 11
26.8070493818
 21
70.9784831936
  0
LINE
  5
34F
100
AcDbEntity
  8
0
100
AcDbLine
 62
7
  6
CONTINUOUS
 10
26.3827835467
 20
71.2234276463
 11
24.1553879125
 21
72.509386023
  0
LINE
  5
350
100
AcDbEntity
  8
0
100
AcDbLine
 62
7
  6
CONTINUOUS
 10
22.9179458935
 20
73.2238073434
 11
20.6905502593
 21
74.5097657202
  0
LINE
  5
351
100
AcDbEntity
  8
0
100
AcDbLine
 62
7
  6
CONTINUOUS
 10
20.2662844242
 20
74.7547101729
 11
18.03888879
 21
76.0406685496
  0
LINE
  5
352
100
AcDbEntity
  8
0
100
AcDbLine
 62
7
  6
CONTINUOUS
 10
16.801446771
 20
76.75508987
 11
14.5740511368
 21
78.0410482468
  0
LINE
  5
353
100
AcDbEntity
  8
0
100
AcDbLine
 62
7
  6
CONTINUOUS
 10
14.1497853017
 20
78.2859926995
 11
11.9223896675
 21
79.5719510762
  0
LINE
  5
354
100
AcDbEntity
  8
0
100
AcDbLine
 62
7
  6
CONTINUOUS
 10
45.9370330781
 20
81.8604675257
 11
46.0778547283
 21
78.8390605582
  0
LINE
  5
355
100
AcDbEntity
  8
0
100
AcDbLine
 62
7
  6
CONTINUOUS
 10
43.2826882308
 20
23.4583554681
 11
43.2826882308
 21
37.6654970887
  0
LINE
  5
356
100
AcDbEntity
  8
0
100
AcDbLine
 62
7
  6
CONTINUOUS
 10
43.2826882308
 20
51.7093386633
 11
43.2826882308
 21
65.9164809955
  0
LINE
  5
357
100
AcDbEntity
  8
0
100
AcDbLine
 62
7
  6
CONTINUOUS
 10
45.0879243272
 20
48.7104434432
 11
45.0879243272
 21
42.6683255565
  0
LINE
  5
358
100
AcDbEntity
  8
0
100
AcDbLine
 62
7
  6
CONTINUOUS
 10
45.4417956441
 20
48.6692547788
 11
45.4417956441
 21
43.198688584
  0
LINE
  5
359
100
AcDbEntity
  8
0
100
AcDbLine
 62
7
  6
CONTINUOUS
 10
45.5699228529
 20
106.4284894648
 11
45.3179302085
 21
100.7307858756
  0
LINE
  5
35A
100
AcDbEntity
  8
0
100
AcDbLine
 62
7
  6
CONTINUOUS
 10
33.6246883462
 20
50.446280597
 11
34.0213760568
 21
51.0106370232
  0
LINE
  5
35B
100
AcDbEntity
  8
0
100
AcDbLine
 62
7
  6
CONTINUOUS
 10
72.8549051525
 20
88.9486867915
 11
72.6356867317
 21
88.7792798833
  0
LINE
  5
35C
100
AcDbEntity
  8
0
100
AcDbLine
 62
7
  6
CONTINUOUS
 10
36.3883917677
 20
62.3441150237
 11
38.5097032793
 21
63.5688525996
  0
LINE
  5
35D
100
AcDbEntity
  8
0
100
AcDbLine
 62
7
  6
CONTINUOUS
 10
52.6871696002
 20
71.4296292264
 11
43.1412674633
 21
65.918332956
  0
LINE
  5
35E
100
AcDbEntity
  8
0
100
AcDbLine
 62
7
  6
CONTINUOUS
 10
43.2826882308
 20
65.9164809955
 11
58.4179439955
 21
74.6547732063
  0
LINE
  5
35F
100
AcDbEntity
  8
0
100
AcDbLine
 62
7
  6
CONTINUOUS
 10
19.0089503317
 20
49.6791934154
 11
21.1302618433
 21
50.9039309913
  0
LINE
  5
360
100
AcDbEntity
  8
0
100
AcDbLine
 62
7
  6
CONTINUOUS
 10
39.040053237
 20
60.8132121943
 11
41.1613647486
 21
62.0379497702
  0
LINE
  5
361
100
AcDbEntity
  8
0
100
AcDbLine
 62
7
  6
CONTINUOUS
 10
58.6824576888
 20
71.7047795062
 11
77.1378678401
 21
82.3599519222
  0
LINE
  5
362
100
AcDbEntity
  8
0
100
AcDbLine
 62
7
  6
CONTINUOUS
 10
43.210373014
 20
65.9582308261
 11
43.2826882308
 21
65.9164809955
  0
LINE
  5
363
100
AcDbEntity
  8
0
100
AcDbLine
 62
7
  6
CONTINUOUS
 10
48.0230416451
 20
44.3629062148
 11
48.0230416451
 21
40.5108927615
  0
LINE
  5
364
100
AcDbEntity
  8
0
100
AcDbLine
 62
7
  6
CONTINUOUS
 10
48.0633465638
 20
54.2816138754
 11
48.0633465638
 21
50.4282940183
  0
LINE
  5
365
100
AcDbEntity
  8
0
100
AcDbLine
 62
7
  6
CONTINUOUS
 10
48.2702109929
 20
54.5888690842
 11
48.2702109929
 21
50.3022313943
  0
LINE
  5
366
100
AcDbEntity
  8
0
100
AcDbLine
 62
7
  6
CONTINUOUS
 10
48.2702109929
 20
44.8316651995
 11
48.2702109929
 21
40.5450275096
  0
LINE
  5
367
100
AcDbEntity
  8
0
100
AcDbLine
 62
7
  6
CONTINUOUS
 10
16.5037879688
 20
36.6561655236
 11
16.7131303228
 21
36.8383588415
  0
LINE
  5
368
100
AcDbEntity
  8
0
100
AcDbLine
 62
7
  6
CONTINUOUS
 10
18.3366888446
 20
38.0194840153
 11
18.1273464906
 21
37.8372906973
  0
LINE
  5
369
100
AcDbEntity
  8
0
100
AcDbLine
 62
7
  6
CONTINUOUS
 10
74.6986771376
 20
84.4642057122
 11
74.9178975672
 21
84.6336227492
  0
LINE
  5
36A
100
AcDbEntity
  8
0
100
AcDbLine
 62
7
  6
CONTINUOUS
 10
31.4739970128
 20
55.3177351955
 11
33.5953085245
 21
56.5424727714
  0
LINE
  5
36B
100
AcDbEntity
  8
0
100
AcDbLine
 62
7
  6
CONTINUOUS
 10
11.9224540364
 20
43.9724828527
 11
14.0437655481
 21
45.1972204286
  0
LINE
  5
36C
100
AcDbEntity
  8
0
100
AcDbLine
 62
7
  6
CONTINUOUS
 10
64.0564468516
 20
74.0317577793
 11
58.6824576888
 21
70.9291022099
  0
LINE
  5
36D
100
AcDbEntity
  8
0
100
AcDbLine
 62
7
  6
CONTINUOUS
 10
30.3302163719
 20
53.6350394423
 11
29.464726114
 21
53.135349305
  0
LINE
  5
36E
100
AcDbEntity
  8
0
100
AcDbLine
 62
7
  6
CONTINUOUS
 10
31.0960725796
 20
53.1928821576
 11
30.2305823217
 21
52.6931920203
  0
LINE
  5
36F
100
AcDbEntity
  8
0
100
AcDbLine
 62
7
  6
CONTINUOUS
 10
12.4455601968
 20
41.6195543426
 11
12.010847368
 21
41.3685732239
  0
LINE
  5
370
100
AcDbEntity
  8
0
100
AcDbLine
 62
7
  6
CONTINUOUS
 10
14.5741155057
 20
42.4415800232
 11
16.6954270174
 21
43.6663175991
  0
LINE
  5
371
100
AcDbEntity
  8
0
100
AcDbLine
 62
7
  6
CONTINUOUS
 10
32.1798579173
 20
52.5671725565
 11
30.6272729013
 21
51.6707887871
  0
LINE
  5
372
100
AcDbEntity
  8
0
100
AcDbLine
 62
7
  6
CONTINUOUS
 10
28.1152390607
 20
49.9331739134
 11
29.086863241
 21
50.4941403895
  0
LINE
  5
373
100
AcDbEntity
  8
0
100
AcDbLine
 62
7
  6
CONTINUOUS
 10
32.5382186988
 20
52.3602775435
 11
30.6272736495
 21
51.2569948834
  0
LINE
  5
374
100
AcDbEntity
  8
0
100
AcDbLine
 62
7
  6
CONTINUOUS
 10
24.1200782815
 20
47.1694165369
 11
26.1423025627
 21
48.3369461763
  0
LINE
  5
375
100
AcDbEntity
  8
0
100
AcDbLine
 62
7
  6
CONTINUOUS
 10
58.6081352695
 20
70.5741134524
 11
63.8443157005
 21
73.5446865402
  0
LINE
  5
376
100
AcDbEntity
  8
0
100
AcDbLine
 62
7
  6
CONTINUOUS
 10
10.6142259945
 20
86.2345994677
 11
42.4341636261
 21
67.8637655143
  0
LINE
  5
377
100
AcDbEntity
  8
0
100
AcDbLine
 62
7
  6
CONTINUOUS
 10
52.0401678268
 20
78.3369007494
 11
52.180989477
 21
75.3154937819
  0
LINE
  5
378
100
AcDbEntity
  8
0
100
AcDbLine
 62
7
  6
CONTINUOUS
 10
52.6871015931
 20
28.7313220904
 11
52.6871222056
 21
26.5836858115
  0
LINE
  5
379
100
AcDbEntity
  8
0
100
AcDbLine
 62
7
  6
CONTINUOUS
 10
52.6871709381
 20
73.5771946631
 11
52.6871696002
 21
71.4296292264
  0
LINE
  5
37A
100
AcDbEntity
  8
0
100
AcDbLine
 62
7
  6
CONTINUOUS
 10
82.2997258517
 20
80.5227699844
 11
81.0016573933
 21
79.7733342841
  0
LINE
  5
37B
100
AcDbEntity
  8
0
100
AcDbLine
 62
7
  6
CONTINUOUS
 10
12.0108506506
 20
39.5531598591
 11
14.0738277398
 21
40.7442181009
  0
LINE
  5
37C
100
AcDbEntity
  8
0
100
AcDbLine
 62
7
  6
CONTINUOUS
 10
79.7445773414
 20
78.6393119014
 11
79.8248624215
 21
78.6856642373
  0
LINE
  5
37D
100
AcDbEntity
  8
0
100
AcDbLine
 62
7
  6
CONTINUOUS
 10
33.696104835
 20
51.6122112749
 11
30.3020064164
 21
49.6526311534
  0
LINE
  5
37E
100
AcDbEntity
  8
0
100
AcDbLine
 62
7
  6
CONTINUOUS
 10
34.0213753086
 20
51.4244205278
 11
30.62727689
 21
49.4648404064
  0
LINE
  5
37F
100
AcDbEntity
  8
0
100
AcDbLine
 62
7
  6
CONTINUOUS
 10
39.1814872881
 20
54.0362512123
 11
40.7371254355
 21
54.9343977048
  0
LINE
  5
380
100
AcDbEntity
  8
0
100
AcDbLine
 62
7
  6
CONTINUOUS
 10
34.0213760568
 20
51.0106370232
 11
30.6272776381
 21
49.0510569018
  0
LINE
  5
381
100
AcDbEntity
  8
0
100
AcDbLine
 62
7
  6
CONTINUOUS
 10
33.6246883462
 20
50.446280597
 11
30.2305899276
 21
48.4867004755
  0
LINE
  5
382
100
AcDbEntity
  8
0
100
AcDbLine
 62
7
  6
CONTINUOUS
 10
18.0389531589
 20
40.4412003261
 11
20.1602646706
 21
41.665937902
  0
LINE
  5
383
100
AcDbEntity
  8
0
100
AcDbLine
 62
7
  6
CONTINUOUS
 10
14.5741243495
 20
37.5504845271
 11
16.6561149567
 21
38.7525202089
  0
LINE
  5
384
100
AcDbEntity
  8
0
100
AcDbLine
 62
7
  6
CONTINUOUS
 10
79.8248624215
 20
52.312615256
 11
80.5319662587
 21
51.9043779008
  0
LINE
  5
385
100
AcDbEntity
  8
0
100
AcDbLine
 62
7
  6
CONTINUOUS
 10
79.8248624215
 20
53.7008241806
 11
81.0270856958
 21
53.0067359519
  0
LINE
  5
386
100
AcDbEntity
  8
0
100
AcDbLine
 62
7
  6
CONTINUOUS
 10
79.8248624215
 20
54.108895484
 11
82.2997258517
 21
52.6800375603
  0
LINE
  5
387
100
AcDbEntity
  8
0
100
AcDbLine
 62
7
  6
CONTINUOUS
 10
22.6202870913
 20
33.1248829969
 11
22.8296294453
 21
33.3070763149
  0
LINE
  5
388
100
AcDbEntity
  8
0
100
AcDbLine
 62
7
  6
CONTINUOUS
 10
24.4531879671
 20
34.4882014887
 11
24.2438456131
 21
34.3060081707
  0
LINE
  5
389
100
AcDbEntity
  8
0
100
AcDbLine
 62
7
  6
CONTINUOUS
 10
18.5620593194
 20
38.088271816
 11
18.1273464906
 21
37.8372906973
  0
LINE
  5
38A
100
AcDbEntity
  8
0
100
AcDbLine
 62
7
  6
CONTINUOUS
 10
38.9693626381
 20
49.586314676
 11
40.8405146723
 21
50.6666228693
  0
LINE
  5
38B
100
AcDbEntity
  8
0
100
AcDbLine
 62
7
  6
CONTINUOUS
 10
20.6906146282
 20
38.9102974966
 11
22.8119261399
 21
40.1350350725
  0
LINE
  5
38C
100
AcDbEntity
  8
0
100
AcDbLine
 62
7
  6
CONTINUOUS
 10
43.2826882308
 20
51.7093386633
 11
48.2702109929
 21
54.5888690842
  0
LINE
  5
38D
100
AcDbEntity
  8
0
100
AcDbLine
 62
7
  6
CONTINUOUS
 10
43.1412674633
 20
51.4398671448
 11
48.0633465638
 21
54.2816138754
  0
LINE
  5
38E
100
AcDbEntity
  8
0
100
AcDbLine
 62
7
  6
CONTINUOUS
 10
18.1273497731
 20
36.0218773325
 11
20.1903268623
 21
37.2129355743
  0
LINE
  5
38F
100
AcDbEntity
  8
0
100
AcDbLine
 62
7
  6
CONTINUOUS
 10
31.226633313
 20
42.6254704338
 11
33.3479448247
 21
43.8502080097
  0
LINE
  5
390
100
AcDbEntity
  8
0
100
AcDbLine
 62
7
  6
CONTINUOUS
 10
20.8672333065
 20
91.9480286165
 11
52.6871709381
 21
73.5771946631
  0
LINE
  5
391
100
AcDbEntity
  8
0
100
AcDbLine
 62
7
  6
CONTINUOUS
 10
58.589077234
 20
70.9830142209
 11
58.6824576888
 21
70.9291022099
  0
LINE
  5
392
100
AcDbEntity
  8
0
100
AcDbLine
 62
7
  6
CONTINUOUS
 10
27.7687376856
 20
89.409595074
 11
30.6005237164
 21
87.7746996331
  0
LINE
  5
393
100
AcDbEntity
  8
0
100
AcDbLine
 62
7
  6
CONTINUOUS
 10
33.9257498358
 20
85.8549228691
 11
36.6825115247
 21
84.2633417723
  0
LINE
  5
394
100
AcDbEntity
  8
0
100
AcDbLine
 62
7
  6
CONTINUOUS
 10
40.0428146461
 20
82.3233137499
 11
42.799576335
 21
80.7317326531
  0
LINE
  5
395
100
AcDbEntity
  8
0
100
AcDbLine
 62
7
  6
CONTINUOUS
 10
46.0778547283
 20
78.8390605582
 11
48.909640759
 21
77.2041651174
  0
LINE
  5
396
100
AcDbEntity
  8
0
100
AcDbLine
 62
7
  6
CONTINUOUS
 10
52.180989477
 20
75.3154937819
 11
54.9377511659
 21
73.7239126851
  0
LINE
  5
397
100
AcDbEntity
  8
0
100
AcDbLine
 62
7
  6
CONTINUOUS
 10
58.4179439955
 20
74.6547732063
 11
58.6081352695
 21
70.5741134524
  0
LINE
  5
398
100
AcDbEntity
  8
0
100
AcDbLine
 62
7
  6
CONTINUOUS
 10
58.6824576888
 20
35.4520721856
 11
58.6824576888
 21
36.2277494819
  0
LINE
  5
399
100
AcDbEntity
  8
0
100
AcDbLine
 62
7
  6
CONTINUOUS
 10
58.6824576888
 20
70.9291022099
 11
58.6824576888
 21
71.7047795062
  0
LINE
  5
39A
100
AcDbEntity
  8
0
100
AcDbLine
 62
7
  6
CONTINUOUS
 10
58.6013368166
 20
36.3442307721
 11
58.4179047367
 21
32.1966252401
  0
LINE
  5
39B
100
AcDbEntity
  8
0
100
AcDbLine
 62
7
  6
CONTINUOUS
 10
28.7367862138
 20
29.5936004703
 11
28.9461285678
 21
29.7757937883
  0
LINE
  5
39C
100
AcDbEntity
  8
0
100
AcDbLine
 62
7
  6
CONTINUOUS
 10
30.5696870896
 20
30.9569189621
 11
30.3603447356
 21
30.7747256441
  0
LINE
  5
39D
100
AcDbEntity
  8
0
100
AcDbLine
 62
7
  6
CONTINUOUS
 10
24.1554522815
 20
36.9099177995
 11
26.2767637931
 21
38.1346553754
  0
LINE
  5
39E
100
AcDbEntity
  8
0
100
AcDbLine
 62
7
  6
CONTINUOUS
 10
48.0633465638
 20
50.4282940183
 11
45.0879243272
 21
48.7104434432
  0
LINE
  5
39F
100
AcDbEntity
  8
0
100
AcDbLine
 62
7
  6
CONTINUOUS
 10
48.2702109929
 20
50.3022313943
 11
45.4417956441
 21
48.6692547788
  0
LINE
  5
3A0
100
AcDbEntity
  8
0
100
AcDbLine
 62
7
  6
CONTINUOUS
 10
20.690623472
 20
34.0192020005
 11
22.7726140792
 21
35.2212376823
  0
LINE
  5
3A1
100
AcDbEntity
  8
0
100
AcDbLine
 62
7
  6
CONTINUOUS
 10
24.6785584419
 20
34.5569892894
 11
24.2438456131
 21
34.3060081707
  0
LINE
  5
3A2
100
AcDbEntity
  8
0
100
AcDbLine
 62
7
  6
CONTINUOUS
 10
26.8071137508
 20
35.37901497
 11
28.9284252624
 21
36.6037525459
  0
LINE
  5
3A3
100
AcDbEntity
  8
0
100
AcDbLine
 62
7
  6
CONTINUOUS
 10
27.7618968136
 20
89.556369794
 11
30.7242157595
 21
87.8461128444
  0
LINE
  5
3A4
100
AcDbEntity
  8
0
100
AcDbLine
 62
7
  6
CONTINUOUS
 10
33.9189089638
 20
86.0016975891
 11
36.8062035679
 21
84.3347549835
  0
LINE
  5
3A5
100
AcDbEntity
  8
0
100
AcDbLine
 62
7
  6
CONTINUOUS
 10
40.0359737741
 20
82.4700884699
 11
42.9232683782
 21
80.8031458643
  0
LINE
  5
3A6
100
AcDbEntity
  8
0
100
AcDbLine
 62
7
  6
CONTINUOUS
 10
46.0710138563
 20
78.9858352783
 11
49.0333328022
 21
77.2755783286
  0
LINE
  5
3A7
100
AcDbEntity
  8
0
100
AcDbLine
 62
7
  6
CONTINUOUS
 10
52.174148605
 20
75.4622685019
 11
55.0614432091
 21
73.7953258963
  0
LINE
  5
3A8
100
AcDbEntity
  8
0
100
AcDbLine
 62
7
  6
CONTINUOUS
 10
58.551924771
 20
71.7801410165
 11
58.6824576888
 21
71.7047795062
  0
LINE
  5
3A9
100
AcDbEntity
  8
0
100
AcDbLine
 62
7
  6
CONTINUOUS
 10
26.5980063638
 20
93.025607255
 11
27.6279160354
 21
92.4310020776
  0
LINE
  5
3AA
100
AcDbEntity
  8
0
100
AcDbLine
 62
7
  6
CONTINUOUS
 10
33.1467660182
 20
89.2447646367
 11
33.7849281856
 21
88.8763298727
  0
LINE
  5
3AB
100
AcDbEntity
  8
0
100
AcDbLine
 62
7
  6
CONTINUOUS
 10
39.2287538266
 20
85.7334067759
 11
39.9019929959
 21
85.3447207535
  0
LINE
  5
3AC
100
AcDbEntity
  8
0
100
AcDbLine
 62
7
  6
CONTINUOUS
 10
45.3458186369
 20
82.2017976567
 11
45.9370330781
 21
81.8604675618
  0
LINE
  5
3AD
100
AcDbEntity
  8
0
100
AcDbLine
 62
7
  6
CONTINUOUS
 10
51.4558830609
 20
78.6742301209
 11
52.0401678268
 21
78.3369007855
  0
LINE
  5
3AE
100
AcDbEntity
  8
0
100
AcDbLine
 62
7
  6
CONTINUOUS
 10
57.4839934678
 20
75.1939776886
 11
58.4179439955
 21
74.6547733016
  0
LINE
  5
3AF
100
AcDbEntity
  8
0
100
AcDbLine
 62
7
  6
CONTINUOUS
 10
63.8443157005
 20
39.4245030806
 11
63.8443157005
 21
73.5446865402
  0
LINE
  5
3B0
100
AcDbEntity
  8
0
100
AcDbLine
 62
7
  6
CONTINUOUS
 10
64.0564468516
 20
39.3304050513
 11
64.0564468516
 21
74.0317577793
  0
LINE
  5
3B1
100
AcDbEntity
  8
0
100
AcDbLine
 62
7
  6
CONTINUOUS
 10
24.2438488956
 20
32.4905948059
 11
26.3068259849
 21
33.6816530477
  0
LINE
  5
3B2
100
AcDbEntity
  8
0
100
AcDbLine
 62
7
  6
CONTINUOUS
 10
38.4036916829
 20
40.6078377204
 11
40.5250031946
 21
41.8325752963
  0
LINE
  5
3B3
100
AcDbEntity
  8
0
100
AcDbLine
 62
7
  6
CONTINUOUS
 10
45.0879243272
 20
43.3204547679
 11
45.1594039041
 21
43.3617232745
  0
LINE
  5
3B4
100
AcDbEntity
  8
0
100
AcDbLine
 62
7
  6
CONTINUOUS
 10
45.4417956441
 20
43.198688584
 11
48.2702109929
 21
44.8316651995
  0
LINE
  5
3B5
100
AcDbEntity
  8
0
100
AcDbLine
 62
7
  6
CONTINUOUS
 10
45.0879243272
 20
42.6683255565
 11
48.0230416451
 21
44.3629062148
  0
LINE
  5
3B6
100
AcDbEntity
  8
0
100
AcDbLine
 62
7
  6
CONTINUOUS
 10
30.271951404
 20
33.3786352729
 11
32.3932629156
 21
34.6033728488
  0
LINE
  5
3B7
100
AcDbEntity
  8
0
100
AcDbLine
 62
7
  6
CONTINUOUS
 10
63.8443157005
 20
73.5446865402
 11
63.5285600624
 21
73.7269840187
  0
LINE
  5
3B8
100
AcDbEntity
  8
0
100
AcDbLine
 62
7
  6
CONTINUOUS
 10
34.8532853363
 20
26.0623179437
 11
35.0626276904
 21
26.2445112617
  0
LINE
  5
3B9
100
AcDbEntity
  8
0
100
AcDbLine
 62
7
  6
CONTINUOUS
 10
36.6861862122
 20
27.4256364355
 11
36.4768438581
 21
27.2434431175
  0
LINE
  5
3BA
100
AcDbEntity
  8
0
100
AcDbLine
 62
7
  6
CONTINUOUS
 10
26.8071225946
 20
30.4879194739
 11
28.8891132017
 21
31.6899551557
  0
LINE
  5
3BB
100
AcDbEntity
  8
0
100
AcDbLine
 62
7
  6
CONTINUOUS
 10
30.7950575644
 20
31.0257067628
 11
30.3603447356
 21
30.7747256441
  0
LINE
  5
3BC
100
AcDbEntity
  8
0
100
AcDbLine
 62
7
  6
CONTINUOUS
 10
39.1815206537
 20
35.5833158488
 11
40.7371588011
 21
36.4814623412
  0
LINE
  5
3BD
100
AcDbEntity
  8
0
100
AcDbLine
 62
7
  6
CONTINUOUS
 10
32.9236128733
 20
31.8477324434
 11
35.0449243849
 21
33.0724700193
  0
LINE
  5
3BE
100
AcDbEntity
  8
0
100
AcDbLine
 62
7
  6
CONTINUOUS
 10
48.0230416451
 20
40.5108927615
 11
43.141762436
 21
37.6927017185
  0
LINE
  5
3BF
100
AcDbEntity
  8
0
100
AcDbLine
 62
7
  6
CONTINUOUS
 10
48.2702109929
 20
40.5450275096
 11
43.2826882308
 21
37.6654970887
  0
LINE
  5
3C0
100
AcDbEntity
  8
0
100
AcDbLine
 62
7
  6
CONTINUOUS
 10
30.3603480181
 20
28.9593122793
 11
32.4233251074
 21
30.1503705211
  0
LINE
  5
3C1
100
AcDbEntity
  8
0
100
AcDbLine
 62
7
  6
CONTINUOUS
 10
72.6356867317
 20
88.7792798833
 11
72.5137245044
 21
86.0216413088
  0
LINE
  5
3C2
100
AcDbEntity
  8
0
100
AcDbLine
 62
7
  6
CONTINUOUS
 10
36.3884505265
 20
29.8473527463
 11
38.5097620381
 21
31.0720903222
  0
LINE
  5
3C3
100
AcDbEntity
  8
0
100
AcDbLine
 62
7
  6
CONTINUOUS
 10
32.9236217171
 20
26.9566369473
 11
35.0056123242
 21
28.1586726291
  0
LINE
  5
3C4
100
AcDbEntity
  8
0
100
AcDbLine
 62
7
  6
CONTINUOUS
 10
74.9936994443
 20
44.8693157906
 11
75.0375627265
 21
43.9281895414
  0
LINE
  5
3C5
100
AcDbEntity
  8
0
100
AcDbLine
 62
7
  6
CONTINUOUS
 10
77.3898604845
 20
40.7005153179
 11
77.1378678401
 21
46.1072446017
  0
LINE
  5
3C6
100
AcDbEntity
  8
0
100
AcDbLine
 62
7
  6
CONTINUOUS
 10
74.9178975672
 20
84.6336227492
 11
75.039859795
 21
87.3912613225
  0
LINE
  5
3C7
100
AcDbEntity
  8
0
100
AcDbLine
 62
7
  6
CONTINUOUS
 10
77.1378678401
 20
82.3599519222
 11
77.3898604845
 21
88.0576555114
  0
LINE
  5
3C8
100
AcDbEntity
  8
0
100
AcDbLine
 62
7
  6
CONTINUOUS
 10
40.9697844588
 20
22.5310354171
 11
41.1791268129
 21
22.7132287351
  0
LINE
  5
3C9
100
AcDbEntity
  8
0
100
AcDbLine
 62
7
  6
CONTINUOUS
 10
63.8443157005
 20
39.4245030806
 11
58.6013368166
 21
36.3442307721
  0
LINE
  5
3CA
100
AcDbEntity
  8
0
100
AcDbLine
 62
7
  6
CONTINUOUS
 10
81.0270856958
 20
53.0067359519
 11
81.3804908634
 21
53.2107733025
  0
LINE
  5
3CB
100
AcDbEntity
  8
0
100
AcDbLine
 62
7
  6
CONTINUOUS
 10
36.9115566869
 20
27.4944242362
 11
36.4768438581
 21
27.2434431175
  0
LINE
  5
3CC
100
AcDbEntity
  8
0
100
AcDbLine
 62
7
  6
CONTINUOUS
 10
39.0401119958
 20
28.3164499168
 11
41.1614235074
 21
29.5411874927
  0
LINE
  5
3CD
100
AcDbEntity
  8
0
100
AcDbLine
 62
7
  6
CONTINUOUS
 10
79.8248624215
 20
51.4961337469
 11
80.5319662587
 21
51.9043779008
  0
LINE
  5
3CE
100
AcDbEntity
  8
0
100
AcDbLine
 62
7
  6
CONTINUOUS
 10
36.4768471406
 20
25.4280297527
 11
38.5398242299
 21
26.6190879945
  0
LINE
  5
3CF
100
AcDbEntity
  8
0
100
AcDbLine
 62
7
  6
CONTINUOUS
 10
58.6824576888
 20
36.2277494819
 11
64.0564468516
 21
39.3304050513
  0
LINE
  5
3D0
100
AcDbEntity
  8
0
100
AcDbLine
 62
7
  6
CONTINUOUS
 10
79.7229064952
 20
78.7445271871
 11
79.8248624215
 21
78.6856642373
  0
LINE
  5
3D1
100
AcDbEntity
  8
0
100
AcDbLine
 62
7
  6
CONTINUOUS
 10
79.3505464735
 20
80.7265820528
 11
81.0016573933
 21
79.7733342841
  0
LINE
  5
3D2
100
AcDbEntity
  8
0
100
AcDbLine
 62
7
  6
CONTINUOUS
 10
45.3179302085
 20
100.7307858756
 11
77.1378678401
 21
82.3599519222
  0
LINE
  5
3D3
100
AcDbEntity
  8
0
100
AcDbLine
 62
7
  6
CONTINUOUS
 10
79.8248624215
 20
78.6856642373
 11
79.8248624215
 21
51.4961337469
  0
LINE
  5
3D4
100
AcDbEntity
  8
0
100
AcDbLine
 62
7
  6
CONTINUOUS
 10
75.0375627265
 20
43.9281895414
 11
74.8439313176
 21
43.7720803295
  0
LINE
  5
3D5
100
AcDbEntity
  8
0
100
AcDbLine
 62
7
  6
CONTINUOUS
 10
43.141762436
 20
23.2154588967
 11
52.6871015931
 21
28.7313220904
  0
LINE
  5
3D6
100
AcDbEntity
  8
0
100
AcDbLine
 62
7
  6
CONTINUOUS
 10
77.1378678401
 20
46.1072446017
 11
58.6824576888
 21
35.4520721856
  0
LINE
  5
3D7
100
AcDbEntity
  8
0
100
AcDbLine
 62
7
  6
CONTINUOUS
 10
39.0401208396
 20
23.4253544207
 11
41.1221114467
 21
24.6273901025
  0
LINE
  5
3D8
100
AcDbEntity
  8
0
100
AcDbLine
 62
7
  6
CONTINUOUS
 10
43.2826882308
 20
23.458355316
 11
58.4179047367
 21
32.1966253923
  0
LINE
  5
3D9
100
AcDbEntity
  8
0
100
AcDbLine
 62
7
  6
CONTINUOUS
 10
48.1548496693
 20
100.0381483544
 11
49.7750555093
 21
99.102743241
  0
LINE
  5
3DA
100
AcDbEntity
  8
0
100
AcDbLine
 62
7
  6
CONTINUOUS
 10
80.6954043373
 20
81.6020813557
 11
80.1473306856
 21
81.9185046676
  0
LINE
  5
3DB
100
AcDbEntity
  8
0
100
AcDbLine
 62
7
  6
CONTINUOUS
 10
49.9010518288
 20
101.9515950344
 11
48.280845988
 21
102.8870001475
  0
LINE
  5
3DC
100
AcDbEntity
  8
0
100
AcDbLine
 62
7
  6
CONTINUOUS
 10
82.2997258517
 20
90.892350682
 11
82.2997258517
 21
80.5227699844
  0
LINE
  5
3DD
100
AcDbEntity
  8
0
100
AcDbLine
 62
7
  6
CONTINUOUS
 10
82.2997258517
 20
52.6800375603
 11
82.2997258517
 21
43.5352104885
  0
LINE
  5
3DE
100
AcDbEntity
  8
0
100
AcDbLine
 62
7
  6
CONTINUOUS
 10
80.5319662587
 20
51.9043779008
 11
81.0270856958
 21
53.0067359519
  0
LINE
  5
3DF
100
AcDbEntity
  8
0
100
AcDbLine
 62
7
  6
CONTINUOUS
 10
52.6871222056
 20
26.5836858115
 11
42.434235069
 21
20.4496746877
  0
LINE
  5
3E0
100
AcDbEntity
  8
0
100
AcDbLine
 62
7
  6
CONTINUOUS
 10
82.2997258517
 20
43.5352104885
 11
77.3898604845
 21
40.7005153179
  0
LINE
  5
3E1
100
AcDbEntity
  8
0
100
AcDbLine
 62
7
  6
CONTINUOUS
 10
45.5699228529
 20
106.4284894648
 11
77.3898604845
 21
88.0576555114
  0
LINE
  5
3E2
100
AcDbEntity
  8
0
100
AcDbLine
 62
7
  6
CONTINUOUS
 10
80.6954043373
 20
81.6020813557
 11
80.5058222988
 21
81.9131466932
  0
LINE
  5
3E3
100
AcDbEntity
  8
0
100
AcDbLine
 62
7
  6
CONTINUOUS
 10
79.3516519977
 20
80.5470247772
 11
79.7445773414
 21
78.6393119014
  0
LINE
  5
3E4
100
AcDbEntity
  8
0
100
AcDbLine
 62
7
  6
CONTINUOUS
 10
81.0016573933
 20
79.7733342841
 11
80.6954043373
 21
81.6020813557
  0
LINE
  5
3E5
100
AcDbEntity
  8
0
100
AcDbLine
 62
7
  6
CONTINUOUS
 10
50.4797882201
 20
109.2631846354
 11
82.2997258517
 21
90.892350682
  0
SPLINE
  5
3E6
100
AcDbEntity
  8
0
100
AcDbSpline
 62
7
  6
CONTINUOUS
 70
0
 71
3
 72
11
 73
7
 74
0
 42
0.0000001
 43
0.0000001
 44
0.0000000001
 40
0.0
 40
0.0
 40
0.0
 40
0.0
 40
0.220020354
 40
0.4543243918
 40
0.7131585288
 40
1.0
 40
1.0
 40
1.0
 40
1.0
 10
68.2085087298
 20
88.9850162763
 30
0.0
 10
68.2637387701
 20
89.0135884758
 30
0.0
 10
68.3682669058
 20
89.092867698
 30
0.0
 10
68.4839406767
 20
89.2612858328
 30
0.0
 10
68.5577409509
 20
89.4711393349
 30
0.0
 10
68.5774090738
 20
89.6251849392
 30
0.0
 10
68.580990983
 20
89.7061740363
 30
0.0
  0
SPLINE
  5
3E7
100
AcDbEntity
  8
0
100
AcDbSpline
 62
7
  6
CONTINUOUS
 70
0
 71
3
 72
11
 73
7
 74
0
 42
0.0000001
 43
0.0000001
 44
0.0000000001
 40
0.0
 40
0.0
 40
0.0
 40
0.0
 40
0.220020354
 40
0.4543243918
 40
0.7131585288
 40
1.0
 40
1.0
 40
1.0
 40
1.0
 10
62.0920096073
 20
92.5162988029
 30
0.0
 10
62.1472396476
 20
92.5448710024
 30
0.0
 10
62.2517677832
 20
92.6241502246
 30
0.0
 10
62.3674415541
 20
92.7925683594
 30
0.0
 10
62.4412418283
 20
93.0024218615
 30
0.0
 10
62.4609099513
 20
93.1564674658
 30
0.0
 10
62.4644918604
 20
93.2374565629
 30
0.0
  0
SPLINE
  5
3E8
100
AcDbEntity
  8
0
100
AcDbSpline
 62
7
  6
CONTINUOUS
 70
0
 71
3
 72
11
 73
7
 74
0
 42
0.0000001
 43
0.0000001
 44
0.0000000001
 40
0.0
 40
0.0
 40
0.0
 40
0.0
 40
0.220020354
 40
0.4543243918
 40
0.7131585288
 40
1.0
 40
1.0
 40
1.0
 40
1.0
 10
55.9755104848
 20
96.0475813295
 30
0.0
 10
56.030740525
 20
96.076153529
 30
0.0
 10
56.1352686607
 20
96.1554327512
 30
0.0
 10
56.2509424316
 20
96.323850886
 30
0.0
 10
56.3247427058
 20
96.5337043881
 30
0.0
 10
56.3444108287
 20
96.6877499924
 30
0.0
 10
56.3479927379
 20
96.7687390895
 30
0.0
  0
SPLINE
  5
3E9
100
AcDbEntity
  8
0
100
AcDbSpline
 62
7
  6
CONTINUOUS
 70
0
 71
3
 72
17
 73
13
 74
0
 42
0.0000001
 43
0.0000001
 44
0.0000000001
 40
0.0
 40
0.0
 40
0.0
 40
0.0
 40
0.1295261811
 40
0.2704666242
 40
0.4160204017
 40
0.5585205207
 40
0.6908688565
 40
0.8080472411
 40
0.8606021202
 40
0.9094700307
 40
0.9555081907
 40
1.0
 40
1.0
 40
1.0
 40
1.0
 10
68.580990983
 20
89.7061740363
 30
0.0
 10
68.5866991109
 20
89.8352382037
 30
0.0
 10
68.5632989896
 20
90.1066888491
 30
0.0
 10
68.4466660931
 20
90.5070923715
 30
0.0
 10
68.2560797166
 20
90.8926300884
 30
0.0
 10
68.0064786295
 20
91.2324662005
 30
0.0
 10
67.7176768331
 20
91.4997870041
 30
0.0
 10
67.4517178341
 20
91.6502262926
 30
0.0
 10
67.2408328959
 20
91.7094022463
 30
0.0
 10
67.0933829322
 20
91.7227807201
 30
0.0
 10
66.9542716662
 20
91.7058658443
 30
0.0
 10
66.8686473679
 20
91.6741251389
 30
0.0
 10
66.8292328631
 20
91.6537348026
 30
0.0
  0
SPLINE
  5
3EA
100
AcDbEntity
  8
0
100
AcDbSpline
 62
7
  6
CONTINUOUS
 70
0
 71
3
 72
17
 73
13
 74
0
 42
0.0000001
 43
0.0000001
 44
0.0000000001
 40
0.0
 40
0.0
 40
0.0
 40
0.0
 40
0.1295261811
 40
0.2704666242
 40
0.4160204017
 40
0.5585205207
 40
0.6908688565
 40
0.8080472411
 40
0.8606021202
 40
0.9094700307
 40
0.9555081907
 40
1.0
 40
1.0
 40
1.0
 40
1.0
 10
62.4644918604
 20
93.2374565629
 30
0.0
 10
62.4701999883
 20
93.3665207303
 30
0.0
 10
62.4467998671
 20
93.6379713758
 30
0.0
 10
62.3301669706
 20
94.0383748981
 30
0.0
 10
62.1395805941
 20
94.423912615
 30
0.0
 10
61.889979507
 20
94.7637487271
 30
0.0
 10
61.6011777106
 20
95.0310695307
 30
0.0
 10
61.3352187116
 20
95.1815088192
 30
0.0
 10
61.1243337734
 20
95.2406847729
 30
0.0
 10
60.9768838097
 20
95.2540632467
 30
0.0
 10
60.8377725437
 20
95.2371483709
 30
0.0
 10
60.7521482453
 20
95.2054076655
 30
0.0
 10
60.7127337405
 20
95.1850173292
 30
0.0
  0
SPLINE
  5
3EB
100
AcDbEntity
  8
0
100
AcDbSpline
 62
7
  6
CONTINUOUS
 70
0
 71
3
 72
17
 73
13
 74
0
 42
0.0000001
 43
0.0000001
 44
0.0000000001
 40
0.0
 40
0.0
 40
0.0
 40
0.0
 40
0.1295261811
 40
0.2704666242
 40
0.4160204017
 40
0.5585205207
 40
0.6908688565
 40
0.8080472411
 40
0.8606021202
 40
0.9094700307
 40
0.9555081907
 40
1.0
 40
1.0
 40
1.0
 40
1.0
 10
56.3479927379
 20
96.7687390895
 30
0.0
 10
56.3537008658
 20
96.8978032569
 30
0.0
 10
56.3303007446
 20
97.1692539024
 30
0.0
 10
56.2136678481
 20
97.5696574247
 30
0.0
 10
56.0230814716
 20
97.9551951416
 30
0.0
 10
55.7734803845
 20
98.2950312537
 30
0.0
 10
55.484678588
 20
98.5623520573
 30
0.0
 10
55.2187195891
 20
98.7127913458
 30
0.0
 10
55.0078346509
 20
98.7719672995
 30
0.0
 10
54.8603846872
 20
98.7853457733
 30
0.0
 10
54.7212734212
 20
98.7684308975
 30
0.0
 10
54.6356491228
 20
98.7366901921
 30
0.0
 10
54.596234618
 20
98.7162998558
 30
0.0
  0
SPLINE
  5
3EC
100
AcDbEntity
  8
0
100
AcDbSpline
 62
7
  6
CONTINUOUS
 70
0
 71
3
 72
9
 73
5
 74
0
 42
0.0000001
 43
0.0000001
 44
0.0000000001
 40
0.0
 40
0.0
 40
0.0
 40
0.0
 40
0.2592647546
 40
1.0
 40
1.0
 40
1.0
 40
1.0
 10
79.3404547411
 20
80.6829226095
 30
0.0
 10
79.3404547411
 20
80.6711302579
 30
0.0
 10
79.3413353426
 20
80.6256566508
 30
0.0
 10
79.3458156204
 20
80.5802068775
 30
0.0
 10
79.3516519977
 20
80.5470247772
 30
0.0
  0
SPLINE
  5
3ED
100
AcDbEntity
  8
0
100
AcDbSpline
 62
7
  6
CONTINUOUS
 70
0
 71
3
 72
17
 73
13
 74
0
 42
0.0000001
 43
0.0000001
 44
0.0000000001
 40
0.0
 40
0.0
 40
0.0
 40
0.0
 40
0.0428595108
 40
0.0874873318
 40
0.1353237276
 40
0.1872822692
 40
0.304542388
 40
0.4382070392
 40
0.5825496888
 40
0.729705145
 40
0.8713086791
 40
1.0
 40
1.0
 40
1.0
 40
1.0
 10
80.5058192088
 20
81.9131413393
 30
0.0
 10
80.4820126842
 20
81.9268732929
 30
0.0
 10
80.4295395116
 20
81.9486472744
 30
0.0
 10
80.3429424076
 20
81.9613984478
 30
0.0
 10
80.249938583
 20
81.9545113157
 30
0.0
 10
80.1148015325
 20
81.9186007337
 30
0.0
 10
79.9420611046
 20
81.8241228105
 30
0.0
 10
79.7512015332
 20
81.6551042997
 30
0.0
 10
79.5824961391
 20
81.4391569226
 30
0.0
 10
79.4497058319
 20
81.1937388935
 30
0.0
 10
79.3635476724
 20
80.9389631665
 30
0.0
 10
79.3404547411
 20
80.7654440355
 30
0.0
 10
79.3404547411
 20
80.6829226095
 30
0.0
  0
SPLINE
  5
3EE
100
AcDbEntity
  8
0
100
AcDbSpline
 62
7
  6
CONTINUOUS
 70
0
 71
3
 72
11
 73
7
 74
0
 42
0.0000001
 43
0.0000001
 44
0.0000000001
 40
0.0
 40
0.0
 40
0.0
 40
0.0
 40
0.220020354
 40
0.4543243918
 40
0.7131585288
 40
1.0
 40
1.0
 40
1.0
 40
1.0
 10
54.596234618
 20
98.7162998558
 30
0.0
 10
54.5410045777
 20
98.6877276564
 30
0.0
 10
54.4364764421
 20
98.6084484342
 30
0.0
 10
54.3208026712
 20
98.4400302994
 30
0.0
 10
54.247002397
 20
98.2301767972
 30
0.0
 10
54.227334274
 20
98.076131193
 30
0.0
 10
54.2237523649
 20
97.9951420958
 30
0.0
  0
SPLINE
  5
3EF
100
AcDbEntity
  8
0
100
AcDbSpline
 62
7
  6
CONTINUOUS
 70
0
 71
3
 72
17
 73
13
 74
0
 42
0.0000001
 43
0.0000001
 44
0.0000000001
 40
0.0
 40
0.0
 40
0.0
 40
0.0
 40
0.1295261811
 40
0.2704666242
 40
0.4160204017
 40
0.5585205207
 40
0.6908688565
 40
0.8080472411
 40
0.8606021202
 40
0.9094700307
 40
0.9555081907
 40
1.0
 40
1.0
 40
1.0
 40
1.0
 10
66.4567506099
 20
90.9325770426
 30
0.0
 10
66.451042482
 20
90.8035128752
 30
0.0
 10
66.4744426032
 20
90.5320622298
 30
0.0
 10
66.5910754998
 20
90.1316587075
 30
0.0
 10
66.7816618762
 20
89.7461209905
 30
0.0
 10
67.0312629633
 20
89.4062848784
 30
0.0
 10
67.3200647598
 20
89.1389640749
 30
0.0
 10
67.5860237587
 20
88.9885247864
 30
0.0
 10
67.7969086969
 20
88.9293488327
 30
0.0
 10
67.9443586607
 20
88.9159703589
 30
0.0
 10
68.0834699266
 20
88.9328852346
 30
0.0
 10
68.169094225
 20
88.9646259401
 30
0.0
 10
68.2085087298
 20
88.9850162763
 30
0.0
  0
SPLINE
  5
3F0
100
AcDbEntity
  8
0
100
AcDbSpline
 62
7
  6
CONTINUOUS
 70
0
 71
3
 72
17
 73
13
 74
0
 42
0.0000001
 43
0.0000001
 44
0.0000000001
 40
0.0
 40
0.0
 40
0.0
 40
0.0
 40
0.1295261811
 40
0.2704666242
 40
0.4160204017
 40
0.5585205207
 40
0.6908688565
 40
0.8080472411
 40
0.8606021202
 40
0.9094700307
 40
0.9555081907
 40
1.0
 40
1.0
 40
1.0
 40
1.0
 10
60.3402514874
 20
94.4638595692
 30
0.0
 10
60.3345433595
 20
94.3347954018
 30
0.0
 10
60.3579434807
 20
94.0633447564
 30
0.0
 10
60.4745763772
 20
93.6629412341
 30
0.0
 10
60.6651627537
 20
93.2774035171
 30
0.0
 10
60.9147638408
 20
92.937567405
 30
0.0
 10
61.2035656373
 20
92.6702466015
 30
0.0
 10
61.4695246362
 20
92.519807313
 30
0.0
 10
61.6804095744
 20
92.4606313593
 30
0.0
 10
61.8278595381
 20
92.4472528855
 30
0.0
 10
61.9669708041
 20
92.4641677612
 30
0.0
 10
62.0525951025
 20
92.4959084667
 30
0.0
 10
62.0920096073
 20
92.5162988029
 30
0.0
  0
SPLINE
  5
3F1
100
AcDbEntity
  8
0
100
AcDbSpline
 62
7
  6
CONTINUOUS
 70
0
 71
3
 72
17
 73
13
 74
0
 42
0.0000001
 43
0.0000001
 44
0.0000000001
 40
0.0
 40
0.0
 40
0.0
 40
0.0
 40
0.1295261811
 40
0.2704666242
 40
0.4160204017
 40
0.5585205207
 40
0.6908688565
 40
0.8080472411
 40
0.8606021202
 40
0.9094700307
 40
0.9555081907
 40
1.0
 40
1.0
 40
1.0
 40
1.0
 10
54.2237523649
 20
97.9951420958
 30
0.0
 10
54.218044237
 20
97.8660779284
 30
0.0
 10
54.2414443582
 20
97.594627283
 30
0.0
 10
54.3580772547
 20
97.1942237607
 30
0.0
 10
54.5486636312
 20
96.8086860438
 30
0.0
 10
54.7982647183
 20
96.4688499316
 30
0.0
 10
55.0870665147
 20
96.2015291281
 30
0.0
 10
55.3530255137
 20
96.0510898396
 30
0.0
 10
55.5639104519
 20
95.9919138859
 30
0.0
 10
55.7113604156
 20
95.9785354121
 30
0.0
 10
55.8504716816
 20
95.9954502878
 30
0.0
 10
55.93609598
 20
96.0271909933
 30
0.0
 10
55.9755104848
 20
96.0475813295
 30
0.0
  0
SPLINE
  5
3F2
100
AcDbEntity
  8
0
100
AcDbSpline
 62
7
  6
CONTINUOUS
 70
0
 71
3
 72
11
 73
7
 74
0
 42
0.0000001
 43
0.0000001
 44
0.0000000001
 40
0.0
 40
0.0
 40
0.0
 40
0.0
 40
0.220020354
 40
0.4543243918
 40
0.7131585288
 40
1.0
 40
1.0
 40
1.0
 40
1.0
 10
66.8292328631
 20
91.6537348026
 30
0.0
 10
66.7740028228
 20
91.6251626032
 30
0.0
 10
66.6694746871
 20
91.545883381
 30
0.0
 10
66.5538009162
 20
91.3774652462
 30
0.0
 10
66.480000642
 20
91.167611744
 30
0.0
 10
66.4603325191
 20
91.0135661398
 30
0.0
 10
66.4567506099
 20
90.9325770426
 30
0.0
  0
SPLINE
  5
3F3
100
AcDbEntity
  8
0
100
AcDbSpline
 62
7
  6
CONTINUOUS
 70
0
 71
3
 72
11
 73
7
 74
0
 42
0.0000001
 43
0.0000001
 44
0.0000000001
 40
0.0
 40
0.0
 40
0.0
 40
0.0
 40
0.220020354
 40
0.4543243918
 40
0.7131585288
 40
1.0
 40
1.0
 40
1.0
 40
1.0
 10
60.7127337405
 20
95.1850173292
 30
0.0
 10
60.6575037003
 20
95.1564451298
 30
0.0
 10
60.5529755646
 20
95.0771659076
 30
0.0
 10
60.4373017937
 20
94.9087477728
 30
0.0
 10
60.3635015195
 20
94.6988942706
 30
0.0
 10
60.3438333966
 20
94.5448486664
 30
0.0
 10
60.3402514874
 20
94.4638595692
 30
0.0
  0
SPLINE
  5
3F4
100
AcDbEntity
  8
0
100
AcDbSpline
 62
7
  6
CONTINUOUS
 70
0
 71
3
 72
13
 73
9
 74
0
 42
0.0000001
 43
0.0000001
 44
0.0000000001
 40
0.0
 40
0.0
 40
0.0
 40
0.0
 40
0.0997014437
 40
0.2035742794
 40
0.3140362761
 40
0.4327792347
 40
0.6978718374
 40
1.0
 40
1.0
 40
1.0
 40
1.0
 10
74.843920113
 20
43.7720989927
 30
0.0
 10
74.8048896299
 20
43.7519185247
 30
0.0
 10
74.7205115729
 20
43.7192410479
 30
0.0
 10
74.5832721762
 20
43.695986196
 30
0.0
 10
74.4357803075
 20
43.6978495877
 30
0.0
 10
74.2203583886
 20
43.7349072151
 30
0.0
 10
73.9365554981
 20
43.8477971304
 30
0.0
 10
73.7261289116
 20
43.9852135995
 30
0.0
 10
73.6204490002
 20
44.0662106624
 30
0.0
  0
ELLIPSE
  5
3F5
100
AcDbEntity
  8
0
100
AcDbEllipse
 62
7
  6
CONTINUOUS
 10
49.0279514838
 20
100.9948712702
 30
0.0
 11
-0.9395122348
 21
1.8237080277
 31
0.0
 40
0.6067341637
 41
3.1423904727
 42
4.9338632898
  0
ELLIPSE
  5
3F6
100
AcDbEntity
  8
0
100
AcDbEllipse
 62
7
  6
CONTINUOUS
 10
73.7953207349
 20
87.1253936553
 30
0.0
 11
-0.9395122348
 21
1.8237080277
 31
0.0
 40
0.6067341637
 41
-1.7341430726
 42
0.0007977744
  0
ELLIPSE
  5
3F7
100
AcDbEntity
  8
0
100
AcDbEllipse
 62
7
  6
CONTINUOUS
 10
49.0279514838
 20
100.9948712702
 30
0.0
 11
-0.9395122348
 21
1.8237080277
 31
0.0
 40
0.6067341637
 41
6.2839831263
 42
8.0754551034
  0
ELLIPSE
  5
3F8
100
AcDbEntity
  8
0
100
AcDbEllipse
 62
7
  6
CONTINUOUS
 10
73.7582629931
 20
86.2874960687
 30
0.0
 11
-0.9395122348
 21
1.8237080277
 31
0.0
 40
0.6067341637
 41
1.4074433441
 42
3.1423904272
  0
ELLIPSE
  5
3F9
100
AcDbEntity
  8
0
100
AcDbEllipse
 62
7
  6
CONTINUOUS
 10
13.3013242577
 20
39.7158271645
 30
0.0
 11
-1.0892490931
 21
1.8301833041
 31
0.0
 40
0.5772204623
 41
-1.3941197711
 42
-0.007650748
  0
ELLIPSE
  5
3FA
100
AcDbEntity
  8
0
100
AcDbEllipse
 62
7
  6
CONTINUOUS
 10
15.4226534331
 20
38.4911049009
 30
0.0
 11
-1.0892490931
 21
1.8301833041
 31
0.0
 40
0.5772204623
 41
-1.8175447443
 42
-0.2072710946
  0
ELLIPSE
  5
3FB
100
AcDbEntity
  8
0
100
AcDbEllipse
 62
7
  6
CONTINUOUS
 10
19.4178233802
 20
36.1845446379
 30
0.0
 11
-1.0892490931
 21
1.8301833041
 31
0.0
 40
0.5772204623
 41
-1.3941197711
 42
-0.007650748
  0
ELLIPSE
  5
3FC
100
AcDbEntity
  8
0
100
AcDbEllipse
 62
7
  6
CONTINUOUS
 10
21.5391525557
 20
34.9598223743
 30
0.0
 11
-1.0892490931
 21
1.8301833041
 31
0.0
 40
0.5772204623
 41
-1.8175447443
 42
-0.2072710946
  0
ELLIPSE
  5
3FD
100
AcDbEntity
  8
0
100
AcDbEllipse
 62
7
  6
CONTINUOUS
 10
25.5343225027
 20
32.6532621113
 30
0.0
 11
-1.0892490931
 21
1.8301833041
 31
0.0
 40
0.5772204623
 41
-1.3941197711
 42
-0.007650748
  0
ELLIPSE
  5
3FE
100
AcDbEntity
  8
0
100
AcDbEllipse
 62
7
  6
CONTINUOUS
 10
27.6556516782
 20
31.4285398477
 30
0.0
 11
-1.0892490931
 21
1.8301833041
 31
0.0
 40
0.5772204623
 41
-1.8175447443
 42
-0.2072710946
  0
ELLIPSE
  5
3FF
100
AcDbEntity
  8
0
100
AcDbEllipse
 62
7
  6
CONTINUOUS
 10
31.6508216253
 20
29.1219795847
 30
0.0
 11
-1.0892490931
 21
1.8301833041
 31
0.0
 40
0.5772204623
 41
-1.3941197711
 42
-0.007650748
  0
ELLIPSE
  5
400
100
AcDbEntity
  8
0
100
AcDbEllipse
 62
7
  6
CONTINUOUS
 10
33.7721508007
 20
27.8972573211
 30
0.0
 11
-1.0892490931
 21
1.8301833041
 31
0.0
 40
0.5772204623
 41
-1.8175447443
 42
-0.2072710946
  0
ELLIPSE
  5
401
100
AcDbEntity
  8
0
100
AcDbEllipse
 62
7
  6
CONTINUOUS
 10
37.7673207478
 20
25.5906970581
 30
0.0
 11
-1.0892490931
 21
1.8301833041
 31
0.0
 40
0.5772204623
 41
-1.3941197711
 42
-0.007650748
  0
ELLIPSE
  5
402
100
AcDbEntity
  8
0
100
AcDbEllipse
 62
7
  6
CONTINUOUS
 10
39.8886499232
 20
24.3659747945
 30
0.0
 11
-1.0892490931
 21
1.8301833041
 31
0.0
 40
0.5772204623
 41
-1.8175447443
 42
-0.2072710946
  0
ELLIPSE
  5
403
100
AcDbEntity
  8
0
100
AcDbEllipse
 62
7
  6
CONTINUOUS
 10
13.3012473743
 20
82.2364678218
 30
0.0
 11
-1.0892490931
 21
1.8301833041
 31
0.0
 40
0.5772204623
 41
-1.3941197711
 42
-0.007650748
  0
ELLIPSE
  5
404
100
AcDbEntity
  8
0
100
AcDbEllipse
 62
7
  6
CONTINUOUS
 10
15.4225765497
 20
81.0117455582
 30
0.0
 11
-1.0892490931
 21
1.8301833041
 31
0.0
 40
0.5772204623
 41
-1.8175447443
 42
-0.2072710946
  0
ELLIPSE
  5
405
100
AcDbEntity
  8
0
100
AcDbEllipse
 62
7
  6
CONTINUOUS
 10
19.4177464968
 20
78.7051852952
 30
0.0
 11
-1.0892490931
 21
1.8301833041
 31
0.0
 40
0.5772204623
 41
-1.3941197711
 42
-0.007650748
  0
ELLIPSE
  5
406
100
AcDbEntity
  8
0
100
AcDbEllipse
 62
7
  6
CONTINUOUS
 10
21.5390756722
 20
77.4804630316
 30
0.0
 11
-1.0892490931
 21
1.8301833041
 31
0.0
 40
0.5772204623
 41
-1.8175447443
 42
-0.2072710946
  0
ELLIPSE
  5
407
100
AcDbEntity
  8
0
100
AcDbEllipse
 62
7
  6
CONTINUOUS
 10
25.5342456193
 20
75.1739027686
 30
0.0
 11
-1.0892490931
 21
1.8301833041
 31
0.0
 40
0.5772204623
 41
-1.3941197711
 42
-0.007650748
  0
ELLIPSE
  5
408
100
AcDbEntity
  8
0
100
AcDbEllipse
 62
7
  6
CONTINUOUS
 10
27.6555747948
 20
73.949180505
 30
0.0
 11
-1.0892490931
 21
1.8301833041
 31
0.0
 40
0.5772204623
 41
-1.8175447443
 42
-0.2072710946
  0
ELLIPSE
  5
409
100
AcDbEntity
  8
0
100
AcDbEllipse
 62
7
  6
CONTINUOUS
 10
31.6507447418
 20
71.642620242
 30
0.0
 11
-1.0892490931
 21
1.8301833041
 31
0.0
 40
0.5772204623
 41
-1.3941197711
 42
-0.007650748
  0
ELLIPSE
  5
40A
100
AcDbEntity
  8
0
100
AcDbEllipse
 62
7
  6
CONTINUOUS
 10
33.7720739173
 20
70.4178979784
 30
0.0
 11
-1.0892490931
 21
1.8301833041
 31
0.0
 40
0.5772204623
 41
-1.8175447443
 42
-0.2072710946
  0
ELLIPSE
  5
40B
100
AcDbEntity
  8
0
100
AcDbEllipse
 62
7
  6
CONTINUOUS
 10
37.7672438644
 20
68.1113377154
 30
0.0
 11
-1.0892490931
 21
1.8301833041
 31
0.0
 40
0.5772204623
 41
-1.3941197711
 42
-0.007650748
  0
ELLIPSE
  5
40C
100
AcDbEntity
  8
0
100
AcDbEllipse
 62
7
  6
CONTINUOUS
 10
39.8885730398
 20
66.8866154518
 30
0.0
 11
-1.0892490931
 21
1.8301833041
 31
0.0
 40
0.5772204623
 41
-1.8175447443
 42
-0.2072710946
  0
ELLIPSE
  5
40D
100
AcDbEntity
  8
0
100
AcDbEllipse
 62
7
  6
CONTINUOUS
 10
39.8885730398
 20
66.8866154518
 30
0.0
 11
-1.0892490931
 21
1.8301833041
 31
0.0
 40
0.5772204623
 41
-4.5357124247
 42
-3.1492434016
  0
ELLIPSE
  5
40E
100
AcDbEntity
  8
0
100
AcDbEllipse
 62
7
  6
CONTINUOUS
 10
13.3013242577
 20
39.7158271645
 30
0.0
 11
-1.0892490931
 21
1.8301833041
 31
0.0
 40
0.5772204623
 41
1.3240479093
 42
2.934321559
  0
ELLIPSE
  5
40F
100
AcDbEntity
  8
0
100
AcDbEllipse
 62
7
  6
CONTINUOUS
 10
15.4226534331
 20
38.491104901
 30
0.0
 11
-1.0892490931
 21
1.8301833041
 31
0.0
 40
0.5772204623
 41
-4.5357124247
 42
-3.1492434016
  0
ELLIPSE
  5
410
100
AcDbEntity
  8
0
100
AcDbEllipse
 62
7
  6
CONTINUOUS
 10
19.4178233802
 20
36.1845446379
 30
0.0
 11
-1.0892490931
 21
1.8301833041
 31
0.0
 40
0.5772204623
 41
1.3240479093
 42
2.934321559
  0
ELLIPSE
  5
411
100
AcDbEntity
  8
0
100
AcDbEllipse
 62
7
  6
CONTINUOUS
 10
21.5391525557
 20
34.9598223744
 30
0.0
 11
-1.0892490931
 21
1.8301833041
 31
0.0
 40
0.5772204623
 41
-4.5357124247
 42
-3.1492434016
  0
ELLIPSE
  5
412
100
AcDbEntity
  8
0
100
AcDbEllipse
 62
7
  6
CONTINUOUS
 10
25.5343225027
 20
32.6532621113
 30
0.0
 11
-1.0892490931
 21
1.8301833041
 31
0.0
 40
0.5772204623
 41
1.3240479093
 42
2.934321559
  0
ELLIPSE
  5
413
100
AcDbEntity
  8
0
100
AcDbEllipse
 62
7
  6
CONTINUOUS
 10
27.6556516782
 20
31.4285398477
 30
0.0
 11
-1.0892490931
 21
1.8301833041
 31
0.0
 40
0.5772204623
 41
-4.5357124247
 42
-3.1492434016
  0
ELLIPSE
  5
414
100
AcDbEntity
  8
0
100
AcDbEllipse
 62
7
  6
CONTINUOUS
 10
31.6508216253
 20
29.1219795847
 30
0.0
 11
-1.0892490931
 21
1.8301833041
 31
0.0
 40
0.5772204623
 41
1.3240479093
 42
2.934321559
  0
ELLIPSE
  5
415
100
AcDbEntity
  8
0
100
AcDbEllipse
 62
7
  6
CONTINUOUS
 10
33.7721508007
 20
27.8972573211
 30
0.0
 11
-1.0892490931
 21
1.8301833041
 31
0.0
 40
0.5772204623
 41
-4.5357124247
 42
-3.1492434016
  0
ELLIPSE
  5
416
100
AcDbEntity
  8
0
100
AcDbEllipse
 62
7
  6
CONTINUOUS
 10
37.7673207478
 20
25.5906970581
 30
0.0
 11
-1.0892490931
 21
1.8301833041
 31
0.0
 40
0.5772204623
 41
1.3240479093
 42
2.934321559
  0
ELLIPSE
  5
417
100
AcDbEntity
  8
0
100
AcDbEllipse
 62
7
  6
CONTINUOUS
 10
39.8886499232
 20
24.3659747945
 30
0.0
 11
-1.0892490931
 21
1.8301833041
 31
0.0
 40
0.5772204623
 41
-4.5357124247
 42
-3.1492434016
  0
ELLIPSE
  5
418
100
AcDbEntity
  8
0
100
AcDbEllipse
 62
7
  6
CONTINUOUS
 10
13.3012473743
 20
82.2364678218
 30
0.0
 11
-1.0892490931
 21
1.8301833041
 31
0.0
 40
0.5772204623
 41
1.3240479093
 42
2.934321559
  0
ELLIPSE
  5
419
100
AcDbEntity
  8
0
100
AcDbEllipse
 62
7
  6
CONTINUOUS
 10
15.4225765497
 20
81.0117455582
 30
0.0
 11
-1.0892490931
 21
1.8301833041
 31
0.0
 40
0.5772204623
 41
-4.5357124247
 42
-3.1492434016
  0
ELLIPSE
  5
41A
100
AcDbEntity
  8
0
100
AcDbEllipse
 62
7
  6
CONTINUOUS
 10
19.4177464968
 20
78.7051852952
 30
0.0
 11
-1.0892490931
 21
1.8301833041
 31
0.0
 40
0.5772204623
 41
1.3240479093
 42
2.934321559
  0
ELLIPSE
  5
41B
100
AcDbEntity
  8
0
100
AcDbEllipse
 62
7
  6
CONTINUOUS
 10
21.5390756722
 20
77.4804630316
 30
0.0
 11
-1.0892490931
 21
1.8301833041
 31
0.0
 40
0.5772204623
 41
-4.5357124247
 42
-3.1492434016
  0
ELLIPSE
  5
41C
100
AcDbEntity
  8
0
100
AcDbEllipse
 62
7
  6
CONTINUOUS
 10
25.5342456193
 20
75.1739027686
 30
0.0
 11
-1.0892490931
 21
1.8301833041
 31
0.0
 40
0.5772204623
 41
1.3240479093
 42
2.934321559
  0
ELLIPSE
  5
41D
100
AcDbEntity
  8
0
100
AcDbEllipse
 62
7
  6
CONTINUOUS
 10
27.6555747948
 20
73.949180505
 30
0.0
 11
-1.0892490931
 21
1.8301833041
 31
0.0
 40
0.5772204623
 41
-4.5357124247
 42
-3.1492434016
  0
ELLIPSE
  5
41E
100
AcDbEntity
  8
0
100
AcDbEllipse
 62
7
  6
CONTINUOUS
 10
31.6507447418
 20
71.642620242
 30
0.0
 11
-1.0892490931
 21
1.8301833041
 31
0.0
 40
0.5772204623
 41
1.3240479093
 42
2.934321559
  0
ELLIPSE
  5
41F
100
AcDbEntity
  8
0
100
AcDbEllipse
 62
7
  6
CONTINUOUS
 10
33.7720739173
 20
70.4178979784
 30
0.0
 11
-1.0892490931
 21
1.8301833041
 31
0.0
 40
0.5772204623
 41
-4.5357124247
 42
-3.1492434016
  0
ELLIPSE
  5
420
100
AcDbEntity
  8
0
100
AcDbEllipse
 62
7
  6
CONTINUOUS
 10
37.7672438644
 20
68.1113377154
 30
0.0
 11
-1.0892490931
 21
1.8301833041
 31
0.0
 40
0.5772204623
 41
1.3240479093
 42
2.934321559
  0
ENDSEC
  0
SECTION
  2
OBJECTS
  0
DICTIONARY
  5
C
100
AcDbDictionary
280
0
281
1
  3
ACAD_GROUP
350
D
  3
ACAD_MLINESTYLE
350
17
  3
ACAD_LAYOUT
350
1A
  3
ACAD_PLOTSETTINGS
350
19
  3
ACAD_PLOTSTYLENAME
350
E
  0
DICTIONARY
  5
D
102
{ACAD_REACTORS
330
C
102
}
100
AcDbDictionary
280
0
281
1
  0
ACDBDICTIONARYWDFLT
  5
E
102
{ACAD_REACTORS
330
C
102
}
100
AcDbDictionary
281
1
  3
Normal
350
F
100
AcDbDictionaryWithDefault
340
F
  0
DICTIONARY
  5
17
102
{ACAD_REACTORS
330
C
102
}
100
AcDbDictionary
280
0
281
1
  3
Standard
350
18
  0
DICTIONARY
  5
19
102
{ACAD_REACTORS
330
C
102
}
100
AcDbDictionary
281
1
  0
DICTIONARY
  5
1A
102
{ACAD_REACTORS
330
C
102
}
100
AcDbDictionary
281
1
  3
Model
350
421
  3
Layout1
350
422
  0
ACDBPLACEHOLDER
  5
F
102
{ACAD_REACTORS
330
E
102
}
  0
MLINESTYLE
  5
18
102
{ACAD_REACTORS
330
17
102
}
100
AcDbMlineStyle
  2
STANDARD
 70
0
  3

 62
256
 51
90.0
 52
90.0
 71
2
 49
0.5
 62
256
  6
BYLAYER
 49
-0.5
 62
256
  6
BYLAYER
  0
LAYOUT
  5
421
102
{ACAD_REACTORS
330
1A
102
}
100
AcDbPlotSettings
  1

  2
none_device
  4

  6

 40
0.0
 41
0.0
 42
0.0
 43
0.0
 44
210.0
 45
297.0
 46
0.0
 47
0.0
 48
0.0
 49
0.0
140
0.0
141
0.0
142
1.0
143
1.0
 70
1024
 72
1
 73
0
 74
0
  7

 75
0
147
1.0
148
0.0
149
0.0
100
AcDbLayout
  1
Model
 70
0
 71
0
 10
0.0
 20
0.0
 11
210.0
 21
297.0
 12
0.0
 22
0.0
 32
0.0
 14
0.0
 24
0.0
 34
0.0
 15
0.0
 25
0.0
 35
0.0
146
0.0
 13
0.0
 23
0.0
 33
0.0
 16
1.0
 26
0.0
 36
0.0
 17
0.0
 27
1.0
 37
0.0
 76
0
330
210
345
0
346
0
  0
LAYOUT
  5
422
102
{ACAD_REACTORS
330
1A
102
}
100
AcDbPlotSettings
  1

  2
none_device
  4

  6

 40
0.0
 41
0.0
 42
0.0
 43
0.0
 44
210.0
 45
297.0
 46
0.0
 47
0.0
 48
0.0
 49
0.0
140
0.0
141
0.0
142
1.0
143
1.0
 70
0
 72
1
 73
0
 74
0
  7

 75
0
147
1.0
148
0.0
149
0.0
100
AcDbLayout
  1
Layout1
 70
0
 71
1
 10
0.0
 20
0.0
 11
210.0
 21
297.0
 12
0.0
 22
0.0
 32
0.0
 14
0.0
 24
0.0
 34
0.0
 15
0.0
 25
0.0
 35
0.0
146
0.0
 13
0.0
 23
0.0
 33
0.0
 16
1.0
 26
0.0
 36
0.0
 17
0.0
 27
1.0
 37
0.0
 76
0
330
211
345
0
346
0
  0
ENDSEC
  0
EOF
