999
DXF file: C:\Users\sesa63760\Dev\_Creo\CAD\MCADUE0002064_3D-CAD\drw0001_5.dxf
999
Pro/ENGINEER 2019471 by Parametric Technology Corporation
  0
SECTION
  2
HEADER
  9
$ACADVER
  1
AC1024
  9
$DWGCODEPAGE
  3
ANSI_1252
  9
$EXTMAX
 10
276.882110869
 20
391.5904139434
 30
0.0
  9
$EXTMIN
 10
0.0
 20
0.0
 30
0.0
  9
$LIMMIN
 10
0.0
 20
0.0
  9
$LIMMAX
 10
276.882110869
 20
391.5904139434
  9
$VIEWCTR
 10
138.4410554345
 20
195.7952069717
  9
$VIEWSIZE
 40
391.5904139434
  9
$CLAYER
  8
0
  9
$LTSCALE
 40
25.5258936496
  9
$CELTYPE
  6
BYLAYER
  9
$DIMSCALE
 40
1.0
  9
$DIMASZ
 40
3.2962156056
  9
$DIMEXO
 40
1.0
  9
$DIMDLI
 40
17.6360719761
  9
$DIMEXE
 40
1.0
  9
$DIMCEN
 40
4.1769644154
  9
$DIMLFAC
 40
1.0
  9
$DIMBLK
  1
_FILLED
  9
$DIMALT
 70
0
  9
$DIMALTF
 40
0.0393700787
  9
$DIMTXT
 40
4.6147018478
  9
$DIMTOL
 70
1
  9
$DIMLIM
 70
0
  9
$DIMTFAC
 40
1.0
  9
$DIMTP
 40
0.01
  9
$DIMTM
 40
0.01
  9
$DIMGAP
 40
0.625
  9
$DIMDSEP
 70
46
  9
$AUNITS
 70
0
  9
$PDMODE
 70
3
  9
$PDSIZE
 40
0.3125
  9
$HANDSEED
  5
292
  9
$TILEMODE
 70
1
  9
$MEASUREMENT
 70
1
  9
$INSUNITS
 70
4
  0
ENDSEC
  0
SECTION
  2
CLASSES
  0
CLASS
  1
ACDBDICTIONARYWDFLT
  2
AcDbDictionaryWithDefault
  3
AutoCAD 2000
 90
0
 91
1
280
0
281
0
  0
CLASS
  1
ACDBPLACEHOLDER
  2
AcDbPlaceHolder
  3
AutoCAD 2000
 90
0
 91
1
280
0
281
0
  0
CLASS
  1
LAYOUT
  2
AcDbLayout
  3
AutoCAD 2000
 90
0
 91
0
280
0
281
0
  0
ENDSEC
  0
SECTION
  2
TABLES
  0
TABLE
  2
VPORT
  5
8
100
AcDbSymbolTable
 70
2
  0
VPORT
  5
1F4
100
AcDbSymbolTableRecord
100
AcDbViewportTableRecord
  2
*ACTIVE
 70
0
 10
0.0
 20
0.0
 11
1.0
 21
1.0
 12
138.4410554345
 22
195.7952069717
 13
0.0
 23
0.0
 14
1.0
 24
1.0
 15
0.0
 25
0.0
 16
0.0
 26
0.0
 36
1.0
 17
0.0
 27
0.0
 37
0.0
 40
391.5904139434
 41
0.7070707071
 42
50.0
 43
0.0
 44
0.0
 50
0.0
 51
0.0
 71
0
 72
100
 73
1
 74
1
 75
0
 76
0
 77
0
 78
0
  0
ENDTAB
  0
TABLE
  2
LTYPE
  5
5
100
AcDbSymbolTable
 70
6
  0
LTYPE
  5
14
100
AcDbSymbolTableRecord
100
AcDbLinetypeTableRecord
  2
BYBLOCK
 70
0
  3

 72
65
 73
0
 40
0.0
  0
LTYPE
  5
15
100
AcDbSymbolTableRecord
100
AcDbLinetypeTableRecord
  2
BYLAYER
 70
0
  3

 72
65
 73
0
 40
0.0
  0
LTYPE
  5
16
100
AcDbSymbolTableRecord
100
AcDbLinetypeTableRecord
  2
CONTINUOUS
 70
64
  3
Solid line
 72
65
 73
0
 40
0.0
  0
LTYPE
  5
1F5
100
AcDbSymbolTableRecord
100
AcDbLinetypeTableRecord
  2
CENTER
 70
64
  3
____ _ ____ _ ____ _ ____ _ ____ _ ____ _ ____
 72
65
 73
4
 40
0.6
 49
0.375
 74
0
 49
-0.075
 74
0
 49
0.075
 74
0
 49
-0.075
 74
0
  0
LTYPE
  5
1F6
100
AcDbSymbolTableRecord
100
AcDbLinetypeTableRecord
  2
HIDDEN
 70
64
  3
- - - - - - - - - - - - - - - - - - - -
 72
65
 73
2
 40
0.2
 49
0.1
 74
0
 49
-0.1
 74
0
  0
LTYPE
  5
1F7
100
AcDbSymbolTableRecord
100
AcDbLinetypeTableRecord
  2
PHANTOM
 70
64
  3
_____ _ _ _____ _ _ _____ _ _ _____
 72
65
 73
6
 40
0.8
 49
0.45
 74
0
 49
-0.05
 74
0
 49
0.1
 74
0
 49
-0.05
 74
0
 49
0.1
 74
0
 49
-0.05
 74
0
  0
LTYPE
  5
1F8
100
AcDbSymbolTableRecord
100
AcDbLinetypeTableRecord
  2
DOT
 70
64
  3
. . . . . . . . . . . . . . . . . . . .
 72
65
 73
2
 40
0.2
 49
0.1
 74
0
 49
-0.1
 74
0
  0
LTYPE
  5
1F9
100
AcDbSymbolTableRecord
100
AcDbLinetypeTableRecord
  2
DASHED
 70
64
  3
- - - - - - - - - - - - - - - - - - - -
 72
65
 73
2
 40
0.2
 49
0.1
 74
0
 49
-0.1
 74
0
  0
ENDTAB
  0
TABLE
  2
LAYER
  5
2
100
AcDbSymbolTable
 70
36
  0
LAYER
  5
10
100
AcDbSymbolTableRecord
100
AcDbLayerTableRecord
  2
0
 70
0
 62
7
  6
CONTINUOUS
370
-3
390
F
  0
LAYER
  5
1FA
100
AcDbSymbolTableRecord
100
AcDbLayerTableRecord
  2
DEFAULT_1
 70
0
 62
7
  6
CENTER
370
-3
390
F
  0
LAYER
  5
1FB
100
AcDbSymbolTableRecord
100
AcDbLayerTableRecord
  2
DEFAULT_2
 70
0
 62
8
  6
HIDDEN
370
-3
390
F
  0
LAYER
  5
1FC
100
AcDbSymbolTableRecord
100
AcDbLayerTableRecord
  2
DEFAULT_3
 70
0
 62
7
  6
PHANTOM
370
-3
390
F
  0
LAYER
  5
1FD
100
AcDbSymbolTableRecord
100
AcDbLayerTableRecord
  2
00_COMPONENTS
 70
0
 62
7
  6
CONTINUOUS
370
-3
390
F
  0
LAYER
  5
1FE
100
AcDbSymbolTableRecord
100
AcDbLayerTableRecord
  2
01_1_DEFAULT_DATUMS
 70
0
 62
7
  6
CONTINUOUS
370
-3
390
F
  0
LAYER
  5
1FF
100
AcDbSymbolTableRecord
100
AcDbLayerTableRecord
  2
01_PLANES
 70
0
 62
7
  6
CONTINUOUS
370
-3
390
F
  0
LAYER
  5
200
100
AcDbSymbolTableRecord
100
AcDbLayerTableRecord
  2
02_COORD_SYS
 70
0
 62
7
  6
CONTINUOUS
370
-3
390
F
  0
LAYER
  5
201
100
AcDbSymbolTableRecord
100
AcDbLayerTableRecord
  2
03_AXES
 70
0
 62
7
  6
CONTINUOUS
370
-3
390
F
  0
LAYER
  5
202
100
AcDbSymbolTableRecord
100
AcDbLayerTableRecord
  2
04_POINTS
 70
0
 62
7
  6
CONTINUOUS
370
-3
390
F
  0
LAYER
  5
203
100
AcDbSymbolTableRecord
100
AcDbLayerTableRecord
  2
05_CURVES
 70
0
 62
7
  6
CONTINUOUS
370
-3
390
F
  0
LAYER
  5
204
100
AcDbSymbolTableRecord
100
AcDbLayerTableRecord
  2
06_SURFS
 70
0
 62
7
  6
CONTINUOUS
370
-3
390
F
  0
LAYER
  5
205
100
AcDbSymbolTableRecord
100
AcDbLayerTableRecord
  2
07_COSMETICS
 70
0
 62
7
  6
CONTINUOUS
370
-3
390
F
  0
LAYER
  5
206
100
AcDbSymbolTableRecord
100
AcDbLayerTableRecord
  2
10_NOTES
 70
0
 62
7
  6
CONTINUOUS
370
-3
390
F
  0
LAYER
  5
207
100
AcDbSymbolTableRecord
100
AcDbLayerTableRecord
  2
11_NOTES_PUB
 70
0
 62
7
  6
CONTINUOUS
370
-3
390
F
  0
LAYER
  5
208
100
AcDbSymbolTableRecord
100
AcDbLayerTableRecord
  2
13_REF_GTOL
 70
0
 62
7
  6
CONTINUOUS
370
-3
390
F
  0
LAYER
  5
209
100
AcDbSymbolTableRecord
100
AcDbLayerTableRecord
  2
16_MISC
 70
0
 62
7
  6
CONTINUOUS
370
-3
390
F
  0
LAYER
  5
20A
100
AcDbSymbolTableRecord
100
AcDbLayerTableRecord
  2
17_NO_PRINT
 70
0
 62
7
  6
CONTINUOUS
370
-3
390
F
  0
LAYER
  5
20B
100
AcDbSymbolTableRecord
100
AcDbLayerTableRecord
  2
18_DATUM_CAMS_JOINTS
 70
0
 62
7
  6
CONTINUOUS
370
-3
390
F
  0
LAYER
  5
20C
100
AcDbSymbolTableRecord
100
AcDbLayerTableRecord
  2
19_DATUM_FUNCTIONAL
 70
0
 62
7
  6
CONTINUOUS
370
-3
390
F
  0
LAYER
  5
20D
100
AcDbSymbolTableRecord
100
AcDbLayerTableRecord
  2
20_DATUM_KINEMATIC_SCHEME
 70
0
 62
7
  6
CONTINUOUS
370
-3
390
F
  0
ENDTAB
  0
TABLE
  2
STYLE
  5
3
100
AcDbSymbolTable
 70
1
  0
STYLE
  5
11
100
AcDbSymbolTableRecord
100
AcDbTextStyleTableRecord
  2
STANDARD
 70
0
 40
0.0
 41
0.8
 50
0.0
 71
0
 42
0.2
  3
txt
  4

  0
STYLE
  5
20E
100
AcDbSymbolTableRecord
100
AcDbTextStyleTableRecord
  2
TEXTSTYLE_1
 70
0
 40
0.0
 41
0.8
 50
0.0
 71
0
 42
0.2
  3
gdt
  4

  0
ENDTAB
  0
TABLE
  2
VIEW
  5
6
100
AcDbSymbolTable
 70
0
  0
ENDTAB
  0
TABLE
  2
UCS
  5
7
100
AcDbSymbolTable
 70
0
  0
ENDTAB
  0
TABLE
  2
APPID
  5
9
100
AcDbSymbolTable
 70
1
  0
APPID
  5
20F
100
AcDbSymbolTableRecord
100
AcDbRegAppTableRecord
  2
ACAD
 70
0
  0
ENDTAB
  0
TABLE
  2
BLOCK_RECORD
  5
1
100
AcDbSymbolTable
 70
0
  0
BLOCK_RECORD
  5
210
100
AcDbSymbolTableRecord
100
AcDbBlockTableRecord
  2
*Model_Space
  0
BLOCK_RECORD
  5
211
100
AcDbSymbolTableRecord
100
AcDbBlockTableRecord
  2
*Paper_Space
  0
BLOCK_RECORD
  5
212
100
AcDbSymbolTableRecord
100
AcDbBlockTableRecord
  2
_FILLED
  0
ENDTAB
  0
TABLE
  2
DIMSTYLE
  5
A
100
AcDbSymbolTable
 70
1
100
AcDbDimStyleTable
 71
0
  0
DIMSTYLE
105
213
100
AcDbSymbolTableRecord
100
AcDbDimStyleTableRecord
  2
STANDARD
 70
0
  3

  4

 40
1.0
 41
3.2962156056
 42
1.0
 43
0.38
 44
1.0
 45
0.0
 46
0.0
 47
0.01
 48
0.01
140
4.6147018478
141
0.09
142
0.0
143
25.4
144
1.0
145
0.0
146
1.0
147
0.625
 71
1
 72
0
 73
0
 74
0
 75
0
 76
0
 77
1
 78
8
 79
2
170
0
171
1
172
0
173
0
174
0
175
0
176
0
177
0
178
0
270
2
179
2
271
2
272
2
273
2
274
2
275
0
280
0
281
0
282
0
283
1
284
8
285
0
286
0
287
3
288
0
340
11
278
46
341
212
342
212
343
212
344
212
  0
ENDTAB
  0
ENDSEC
  0
SECTION
  2
BLOCKS
  0
BLOCK
  5
20
100
AcDbEntity
  8
0
100
AcDbBlockBegin
  2
*Model_Space
 70
0
 10
0.0
 20
0.0
 30
0.0
  3
*Model_Space
  1

  0
ENDBLK
  5
21
100
AcDbEntity
  8
0
100
AcDbBlockEnd
  0
BLOCK
  5
1C
100
AcDbEntity
  8
0
100
AcDbBlockBegin
  2
*Paper_Space
 70
0
 10
0.0
 20
0.0
 30
0.0
  3
*Paper_Space
  1

  0
ENDBLK
  5
1D
100
AcDbEntity
  8
0
100
AcDbBlockEnd
  0
BLOCK
  5
214
100
AcDbEntity
  8
0
100
AcDbBlockBegin
  2
_FILLED
 70
64
 10
0.0
 20
0.0
  3
_FILLED
  1

  0
SOLID
  5
215
100
AcDbEntity
  8
0
  6
BYBLOCK
 62
0
100
AcDbTrace
 10
0.0
 20
0.0
 11
-1.0
 21
0.25
 12
-1.0
 22
-0.25
 13
-1.0
 23
-0.25
  0
ENDBLK
  5
216
100
AcDbEntity
  8
0
  6
BYBLOCK
 62
0
100
AcDbBlockEnd
  0
ENDSEC
  0
SECTION
  2
ENTITIES
  0
LINE
  5
217
100
AcDbEntity
  8
0
100
AcDbLine
 62
7
  6
CONTINUOUS
 10
32.2754780925
 20
187.0245098039
 11
32.2754780925
 21
185.5245098039
  0
LINE
  5
218
100
AcDbEntity
  8
0
100
AcDbLine
 62
7
  6
CONTINUOUS
 10
33.7754780925
 20
190.0245098039
 11
33.7754780925
 21
187.0245098039
  0
LINE
  5
219
100
AcDbEntity
  8
0
100
AcDbLine
 62
7
  6
CONTINUOUS
 10
47.2754780925
 20
194.0245098039
 11
47.2754780925
 21
190.0245098039
  0
LINE
  5
21A
100
AcDbEntity
  8
0
100
AcDbLine
 62
7
  6
CONTINUOUS
 10
50.8227013427
 20
194.0245098039
 11
50.8227013427
 21
197.8245098039
  0
LINE
  5
21B
100
AcDbEntity
  8
0
100
AcDbLine
 62
7
  6
CONTINUOUS
 10
50.849496262
 20
194.0245098039
 11
50.849496262
 21
197.8245098039
  0
LINE
  5
21C
100
AcDbEntity
  8
0
100
AcDbLine
 62
7
  6
CONTINUOUS
 10
52.7258846368
 20
197.8245098039
 11
52.7258846368
 21
194.0245098039
  0
LINE
  5
21D
100
AcDbEntity
  8
0
100
AcDbLine
 62
7
  6
CONTINUOUS
 10
52.7754780925
 20
206.5245098039
 11
52.7754780925
 21
198.9245098039
  0
LINE
  5
21E
100
AcDbEntity
  8
0
100
AcDbLine
 62
7
  6
CONTINUOUS
 10
52.8990897176
 20
194.0245098039
 11
52.8990897176
 21
197.9245098039
  0
LINE
  5
21F
100
AcDbEntity
  8
0
100
AcDbLine
 62
7
  6
CONTINUOUS
 10
56.6518664673
 20
197.9245098039
 11
56.6518664673
 21
194.0245098039
  0
LINE
  5
220
100
AcDbEntity
  8
0
100
AcDbLine
 62
7
  6
CONTINUOUS
 10
56.7754780925
 20
206.5245098039
 11
56.7754780925
 21
198.9245098039
  0
LINE
  5
221
100
AcDbEntity
  8
0
100
AcDbLine
 62
7
  6
CONTINUOUS
 10
56.8250715481
 20
194.0245098039
 11
56.8250715481
 21
197.8245098039
  0
LINE
  5
222
100
AcDbEntity
  8
0
100
AcDbLine
 62
7
  6
CONTINUOUS
 10
57.2754780925
 20
185.5245098039
 11
57.2754780925
 21
194.0245098039
  0
LINE
  5
223
100
AcDbEntity
  8
0
100
AcDbLine
 62
7
  6
CONTINUOUS
 10
58.7014599229
 20
197.8245098039
 11
58.701459923
 21
194.0245098039
  0
LINE
  5
224
100
AcDbEntity
  8
0
100
AcDbLine
 62
7
  6
CONTINUOUS
 10
58.7282548422
 20
194.0245098039
 11
58.7282548422
 21
197.8245098039
  0
LINE
  5
225
100
AcDbEntity
  8
0
100
AcDbLine
 62
7
  6
CONTINUOUS
 10
53.2754780925
 20
207.0245098039
 11
52.7754780925
 21
206.524509804
  0
LINE
  5
226
100
AcDbEntity
  8
0
100
AcDbLine
 62
7
  6
CONTINUOUS
 10
88.3227013427
 20
194.0245098039
 11
88.3227013427
 21
197.8245098039
  0
LINE
  5
227
100
AcDbEntity
  8
0
100
AcDbLine
 62
7
  6
CONTINUOUS
 10
88.349496262
 20
194.0245098039
 11
88.349496262
 21
197.8245098039
  0
LINE
  5
228
100
AcDbEntity
  8
0
100
AcDbLine
 62
7
  6
CONTINUOUS
 10
90.2258846368
 20
197.8245098039
 11
90.2258846368
 21
194.0245098039
  0
LINE
  5
229
100
AcDbEntity
  8
0
100
AcDbLine
 62
7
  6
CONTINUOUS
 10
90.2754780925
 20
206.5245098039
 11
90.2754780925
 21
198.9245098039
  0
LINE
  5
22A
100
AcDbEntity
  8
0
100
AcDbLine
 62
7
  6
CONTINUOUS
 10
90.3990897176
 20
194.0245098039
 11
90.3990897176
 21
197.9245098039
  0
LINE
  5
22B
100
AcDbEntity
  8
0
100
AcDbLine
 62
7
  6
CONTINUOUS
 10
56.2754780925
 20
207.0245098039
 11
56.7754780925
 21
206.524509804
  0
LINE
  5
22C
100
AcDbEntity
  8
0
100
AcDbLine
 62
7
  6
CONTINUOUS
 10
94.1518664673
 20
197.9245098039
 11
94.1518664673
 21
194.0245098039
  0
LINE
  5
22D
100
AcDbEntity
  8
0
100
AcDbLine
 62
7
  6
CONTINUOUS
 10
94.2754780925
 20
206.5245098039
 11
94.2754780925
 21
198.9245098039
  0
LINE
  5
22E
100
AcDbEntity
  8
0
100
AcDbLine
 62
7
  6
CONTINUOUS
 10
94.3250715481
 20
194.0245098039
 11
94.3250715481
 21
197.8245098039
  0
LINE
  5
22F
100
AcDbEntity
  8
0
100
AcDbLine
 62
7
  6
CONTINUOUS
 10
96.2014599229
 20
197.8245098039
 11
96.201459923
 21
194.0245098039
  0
LINE
  5
230
100
AcDbEntity
  8
0
100
AcDbLine
 62
7
  6
CONTINUOUS
 10
96.2282548422
 20
194.0245098039
 11
96.2282548422
 21
197.8245098039
  0
LINE
  5
231
100
AcDbEntity
  8
0
100
AcDbLine
 62
7
  6
CONTINUOUS
 10
90.7754780925
 20
207.0245098039
 11
90.2754780925
 21
206.524509804
  0
LINE
  5
232
100
AcDbEntity
  8
0
100
AcDbLine
 62
7
  6
CONTINUOUS
 10
93.7754780925
 20
207.0245098039
 11
94.2754780925
 21
206.524509804
  0
LINE
  5
233
100
AcDbEntity
  8
0
100
AcDbLine
 62
7
  6
CONTINUOUS
 10
252.2754780925
 20
185.5245098039
 11
32.2754780925
 21
185.5245098039
  0
LINE
  5
234
100
AcDbEntity
  8
0
100
AcDbLine
 62
7
  6
CONTINUOUS
 10
32.2754780925
 20
187.0245098039
 11
252.2754780925
 21
187.0245098039
  0
LINE
  5
235
100
AcDbEntity
  8
0
100
AcDbLine
 62
7
  6
CONTINUOUS
 10
33.7754780925
 20
190.0245098039
 11
250.7754780925
 21
190.0245098039
  0
LINE
  5
236
100
AcDbEntity
  8
0
100
AcDbLine
 62
7
  6
CONTINUOUS
 10
237.2754780925
 20
192.0245098039
 11
47.2754780925
 21
192.0245098039
  0
LINE
  5
237
100
AcDbEntity
  8
0
100
AcDbLine
 62
7
  6
CONTINUOUS
 10
47.2754780925
 20
194.0245098039
 11
237.2754780925
 21
194.0245098039
  0
LINE
  5
238
100
AcDbEntity
  8
0
100
AcDbLine
 62
7
  6
CONTINUOUS
 10
50.8227013427
 20
197.8245098039
 11
58.7282548422
 21
197.8245098039
  0
LINE
  5
239
100
AcDbEntity
  8
0
100
AcDbLine
 62
7
  6
CONTINUOUS
 10
88.3227013427
 20
197.8245098039
 11
96.2282548422
 21
197.8245098039
  0
LINE
  5
23A
100
AcDbEntity
  8
0
100
AcDbLine
 62
7
  6
CONTINUOUS
 10
188.3227013427
 20
197.8245098039
 11
196.2282548422
 21
197.8245098039
  0
LINE
  5
23B
100
AcDbEntity
  8
0
100
AcDbLine
 62
7
  6
CONTINUOUS
 10
225.8227013427
 20
197.8245098039
 11
233.7282548422
 21
197.8245098039
  0
LINE
  5
23C
100
AcDbEntity
  8
0
100
AcDbLine
 62
7
  6
CONTINUOUS
 10
50.9227358047
 20
197.9245098039
 11
58.6282203803
 21
197.9245098039
  0
LINE
  5
23D
100
AcDbEntity
  8
0
100
AcDbLine
 62
7
  6
CONTINUOUS
 10
88.4227358047
 20
197.9245098039
 11
96.1282548421
 21
197.9245098039
  0
LINE
  5
23E
100
AcDbEntity
  8
0
100
AcDbLine
 62
7
  6
CONTINUOUS
 10
188.4227358047
 20
197.9245098039
 11
196.1282548421
 21
197.9245098039
  0
LINE
  5
23F
100
AcDbEntity
  8
0
100
AcDbLine
 62
7
  6
CONTINUOUS
 10
225.9227358047
 20
197.9245098039
 11
233.6282548421
 21
197.9245098039
  0
LINE
  5
240
100
AcDbEntity
  8
0
100
AcDbLine
 62
7
  6
CONTINUOUS
 10
52.4917612351
 20
198.9245098039
 11
57.0591949499
 21
198.9245098039
  0
LINE
  5
241
100
AcDbEntity
  8
0
100
AcDbLine
 62
7
  6
CONTINUOUS
 10
89.9917612351
 20
198.9245098039
 11
94.5591949499
 21
198.9245098039
  0
LINE
  5
242
100
AcDbEntity
  8
0
100
AcDbLine
 62
7
  6
CONTINUOUS
 10
189.9917612351
 20
198.9245098039
 11
194.5591949499
 21
198.9245098039
  0
LINE
  5
243
100
AcDbEntity
  8
0
100
AcDbLine
 62
7
  6
CONTINUOUS
 10
227.4917612351
 20
198.9245098039
 11
232.0591949499
 21
198.9245098039
  0
LINE
  5
244
100
AcDbEntity
  8
0
100
AcDbLine
 62
7
  6
CONTINUOUS
 10
52.7754780925
 20
206.5245098039
 11
56.7754780925
 21
206.5245098039
  0
LINE
  5
245
100
AcDbEntity
  8
0
100
AcDbLine
 62
7
  6
CONTINUOUS
 10
90.2754780925
 20
206.5245098039
 11
94.2754780925
 21
206.5245098039
  0
LINE
  5
246
100
AcDbEntity
  8
0
100
AcDbLine
 62
7
  6
CONTINUOUS
 10
190.2754780925
 20
206.5245098039
 11
194.2754780925
 21
206.5245098039
  0
LINE
  5
247
100
AcDbEntity
  8
0
100
AcDbLine
 62
7
  6
CONTINUOUS
 10
227.7754780925
 20
206.5245098039
 11
231.7754780925
 21
206.5245098039
  0
LINE
  5
248
100
AcDbEntity
  8
0
100
AcDbLine
 62
7
  6
CONTINUOUS
 10
53.2754808954
 20
207.0245098039
 11
56.2754752895
 21
207.0245098039
  0
LINE
  5
249
100
AcDbEntity
  8
0
100
AcDbLine
 62
7
  6
CONTINUOUS
 10
90.7754808954
 20
207.0245098039
 11
93.7754752895
 21
207.0245098039
  0
LINE
  5
24A
100
AcDbEntity
  8
0
100
AcDbLine
 62
7
  6
CONTINUOUS
 10
190.7754808954
 20
207.0245098039
 11
193.7754752895
 21
207.0245098039
  0
LINE
  5
24B
100
AcDbEntity
  8
0
100
AcDbLine
 62
7
  6
CONTINUOUS
 10
228.2754808954
 20
207.0245098039
 11
231.2754752895
 21
207.0245098039
  0
LINE
  5
24C
100
AcDbEntity
  8
0
100
AcDbLine
 62
7
  6
CONTINUOUS
 10
190.7754780925
 20
207.0245098039
 11
190.2754780925
 21
206.524509804
  0
LINE
  5
24D
100
AcDbEntity
  8
0
100
AcDbLine
 62
7
  6
CONTINUOUS
 10
193.7754780925
 20
207.0245098039
 11
194.2754780925
 21
206.524509804
  0
LINE
  5
24E
100
AcDbEntity
  8
0
100
AcDbLine
 62
7
  6
CONTINUOUS
 10
188.3227013427
 20
194.0245098039
 11
188.3227013427
 21
197.8245098039
  0
LINE
  5
24F
100
AcDbEntity
  8
0
100
AcDbLine
 62
7
  6
CONTINUOUS
 10
188.349496262
 20
194.0245098039
 11
188.349496262
 21
197.8245098039
  0
LINE
  5
250
100
AcDbEntity
  8
0
100
AcDbLine
 62
7
  6
CONTINUOUS
 10
190.2258846368
 20
197.8245098039
 11
190.2258846368
 21
194.0245098039
  0
LINE
  5
251
100
AcDbEntity
  8
0
100
AcDbLine
 62
7
  6
CONTINUOUS
 10
190.2754780925
 20
206.5245098039
 11
190.2754780925
 21
198.9245098039
  0
LINE
  5
252
100
AcDbEntity
  8
0
100
AcDbLine
 62
7
  6
CONTINUOUS
 10
190.3990897176
 20
194.0245098039
 11
190.3990897176
 21
197.9245098039
  0
LINE
  5
253
100
AcDbEntity
  8
0
100
AcDbLine
 62
7
  6
CONTINUOUS
 10
194.1518664673
 20
197.9245098039
 11
194.1518664673
 21
194.0245098039
  0
LINE
  5
254
100
AcDbEntity
  8
0
100
AcDbLine
 62
7
  6
CONTINUOUS
 10
194.2754780925
 20
206.5245098039
 11
194.2754780925
 21
198.9245098039
  0
LINE
  5
255
100
AcDbEntity
  8
0
100
AcDbLine
 62
7
  6
CONTINUOUS
 10
194.3250715481
 20
194.0245098039
 11
194.3250715481
 21
197.8245098039
  0
LINE
  5
256
100
AcDbEntity
  8
0
100
AcDbLine
 62
7
  6
CONTINUOUS
 10
196.2014599229
 20
197.8245098039
 11
196.201459923
 21
194.0245098039
  0
LINE
  5
257
100
AcDbEntity
  8
0
100
AcDbLine
 62
7
  6
CONTINUOUS
 10
196.2282548422
 20
194.0245098039
 11
196.2282548422
 21
197.8245098039
  0
LINE
  5
258
100
AcDbEntity
  8
0
100
AcDbLine
 62
7
  6
CONTINUOUS
 10
228.2754780925
 20
207.0245098039
 11
227.7754780925
 21
206.524509804
  0
LINE
  5
259
100
AcDbEntity
  8
0
100
AcDbLine
 62
7
  6
CONTINUOUS
 10
231.2754780925
 20
207.0245098039
 11
231.7754780925
 21
206.524509804
  0
LINE
  5
25A
100
AcDbEntity
  8
0
100
AcDbLine
 62
7
  6
CONTINUOUS
 10
225.8227013427
 20
194.0245098039
 11
225.8227013427
 21
197.8245098039
  0
LINE
  5
25B
100
AcDbEntity
  8
0
100
AcDbLine
 62
7
  6
CONTINUOUS
 10
225.849496262
 20
194.0245098039
 11
225.849496262
 21
197.8245098039
  0
LINE
  5
25C
100
AcDbEntity
  8
0
100
AcDbLine
 62
7
  6
CONTINUOUS
 10
227.2754780925
 20
194.0245098039
 11
227.2754780925
 21
185.5245098039
  0
LINE
  5
25D
100
AcDbEntity
  8
0
100
AcDbLine
 62
7
  6
CONTINUOUS
 10
227.7258846368
 20
197.8245098039
 11
227.7258846368
 21
194.0245098039
  0
LINE
  5
25E
100
AcDbEntity
  8
0
100
AcDbLine
 62
7
  6
CONTINUOUS
 10
227.7754780925
 20
206.5245098039
 11
227.7754780925
 21
198.9245098039
  0
LINE
  5
25F
100
AcDbEntity
  8
0
100
AcDbLine
 62
7
  6
CONTINUOUS
 10
227.8990897176
 20
194.0245098039
 11
227.8990897176
 21
197.9245098039
  0
LINE
  5
260
100
AcDbEntity
  8
0
100
AcDbLine
 62
7
  6
CONTINUOUS
 10
231.6518664673
 20
197.9245098039
 11
231.6518664673
 21
194.0245098039
  0
LINE
  5
261
100
AcDbEntity
  8
0
100
AcDbLine
 62
7
  6
CONTINUOUS
 10
231.7754780925
 20
206.5245098039
 11
231.7754780925
 21
198.9245098039
  0
LINE
  5
262
100
AcDbEntity
  8
0
100
AcDbLine
 62
7
  6
CONTINUOUS
 10
231.8250715481
 20
194.0245098039
 11
231.8250715481
 21
197.8245098039
  0
LINE
  5
263
100
AcDbEntity
  8
0
100
AcDbLine
 62
7
  6
CONTINUOUS
 10
233.7014599229
 20
197.8245098039
 11
233.701459923
 21
194.0245098039
  0
LINE
  5
264
100
AcDbEntity
  8
0
100
AcDbLine
 62
7
  6
CONTINUOUS
 10
233.7282548422
 20
194.0245098039
 11
233.7282548422
 21
197.8245098039
  0
LINE
  5
265
100
AcDbEntity
  8
0
100
AcDbLine
 62
7
  6
CONTINUOUS
 10
237.2754780925
 20
190.0245098039
 11
237.2754780925
 21
194.0245098039
  0
LINE
  5
266
100
AcDbEntity
  8
0
100
AcDbLine
 62
7
  6
CONTINUOUS
 10
250.7754780925
 20
187.0245098039
 11
250.7754780925
 21
190.0245098039
  0
LINE
  5
267
100
AcDbEntity
  8
0
100
AcDbLine
 62
7
  6
CONTINUOUS
 10
252.2754780925
 20
185.5245098039
 11
252.2754780925
 21
187.0245098039
  0
ARC
  5
268
100
AcDbEntity
  8
0
100
AcDbCircle
 62
7
  6
CONTINUOUS
 10
57.0591949499
 20
197.9245098039
 40
1.0
100
AcDbArc
 50
0.0
 51
90.0000000001
  0
ARC
  5
269
100
AcDbEntity
  8
0
100
AcDbCircle
 62
7
  6
CONTINUOUS
 10
52.4917612351
 20
197.9245098039
 40
1.0
100
AcDbArc
 50
89.9999999999
 51
180.0
  0
ARC
  5
26A
100
AcDbEntity
  8
0
100
AcDbCircle
 62
7
  6
CONTINUOUS
 10
232.0591949499
 20
197.9245098039
 40
1.0
100
AcDbArc
 50
0.0
 51
90.0000000001
  0
ARC
  5
26B
100
AcDbEntity
  8
0
100
AcDbCircle
 62
7
  6
CONTINUOUS
 10
227.4917612351
 20
197.9245098039
 40
1.0
100
AcDbArc
 50
89.9999999999
 51
180.0
  0
ARC
  5
26C
100
AcDbEntity
  8
0
100
AcDbCircle
 62
7
  6
CONTINUOUS
 10
94.5591949499
 20
197.9245098039
 40
1.0
100
AcDbArc
 50
0.0
 51
90.0000000001
  0
ARC
  5
26D
100
AcDbEntity
  8
0
100
AcDbCircle
 62
7
  6
CONTINUOUS
 10
89.9917612351
 20
197.9245098039
 40
1.0
100
AcDbArc
 50
89.9999999999
 51
180.0
  0
ARC
  5
26E
100
AcDbEntity
  8
0
100
AcDbCircle
 62
7
  6
CONTINUOUS
 10
194.5591949499
 20
197.9245098039
 40
1.0
100
AcDbArc
 50
0.0
 51
90.0000000001
  0
ARC
  5
26F
100
AcDbEntity
  8
0
100
AcDbCircle
 62
7
  6
CONTINUOUS
 10
189.9917612351
 20
197.9245098039
 40
1.0
100
AcDbArc
 50
89.9999999999
 51
180.0
  0
ARC
  5
270
100
AcDbEntity
  8
0
100
AcDbCircle
 62
7
  6
CONTINUOUS
 10
58.6282548422
 20
197.8245098039
 40
0.1
100
AcDbArc
 50
0.0000000488
 51
90.0
  0
ARC
  5
271
100
AcDbEntity
  8
0
100
AcDbCircle
 62
7
  6
CONTINUOUS
 10
50.9227013428
 20
197.8245098039
 40
0.1
100
AcDbArc
 50
90.0
 51
179.9999999512
  0
ARC
  5
272
100
AcDbEntity
  8
0
100
AcDbCircle
 62
7
  6
CONTINUOUS
 10
233.6282548422
 20
197.8245098039
 40
0.1
100
AcDbArc
 50
0.000000049
 51
90.0
  0
ARC
  5
273
100
AcDbEntity
  8
0
100
AcDbCircle
 62
7
  6
CONTINUOUS
 10
225.9227013428
 20
197.8245098039
 40
0.1
100
AcDbArc
 50
90.0
 51
179.9999999506
  0
ARC
  5
274
100
AcDbEntity
  8
0
100
AcDbCircle
 62
7
  6
CONTINUOUS
 10
96.1282548422
 20
197.8245098039
 40
0.1
100
AcDbArc
 50
0.000000049
 51
90.0
  0
ARC
  5
275
100
AcDbEntity
  8
0
100
AcDbCircle
 62
7
  6
CONTINUOUS
 10
88.4227013428
 20
197.8245098039
 40
0.1
100
AcDbArc
 50
90.0
 51
179.9999999506
  0
ARC
  5
276
100
AcDbEntity
  8
0
100
AcDbCircle
 62
7
  6
CONTINUOUS
 10
196.1282548422
 20
197.8245098039
 40
0.1
100
AcDbArc
 50
0.0000000494
 51
90.0
  0
ARC
  5
277
100
AcDbEntity
  8
0
100
AcDbCircle
 62
7
  6
CONTINUOUS
 10
188.4227013428
 20
197.8245098039
 40
0.1
100
AcDbArc
 50
90.0
 51
179.9999999508
  0
ARC
  5
278
100
AcDbEntity
  8
0
100
AcDbCircle
 62
7
  6
CONTINUOUS
 10
58.6148125439
 20
197.849259068
 40
0.0752507493
100
AcDbArc
 50
80.6878233627
 51
89.965864267
  0
ARC
  5
279
100
AcDbEntity
  8
0
100
AcDbCircle
 62
7
  6
CONTINUOUS
 10
50.9361436411
 20
197.8492590684
 40
0.0752507489
100
AcDbArc
 50
90.0341357728
 51
99.3121764796
  0
ARC
  5
27A
100
AcDbEntity
  8
0
100
AcDbCircle
 62
7
  6
CONTINUOUS
 10
233.6148125439
 20
197.849259068
 40
0.0752507493
100
AcDbArc
 50
80.6878233622
 51
89.9658642672
  0
ARC
  5
27B
100
AcDbEntity
  8
0
100
AcDbCircle
 62
7
  6
CONTINUOUS
 10
225.9361436411
 20
197.8492590684
 40
0.0752507489
100
AcDbArc
 50
90.0341357728
 51
99.3121764797
  0
ARC
  5
27C
100
AcDbEntity
  8
0
100
AcDbCircle
 62
7
  6
CONTINUOUS
 10
96.1148125439
 20
197.849259068
 40
0.0752507493
100
AcDbArc
 50
80.6878233622
 51
89.9658642675
  0
ARC
  5
27D
100
AcDbEntity
  8
0
100
AcDbCircle
 62
7
  6
CONTINUOUS
 10
88.4361436411
 20
197.8492590684
 40
0.0752507489
100
AcDbArc
 50
90.0341357725
 51
99.3121764803
  0
ARC
  5
27E
100
AcDbEntity
  8
0
100
AcDbCircle
 62
7
  6
CONTINUOUS
 10
196.1148125439
 20
197.849259068
 40
0.0752507493
100
AcDbArc
 50
80.6878233624
 51
89.9658642671
  0
ARC
  5
27F
100
AcDbEntity
  8
0
100
AcDbCircle
 62
7
  6
CONTINUOUS
 10
188.4361436411
 20
197.8492590684
 40
0.0752507489
100
AcDbArc
 50
90.0341357727
 51
99.31217648
  0
SPLINE
  5
280
100
AcDbEntity
  8
0
100
AcDbSpline
 62
7
  6
CONTINUOUS
 70
0
 71
3
 72
11
 73
7
 74
0
 42
0.0000001
 43
0.0000001
 44
0.0000000001
 40
0.0
 40
0.0
 40
0.0
 40
0.0
 40
0.2339604819
 40
0.4785822373
 40
0.7353800619
 40
1.0
 40
1.0
 40
1.0
 40
1.0
 10
58.6269891345
 20
197.923518114
 30
0.0
 10
58.637291755
 20
197.9218322334
 30
0.0
 10
58.6578345963
 20
197.9138538117
 30
0.0
 10
58.6821462701
 20
197.8907756433
 30
0.0
 10
58.6978694238
 20
197.8597528634
 30
0.0
 10
58.701459923
 20
197.8363175166
 30
0.0
 10
58.701459923
 20
197.8245098039
 30
0.0
  0
SPLINE
  5
281
100
AcDbEntity
  8
0
100
AcDbSpline
 62
7
  6
CONTINUOUS
 70
0
 71
3
 72
11
 73
7
 74
0
 42
0.0000001
 43
0.0000001
 44
0.0000000001
 40
0.0
 40
0.0
 40
0.0
 40
0.0
 40
0.2332466122
 40
0.4766038321
 40
0.7336388477
 40
1.0
 40
1.0
 40
1.0
 40
1.0
 10
52.8124871829
 20
197.924509804
 30
0.0
 10
52.8011510879
 20
197.9245098048
 30
0.0
 10
52.7776918718
 20
197.9190054687
 30
0.0
 10
52.748987795
 20
197.8962291064
 30
0.0
 10
52.7301949028
 20
197.8631179546
 30
0.0
 10
52.7258846368
 20
197.8374553096
 30
0.0
 10
52.7258846368
 20
197.8245098039
 30
0.0
  0
SPLINE
  5
282
100
AcDbEntity
  8
0
100
AcDbSpline
 62
7
  6
CONTINUOUS
 70
0
 71
3
 72
11
 73
7
 74
0
 42
0.0000001
 43
0.0000001
 44
0.0000000001
 40
0.0
 40
0.0
 40
0.0
 40
0.0
 40
0.264619938
 40
0.5214177624
 40
0.7660395176
 40
1.0
 40
1.0
 40
1.0
 40
1.0
 10
50.849496262
 20
197.8245098039
 30
0.0
 10
50.849496262
 20
197.8363175167
 30
0.0
 10
50.8530867612
 20
197.8597528635
 30
0.0
 10
50.8688099149
 20
197.8907756434
 30
0.0
 10
50.8931215888
 20
197.9138538118
 30
0.0
 10
50.9136644302
 20
197.9218322335
 30
0.0
 10
50.9239670508
 20
197.923518114
 30
0.0
  0
SPLINE
  5
283
100
AcDbEntity
  8
0
100
AcDbSpline
 62
7
  6
CONTINUOUS
 70
0
 71
3
 72
11
 73
7
 74
0
 42
0.0000001
 43
0.0000001
 44
0.0000000001
 40
0.0
 40
0.0
 40
0.0
 40
0.0
 40
0.2663611521
 40
0.5233961676
 40
0.7667533873
 40
1.0
 40
1.0
 40
1.0
 40
1.0
 10
56.8250715481
 20
197.8245098039
 30
0.0
 10
56.8250715481
 20
197.8374553096
 30
0.0
 10
56.8207612821
 20
197.8631179546
 30
0.0
 10
56.80196839
 20
197.8962291063
 30
0.0
 10
56.7732643132
 20
197.9190054687
 30
0.0
 10
56.7498050971
 20
197.9245098048
 30
0.0
 10
56.738469002
 20
197.9245098039
 30
0.0
  0
SPLINE
  5
284
100
AcDbEntity
  8
0
100
AcDbSpline
 62
7
  6
CONTINUOUS
 70
0
 71
3
 72
11
 73
7
 74
0
 42
0.0000001
 43
0.0000001
 44
0.0000000001
 40
0.0
 40
0.0
 40
0.0
 40
0.0
 40
0.2339604819
 40
0.4785822373
 40
0.7353800619
 40
1.0
 40
1.0
 40
1.0
 40
1.0
 10
233.6269891345
 20
197.923518114
 30
0.0
 10
233.637291755
 20
197.9218322334
 30
0.0
 10
233.6578345963
 20
197.9138538117
 30
0.0
 10
233.6821462701
 20
197.8907756433
 30
0.0
 10
233.6978694238
 20
197.8597528634
 30
0.0
 10
233.701459923
 20
197.8363175166
 30
0.0
 10
233.701459923
 20
197.8245098039
 30
0.0
  0
SPLINE
  5
285
100
AcDbEntity
  8
0
100
AcDbSpline
 62
7
  6
CONTINUOUS
 70
0
 71
3
 72
11
 73
7
 74
0
 42
0.0000001
 43
0.0000001
 44
0.0000000001
 40
0.0
 40
0.0
 40
0.0
 40
0.0
 40
0.2332466122
 40
0.4766038321
 40
0.7336388477
 40
1.0
 40
1.0
 40
1.0
 40
1.0
 10
227.8124871829
 20
197.924509804
 30
0.0
 10
227.8011510879
 20
197.9245098048
 30
0.0
 10
227.7776918718
 20
197.9190054687
 30
0.0
 10
227.748987795
 20
197.8962291064
 30
0.0
 10
227.7301949028
 20
197.8631179546
 30
0.0
 10
227.7258846368
 20
197.8374553096
 30
0.0
 10
227.7258846368
 20
197.8245098039
 30
0.0
  0
SPLINE
  5
286
100
AcDbEntity
  8
0
100
AcDbSpline
 62
7
  6
CONTINUOUS
 70
0
 71
3
 72
11
 73
7
 74
0
 42
0.0000001
 43
0.0000001
 44
0.0000000001
 40
0.0
 40
0.0
 40
0.0
 40
0.0
 40
0.264619938
 40
0.5214177624
 40
0.7660395176
 40
1.0
 40
1.0
 40
1.0
 40
1.0
 10
225.849496262
 20
197.8245098039
 30
0.0
 10
225.849496262
 20
197.8363175167
 30
0.0
 10
225.8530867612
 20
197.8597528635
 30
0.0
 10
225.8688099149
 20
197.8907756434
 30
0.0
 10
225.8931215888
 20
197.9138538118
 30
0.0
 10
225.9136644302
 20
197.9218322335
 30
0.0
 10
225.9239670508
 20
197.923518114
 30
0.0
  0
SPLINE
  5
287
100
AcDbEntity
  8
0
100
AcDbSpline
 62
7
  6
CONTINUOUS
 70
0
 71
3
 72
11
 73
7
 74
0
 42
0.0000001
 43
0.0000001
 44
0.0000000001
 40
0.0
 40
0.0
 40
0.0
 40
0.0
 40
0.2663611521
 40
0.5233961676
 40
0.7667533873
 40
1.0
 40
1.0
 40
1.0
 40
1.0
 10
231.8250715481
 20
197.8245098039
 30
0.0
 10
231.8250715481
 20
197.8374553096
 30
0.0
 10
231.8207612821
 20
197.8631179546
 30
0.0
 10
231.80196839
 20
197.8962291063
 30
0.0
 10
231.7732643132
 20
197.9190054687
 30
0.0
 10
231.7498050971
 20
197.9245098048
 30
0.0
 10
231.738469002
 20
197.9245098039
 30
0.0
  0
SPLINE
  5
288
100
AcDbEntity
  8
0
100
AcDbSpline
 62
7
  6
CONTINUOUS
 70
0
 71
3
 72
11
 73
7
 74
0
 42
0.0000001
 43
0.0000001
 44
0.0000000001
 40
0.0
 40
0.0
 40
0.0
 40
0.0
 40
0.2339604819
 40
0.4785822373
 40
0.7353800619
 40
1.0
 40
1.0
 40
1.0
 40
1.0
 10
96.1269891345
 20
197.923518114
 30
0.0
 10
96.137291755
 20
197.9218322334
 30
0.0
 10
96.1578345963
 20
197.9138538117
 30
0.0
 10
96.1821462701
 20
197.8907756433
 30
0.0
 10
96.1978694238
 20
197.8597528634
 30
0.0
 10
96.201459923
 20
197.8363175166
 30
0.0
 10
96.201459923
 20
197.8245098039
 30
0.0
  0
SPLINE
  5
289
100
AcDbEntity
  8
0
100
AcDbSpline
 62
7
  6
CONTINUOUS
 70
0
 71
3
 72
11
 73
7
 74
0
 42
0.0000001
 43
0.0000001
 44
0.0000000001
 40
0.0
 40
0.0
 40
0.0
 40
0.0
 40
0.2332466122
 40
0.4766038321
 40
0.7336388477
 40
1.0
 40
1.0
 40
1.0
 40
1.0
 10
90.3124871829
 20
197.924509804
 30
0.0
 10
90.3011510879
 20
197.9245098048
 30
0.0
 10
90.2776918718
 20
197.9190054687
 30
0.0
 10
90.248987795
 20
197.8962291064
 30
0.0
 10
90.2301949028
 20
197.8631179546
 30
0.0
 10
90.2258846368
 20
197.8374553096
 30
0.0
 10
90.2258846368
 20
197.8245098039
 30
0.0
  0
SPLINE
  5
28A
100
AcDbEntity
  8
0
100
AcDbSpline
 62
7
  6
CONTINUOUS
 70
0
 71
3
 72
11
 73
7
 74
0
 42
0.0000001
 43
0.0000001
 44
0.0000000001
 40
0.0
 40
0.0
 40
0.0
 40
0.0
 40
0.264619938
 40
0.5214177624
 40
0.7660395176
 40
1.0
 40
1.0
 40
1.0
 40
1.0
 10
88.349496262
 20
197.8245098039
 30
0.0
 10
88.349496262
 20
197.8363175167
 30
0.0
 10
88.3530867612
 20
197.8597528635
 30
0.0
 10
88.3688099149
 20
197.8907756434
 30
0.0
 10
88.3931215888
 20
197.9138538118
 30
0.0
 10
88.4136644302
 20
197.9218322335
 30
0.0
 10
88.4239670508
 20
197.923518114
 30
0.0
  0
SPLINE
  5
28B
100
AcDbEntity
  8
0
100
AcDbSpline
 62
7
  6
CONTINUOUS
 70
0
 71
3
 72
11
 73
7
 74
0
 42
0.0000001
 43
0.0000001
 44
0.0000000001
 40
0.0
 40
0.0
 40
0.0
 40
0.0
 40
0.2663611521
 40
0.5233961676
 40
0.7667533873
 40
1.0
 40
1.0
 40
1.0
 40
1.0
 10
94.3250715481
 20
197.8245098039
 30
0.0
 10
94.3250715481
 20
197.8374553096
 30
0.0
 10
94.3207612821
 20
197.8631179546
 30
0.0
 10
94.30196839
 20
197.8962291063
 30
0.0
 10
94.2732643132
 20
197.9190054687
 30
0.0
 10
94.2498050971
 20
197.9245098048
 30
0.0
 10
94.238469002
 20
197.9245098039
 30
0.0
  0
SPLINE
  5
28C
100
AcDbEntity
  8
0
100
AcDbSpline
 62
7
  6
CONTINUOUS
 70
0
 71
3
 72
11
 73
7
 74
0
 42
0.0000001
 43
0.0000001
 44
0.0000000001
 40
0.0
 40
0.0
 40
0.0
 40
0.0
 40
0.2339604819
 40
0.4785822373
 40
0.7353800619
 40
1.0
 40
1.0
 40
1.0
 40
1.0
 10
196.1269891345
 20
197.923518114
 30
0.0
 10
196.137291755
 20
197.9218322334
 30
0.0
 10
196.1578345963
 20
197.9138538117
 30
0.0
 10
196.1821462701
 20
197.8907756433
 30
0.0
 10
196.1978694238
 20
197.8597528634
 30
0.0
 10
196.201459923
 20
197.8363175166
 30
0.0
 10
196.201459923
 20
197.8245098039
 30
0.0
  0
SPLINE
  5
28D
100
AcDbEntity
  8
0
100
AcDbSpline
 62
7
  6
CONTINUOUS
 70
0
 71
3
 72
11
 73
7
 74
0
 42
0.0000001
 43
0.0000001
 44
0.0000000001
 40
0.0
 40
0.0
 40
0.0
 40
0.0
 40
0.2332466122
 40
0.4766038321
 40
0.7336388477
 40
1.0
 40
1.0
 40
1.0
 40
1.0
 10
190.3124871829
 20
197.924509804
 30
0.0
 10
190.3011510879
 20
197.9245098048
 30
0.0
 10
190.2776918718
 20
197.9190054687
 30
0.0
 10
190.248987795
 20
197.8962291064
 30
0.0
 10
190.2301949028
 20
197.8631179546
 30
0.0
 10
190.2258846368
 20
197.8374553096
 30
0.0
 10
190.2258846368
 20
197.8245098039
 30
0.0
  0
SPLINE
  5
28E
100
AcDbEntity
  8
0
100
AcDbSpline
 62
7
  6
CONTINUOUS
 70
0
 71
3
 72
11
 73
7
 74
0
 42
0.0000001
 43
0.0000001
 44
0.0000000001
 40
0.0
 40
0.0
 40
0.0
 40
0.0
 40
0.264619938
 40
0.5214177624
 40
0.7660395176
 40
1.0
 40
1.0
 40
1.0
 40
1.0
 10
188.349496262
 20
197.8245098039
 30
0.0
 10
188.349496262
 20
197.8363175167
 30
0.0
 10
188.3530867612
 20
197.8597528635
 30
0.0
 10
188.3688099149
 20
197.8907756434
 30
0.0
 10
188.3931215888
 20
197.9138538118
 30
0.0
 10
188.4136644302
 20
197.9218322335
 30
0.0
 10
188.4239670508
 20
197.923518114
 30
0.0
  0
SPLINE
  5
28F
100
AcDbEntity
  8
0
100
AcDbSpline
 62
7
  6
CONTINUOUS
 70
0
 71
3
 72
11
 73
7
 74
0
 42
0.0000001
 43
0.0000001
 44
0.0000000001
 40
0.0
 40
0.0
 40
0.0
 40
0.0
 40
0.2663611521
 40
0.5233961676
 40
0.7667533873
 40
1.0
 40
1.0
 40
1.0
 40
1.0
 10
194.3250715481
 20
197.8245098039
 30
0.0
 10
194.3250715481
 20
197.8374553096
 30
0.0
 10
194.3207612821
 20
197.8631179546
 30
0.0
 10
194.30196839
 20
197.8962291063
 30
0.0
 10
194.2732643132
 20
197.9190054687
 30
0.0
 10
194.2498050971
 20
197.9245098048
 30
0.0
 10
194.238469002
 20
197.9245098039
 30
0.0
  0
ENDSEC
  0
SECTION
  2
OBJECTS
  0
DICTIONARY
  5
C
100
AcDbDictionary
280
0
281
1
  3
ACAD_GROUP
350
D
  3
ACAD_MLINESTYLE
350
17
  3
ACAD_LAYOUT
350
1A
  3
ACAD_PLOTSETTINGS
350
19
  3
ACAD_PLOTSTYLENAME
350
E
  0
DICTIONARY
  5
D
102
{ACAD_REACTORS
330
C
102
}
100
AcDbDictionary
280
0
281
1
  0
ACDBDICTIONARYWDFLT
  5
E
102
{ACAD_REACTORS
330
C
102
}
100
AcDbDictionary
281
1
  3
Normal
350
F
100
AcDbDictionaryWithDefault
340
F
  0
DICTIONARY
  5
17
102
{ACAD_REACTORS
330
C
102
}
100
AcDbDictionary
280
0
281
1
  3
Standard
350
18
  0
DICTIONARY
  5
19
102
{ACAD_REACTORS
330
C
102
}
100
AcDbDictionary
281
1
  0
DICTIONARY
  5
1A
102
{ACAD_REACTORS
330
C
102
}
100
AcDbDictionary
281
1
  3
Model
350
290
  3
Layout1
350
291
  0
ACDBPLACEHOLDER
  5
F
102
{ACAD_REACTORS
330
E
102
}
  0
MLINESTYLE
  5
18
102
{ACAD_REACTORS
330
17
102
}
100
AcDbMlineStyle
  2
STANDARD
 70
0
  3

 62
256
 51
90.0
 52
90.0
 71
2
 49
0.5
 62
256
  6
BYLAYER
 49
-0.5
 62
256
  6
BYLAYER
  0
LAYOUT
  5
290
102
{ACAD_REACTORS
330
1A
102
}
100
AcDbPlotSettings
  1

  2
none_device
  4

  6

 40
0.0
 41
0.0
 42
0.0
 43
0.0
 44
210.0
 45
297.0
 46
0.0
 47
0.0
 48
0.0
 49
0.0
140
0.0
141
0.0
142
1.0
143
1.0
 70
1024
 72
1
 73
0
 74
0
  7

 75
0
147
1.0
148
0.0
149
0.0
100
AcDbLayout
  1
Model
 70
0
 71
0
 10
0.0
 20
0.0
 11
210.0
 21
297.0
 12
0.0
 22
0.0
 32
0.0
 14
0.0
 24
0.0
 34
0.0
 15
0.0
 25
0.0
 35
0.0
146
0.0
 13
0.0
 23
0.0
 33
0.0
 16
1.0
 26
0.0
 36
0.0
 17
0.0
 27
1.0
 37
0.0
 76
0
330
210
345
0
346
0
  0
LAYOUT
  5
291
102
{ACAD_REACTORS
330
1A
102
}
100
AcDbPlotSettings
  1

  2
none_device
  4

  6

 40
0.0
 41
0.0
 42
0.0
 43
0.0
 44
210.0
 45
297.0
 46
0.0
 47
0.0
 48
0.0
 49
0.0
140
0.0
141
0.0
142
1.0
143
1.0
 70
0
 72
1
 73
0
 74
0
  7

 75
0
147
1.0
148
0.0
149
0.0
100
AcDbLayout
  1
Layout1
 70
0
 71
1
 10
0.0
 20
0.0
 11
210.0
 21
297.0
 12
0.0
 22
0.0
 32
0.0
 14
0.0
 24
0.0
 34
0.0
 15
0.0
 25
0.0
 35
0.0
146
0.0
 13
0.0
 23
0.0
 33
0.0
 16
1.0
 26
0.0
 36
0.0
 17
0.0
 27
1.0
 37
0.0
 76
0
330
211
345
0
346
0
  0
ENDSEC
  0
EOF
