999
DXF file: C:\Users\sesa63760\Dev\_Creo\CAD\MCADID0000575_3D-CAD\drw0001_5.dxf
999
Pro/ENGINEER 2019471 by Parametric Technology Corporation
  0
SECTION
  2
HEADER
  9
$ACADVER
  1
AC1024
  9
$DWGCODEPAGE
  3
ANSI_1252
  9
$EXTMAX
 10
102.061842919
 20
144.344606414
 30
0.0
  9
$EXTMIN
 10
0.0
 20
0.0
 30
0.0
  9
$LIMMIN
 10
0.0
 20
0.0
  9
$LIMMAX
 10
102.061842919
 20
144.344606414
  9
$VIEWCTR
 10
51.0309214595
 20
72.172303207
  9
$VIEWSIZE
 40
144.344606414
  9
$CLAYER
  8
0
  9
$LTSCALE
 40
9.4091298996
  9
$CELTYPE
  6
BYLAYER
  9
$DIMSCALE
 40
1.0
  9
$DIMASZ
 40
1.2150219395
  9
$DIMEXO
 40
1.0
  9
$DIMDLI
 40
6.5008533852
  9
$DIMEXE
 40
1.0
  9
$DIMCEN
 40
1.5396758017
  9
$DIMLFAC
 40
1.0
  9
$DIMBLK
  1
_FILLED
  9
$DIMALT
 70
0
  9
$DIMALTF
 40
0.0393700787
  9
$DIMTXT
 40
1.7010307153
  9
$DIMTOL
 70
1
  9
$DIMLIM
 70
0
  9
$DIMTFAC
 40
1.0
  9
$DIMTP
 40
0.01
  9
$DIMTM
 40
0.01
  9
$DIMGAP
 40
0.625
  9
$DIMDSEP
 70
46
  9
$AUNITS
 70
0
  9
$PDMODE
 70
3
  9
$PDSIZE
 40
0.3125
  9
$HANDSEED
  5
2DE
  9
$TILEMODE
 70
1
  9
$MEASUREMENT
 70
1
  9
$INSUNITS
 70
4
  0
ENDSEC
  0
SECTION
  2
CLASSES
  0
CLASS
  1
ACDBDICTIONARYWDFLT
  2
AcDbDictionaryWithDefault
  3
AutoCAD 2000
 90
0
 91
1
280
0
281
0
  0
CLASS
  1
ACDBPLACEHOLDER
  2
AcDbPlaceHolder
  3
AutoCAD 2000
 90
0
 91
1
280
0
281
0
  0
CLASS
  1
LAYOUT
  2
AcDbLayout
  3
AutoCAD 2000
 90
0
 91
0
280
0
281
0
  0
ENDSEC
  0
SECTION
  2
TABLES
  0
TABLE
  2
VPORT
  5
8
100
AcDbSymbolTable
 70
2
  0
VPORT
  5
1F4
100
AcDbSymbolTableRecord
100
AcDbViewportTableRecord
  2
*ACTIVE
 70
0
 10
0.0
 20
0.0
 11
1.0
 21
1.0
 12
51.0309214595
 22
72.172303207
 13
0.0
 23
0.0
 14
1.0
 24
1.0
 15
0.0
 25
0.0
 16
0.0
 26
0.0
 36
1.0
 17
0.0
 27
0.0
 37
0.0
 40
144.344606414
 41
0.7070707071
 42
50.0
 43
0.0
 44
0.0
 50
0.0
 51
0.0
 71
0
 72
100
 73
1
 74
1
 75
0
 76
0
 77
0
 78
0
  0
ENDTAB
  0
TABLE
  2
LTYPE
  5
5
100
AcDbSymbolTable
 70
6
  0
LTYPE
  5
14
100
AcDbSymbolTableRecord
100
AcDbLinetypeTableRecord
  2
BYBLOCK
 70
0
  3

 72
65
 73
0
 40
0.0
  0
LTYPE
  5
15
100
AcDbSymbolTableRecord
100
AcDbLinetypeTableRecord
  2
BYLAYER
 70
0
  3

 72
65
 73
0
 40
0.0
  0
LTYPE
  5
16
100
AcDbSymbolTableRecord
100
AcDbLinetypeTableRecord
  2
CONTINUOUS
 70
64
  3
Solid line
 72
65
 73
0
 40
0.0
  0
LTYPE
  5
1F5
100
AcDbSymbolTableRecord
100
AcDbLinetypeTableRecord
  2
CENTER
 70
64
  3
____ _ ____ _ ____ _ ____ _ ____ _ ____ _ ____
 72
65
 73
4
 40
0.6
 49
0.375
 74
0
 49
-0.075
 74
0
 49
0.075
 74
0
 49
-0.075
 74
0
  0
LTYPE
  5
1F6
100
AcDbSymbolTableRecord
100
AcDbLinetypeTableRecord
  2
HIDDEN
 70
64
  3
- - - - - - - - - - - - - - - - - - - -
 72
65
 73
2
 40
0.2
 49
0.1
 74
0
 49
-0.1
 74
0
  0
LTYPE
  5
1F7
100
AcDbSymbolTableRecord
100
AcDbLinetypeTableRecord
  2
PHANTOM
 70
64
  3
_____ _ _ _____ _ _ _____ _ _ _____
 72
65
 73
6
 40
0.8
 49
0.45
 74
0
 49
-0.05
 74
0
 49
0.1
 74
0
 49
-0.05
 74
0
 49
0.1
 74
0
 49
-0.05
 74
0
  0
LTYPE
  5
1F8
100
AcDbSymbolTableRecord
100
AcDbLinetypeTableRecord
  2
DOT
 70
64
  3
. . . . . . . . . . . . . . . . . . . .
 72
65
 73
2
 40
0.2
 49
0.1
 74
0
 49
-0.1
 74
0
  0
LTYPE
  5
1F9
100
AcDbSymbolTableRecord
100
AcDbLinetypeTableRecord
  2
DASHED
 70
64
  3
- - - - - - - - - - - - - - - - - - - -
 72
65
 73
2
 40
0.2
 49
0.1
 74
0
 49
-0.1
 74
0
  0
ENDTAB
  0
TABLE
  2
LAYER
  5
2
100
AcDbSymbolTable
 70
36
  0
LAYER
  5
10
100
AcDbSymbolTableRecord
100
AcDbLayerTableRecord
  2
0
 70
0
 62
7
  6
CONTINUOUS
370
-3
390
F
  0
LAYER
  5
1FA
100
AcDbSymbolTableRecord
100
AcDbLayerTableRecord
  2
DEFAULT_1
 70
0
 62
7
  6
CENTER
370
-3
390
F
  0
LAYER
  5
1FB
100
AcDbSymbolTableRecord
100
AcDbLayerTableRecord
  2
DEFAULT_2
 70
0
 62
8
  6
HIDDEN
370
-3
390
F
  0
LAYER
  5
1FC
100
AcDbSymbolTableRecord
100
AcDbLayerTableRecord
  2
DEFAULT_3
 70
0
 62
7
  6
PHANTOM
370
-3
390
F
  0
LAYER
  5
1FD
100
AcDbSymbolTableRecord
100
AcDbLayerTableRecord
  2
00_COMPONENTS
 70
0
 62
7
  6
CONTINUOUS
370
-3
390
F
  0
LAYER
  5
1FE
100
AcDbSymbolTableRecord
100
AcDbLayerTableRecord
  2
01_1_DEFAULT_DATUMS
 70
0
 62
7
  6
CONTINUOUS
370
-3
390
F
  0
LAYER
  5
1FF
100
AcDbSymbolTableRecord
100
AcDbLayerTableRecord
  2
01_PLANES
 70
0
 62
7
  6
CONTINUOUS
370
-3
390
F
  0
LAYER
  5
200
100
AcDbSymbolTableRecord
100
AcDbLayerTableRecord
  2
02_COORD_SYS
 70
0
 62
7
  6
CONTINUOUS
370
-3
390
F
  0
LAYER
  5
201
100
AcDbSymbolTableRecord
100
AcDbLayerTableRecord
  2
03_AXES
 70
0
 62
7
  6
CONTINUOUS
370
-3
390
F
  0
LAYER
  5
202
100
AcDbSymbolTableRecord
100
AcDbLayerTableRecord
  2
04_POINTS
 70
0
 62
7
  6
CONTINUOUS
370
-3
390
F
  0
LAYER
  5
203
100
AcDbSymbolTableRecord
100
AcDbLayerTableRecord
  2
05_CURVES
 70
0
 62
7
  6
CONTINUOUS
370
-3
390
F
  0
LAYER
  5
204
100
AcDbSymbolTableRecord
100
AcDbLayerTableRecord
  2
06_SURFS
 70
0
 62
7
  6
CONTINUOUS
370
-3
390
F
  0
LAYER
  5
205
100
AcDbSymbolTableRecord
100
AcDbLayerTableRecord
  2
07_COSMETICS
 70
0
 62
7
  6
CONTINUOUS
370
-3
390
F
  0
LAYER
  5
206
100
AcDbSymbolTableRecord
100
AcDbLayerTableRecord
  2
10_NOTES
 70
0
 62
7
  6
CONTINUOUS
370
-3
390
F
  0
LAYER
  5
207
100
AcDbSymbolTableRecord
100
AcDbLayerTableRecord
  2
11_NOTES_PUB
 70
0
 62
7
  6
CONTINUOUS
370
-3
390
F
  0
LAYER
  5
208
100
AcDbSymbolTableRecord
100
AcDbLayerTableRecord
  2
13_REF_GTOL
 70
0
 62
7
  6
CONTINUOUS
370
-3
390
F
  0
LAYER
  5
209
100
AcDbSymbolTableRecord
100
AcDbLayerTableRecord
  2
16_MISC
 70
0
 62
7
  6
CONTINUOUS
370
-3
390
F
  0
LAYER
  5
20A
100
AcDbSymbolTableRecord
100
AcDbLayerTableRecord
  2
17_NO_PRINT
 70
0
 62
7
  6
CONTINUOUS
370
-3
390
F
  0
LAYER
  5
20B
100
AcDbSymbolTableRecord
100
AcDbLayerTableRecord
  2
18_DATUM_CAMS_JOINTS
 70
0
 62
7
  6
CONTINUOUS
370
-3
390
F
  0
LAYER
  5
20C
100
AcDbSymbolTableRecord
100
AcDbLayerTableRecord
  2
19_DATUM_FUNCTIONAL
 70
0
 62
7
  6
CONTINUOUS
370
-3
390
F
  0
LAYER
  5
20D
100
AcDbSymbolTableRecord
100
AcDbLayerTableRecord
  2
20_DATUM_KINEMATIC_SCHEME
 70
0
 62
7
  6
CONTINUOUS
370
-3
390
F
  0
ENDTAB
  0
TABLE
  2
STYLE
  5
3
100
AcDbSymbolTable
 70
1
  0
STYLE
  5
11
100
AcDbSymbolTableRecord
100
AcDbTextStyleTableRecord
  2
STANDARD
 70
0
 40
0.0
 41
0.8
 50
0.0
 71
0
 42
0.2
  3
txt
  4

  0
STYLE
  5
20E
100
AcDbSymbolTableRecord
100
AcDbTextStyleTableRecord
  2
TEXTSTYLE_1
 70
0
 40
0.0
 41
0.8
 50
0.0
 71
0
 42
0.2
  3
gdt
  4

  0
ENDTAB
  0
TABLE
  2
VIEW
  5
6
100
AcDbSymbolTable
 70
0
  0
ENDTAB
  0
TABLE
  2
UCS
  5
7
100
AcDbSymbolTable
 70
0
  0
ENDTAB
  0
TABLE
  2
APPID
  5
9
100
AcDbSymbolTable
 70
1
  0
APPID
  5
20F
100
AcDbSymbolTableRecord
100
AcDbRegAppTableRecord
  2
ACAD
 70
0
  0
ENDTAB
  0
TABLE
  2
BLOCK_RECORD
  5
1
100
AcDbSymbolTable
 70
0
  0
BLOCK_RECORD
  5
210
100
AcDbSymbolTableRecord
100
AcDbBlockTableRecord
  2
*Model_Space
  0
BLOCK_RECORD
  5
211
100
AcDbSymbolTableRecord
100
AcDbBlockTableRecord
  2
*Paper_Space
  0
BLOCK_RECORD
  5
212
100
AcDbSymbolTableRecord
100
AcDbBlockTableRecord
  2
_FILLED
  0
ENDTAB
  0
TABLE
  2
DIMSTYLE
  5
A
100
AcDbSymbolTable
 70
1
100
AcDbDimStyleTable
 71
0
  0
DIMSTYLE
105
213
100
AcDbSymbolTableRecord
100
AcDbDimStyleTableRecord
  2
STANDARD
 70
0
  3

  4

 40
1.0
 41
1.2150219395
 42
1.0
 43
0.38
 44
1.0
 45
0.0
 46
0.0
 47
0.01
 48
0.01
140
1.7010307153
141
0.09
142
0.0
143
25.4
144
1.0
145
0.0
146
1.0
147
0.625
 71
1
 72
0
 73
0
 74
0
 75
0
 76
0
 77
1
 78
8
 79
2
170
0
171
1
172
0
173
0
174
0
175
0
176
0
177
0
178
0
270
2
179
2
271
2
272
2
273
2
274
2
275
0
280
0
281
0
282
0
283
1
284
8
285
0
286
0
287
3
288
0
340
11
278
46
341
212
342
212
343
212
344
212
  0
ENDTAB
  0
ENDSEC
  0
SECTION
  2
BLOCKS
  0
BLOCK
  5
20
100
AcDbEntity
  8
0
100
AcDbBlockBegin
  2
*Model_Space
 70
0
 10
0.0
 20
0.0
 30
0.0
  3
*Model_Space
  1

  0
ENDBLK
  5
21
100
AcDbEntity
  8
0
100
AcDbBlockEnd
  0
BLOCK
  5
1C
100
AcDbEntity
  8
0
100
AcDbBlockBegin
  2
*Paper_Space
 70
0
 10
0.0
 20
0.0
 30
0.0
  3
*Paper_Space
  1

  0
ENDBLK
  5
1D
100
AcDbEntity
  8
0
100
AcDbBlockEnd
  0
BLOCK
  5
214
100
AcDbEntity
  8
0
100
AcDbBlockBegin
  2
_FILLED
 70
64
 10
0.0
 20
0.0
  3
_FILLED
  1

  0
SOLID
  5
215
100
AcDbEntity
  8
0
  6
BYBLOCK
 62
0
100
AcDbTrace
 10
0.0
 20
0.0
 11
-1.0
 21
0.25
 12
-1.0
 22
-0.25
 13
-1.0
 23
-0.25
  0
ENDBLK
  5
216
100
AcDbEntity
  8
0
  6
BYBLOCK
 62
0
100
AcDbBlockEnd
  0
ENDSEC
  0
SECTION
  2
ENTITIES
  0
LINE
  5
217
100
AcDbEntity
  8
0
100
AcDbLine
 62
7
  6
CONTINUOUS
 10
71.0943325382
 20
11.7489795918
 11
29.0943325382
 21
11.7489795918
  0
LINE
  5
218
100
AcDbEntity
  8
0
100
AcDbLine
 62
7
  6
CONTINUOUS
 10
39.4943325382
 20
11.9489795918
 11
71.4943325382
 21
11.9489795918
  0
LINE
  5
219
100
AcDbEntity
  8
0
100
AcDbLine
 62
7
  6
CONTINUOUS
 10
37.4554660406
 20
12.3568406522
 11
73.5331990358
 21
12.3568406522
  0
LINE
  5
21A
100
AcDbEntity
  8
0
100
AcDbLine
 62
7
  6
CONTINUOUS
 10
22.0443325382
 20
19.7989795918
 11
22.2943325382
 21
19.7989795918
  0
LINE
  5
21B
100
AcDbEntity
  8
0
100
AcDbLine
 62
7
  6
CONTINUOUS
 10
26.1724083825
 20
23.9032524854
 11
30.626619213
 21
22.4714683265
  0
LINE
  5
21C
100
AcDbEntity
  8
0
100
AcDbLine
 62
7
  6
CONTINUOUS
 10
28.1828251274
 20
23.257013913
 11
30.8089393304
 21
22.1927133944
  0
LINE
  5
21D
100
AcDbEntity
  8
0
100
AcDbLine
 62
7
  6
CONTINUOUS
 10
22.3030600707
 20
20.9989795918
 11
22.0443325382
 21
20.9989795918
  0
LINE
  5
21E
100
AcDbEntity
  8
0
100
AcDbLine
 62
7
  6
CONTINUOUS
 10
29.8943325382
 20
23.7489795918
 11
81.1106782685
 21
23.7490021968
  0
LINE
  5
21F
100
AcDbEntity
  8
0
100
AcDbLine
 62
7
  6
CONTINUOUS
 10
18.7943325382
 20
36.4489795918
 11
19.1943325382
 21
36.0489795918
  0
LINE
  5
220
100
AcDbEntity
  8
0
100
AcDbLine
 62
7
  6
CONTINUOUS
 10
22.0443325382
 20
28.7489795918
 11
22.3030600707
 21
28.7489795918
  0
LINE
  5
221
100
AcDbEntity
  8
0
100
AcDbLine
 62
7
  6
CONTINUOUS
 10
22.2943325382
 20
29.9489795918
 11
22.0443325382
 21
29.9489795918
  0
LINE
  5
222
100
AcDbEntity
  8
0
100
AcDbLine
 62
7
  6
CONTINUOUS
 10
15.2943325382
 20
45.3489795918
 11
15.5943325382
 21
45.0489795918
  0
LINE
  5
223
100
AcDbEntity
  8
0
100
AcDbLine
 62
7
  6
CONTINUOUS
 10
22.0443325382
 20
32.4489795918
 11
22.3161630097
 21
32.4489795918
  0
LINE
  5
224
100
AcDbEntity
  8
0
100
AcDbLine
 62
7
  6
CONTINUOUS
 10
22.3379934811
 20
32.9489795918
 11
22.0443325382
 21
32.9489795918
  0
LINE
  5
225
100
AcDbEntity
  8
0
100
AcDbLine
 62
7
  6
CONTINUOUS
 10
20.2943325382
 20
34.0489795918
 11
22.0443325382
 21
34.0489795918
  0
LINE
  5
226
100
AcDbEntity
  8
0
100
AcDbLine
 62
7
  6
CONTINUOUS
 10
32.7380663408
 20
20.263586384
 11
33.8023668594
 21
17.637472181
  0
LINE
  5
227
100
AcDbEntity
  8
0
100
AcDbLine
 62
7
  6
CONTINUOUS
 10
15.2943325382
 20
45.3489795918
 11
15.2943325382
 21
80.7489795918
  0
LINE
  5
228
100
AcDbEntity
  8
0
100
AcDbLine
 62
7
  6
CONTINUOUS
 10
15.5943325382
 20
45.0489795918
 11
15.5943325382
 21
81.0489795918
  0
LINE
  5
229
100
AcDbEntity
  8
0
100
AcDbLine
 62
7
  6
CONTINUOUS
 10
18.7943325382
 20
36.4489795918
 11
18.7943325382
 21
89.6489795918
  0
LINE
  5
22A
100
AcDbEntity
  8
0
100
AcDbLine
 62
7
  6
CONTINUOUS
 10
19.1943325382
 20
36.0489795918
 11
19.1943325382
 21
55.4986737503
  0
LINE
  5
22B
100
AcDbEntity
  8
0
100
AcDbLine
 62
7
  6
CONTINUOUS
 10
19.1943325382
 20
70.5992854334
 11
19.1943325382
 21
90.0489795918
  0
LINE
  5
22C
100
AcDbEntity
  8
0
100
AcDbLine
 62
7
  6
CONTINUOUS
 10
19.1943325382
 20
90.0489795918
 11
18.7943325382
 21
89.6489795918
  0
LINE
  5
22D
100
AcDbEntity
  8
0
100
AcDbLine
 62
7
  6
CONTINUOUS
 10
19.1943325382
 20
36.0489795918
 11
20.2943325382
 21
36.0489795918
  0
LINE
  5
22E
100
AcDbEntity
  8
0
100
AcDbLine
 62
7
  6
CONTINUOUS
 10
88.5229196764
 20
39.6739795918
 11
88.9443325382
 21
39.6739795918
  0
LINE
  5
22F
100
AcDbEntity
  8
0
100
AcDbLine
 62
7
  6
CONTINUOUS
 10
33.0168212729
 20
20.0812662666
 11
34.4486054317
 21
15.6270554361
  0
LINE
  5
230
100
AcDbEntity
  8
0
100
AcDbLine
 62
7
  6
CONTINUOUS
 10
20.2943325382
 20
34.0494000323
 11
20.2943325382
 21
72.1439795918
  0
LINE
  5
231
100
AcDbEntity
  8
0
100
AcDbLine
 62
7
  6
CONTINUOUS
 10
20.2943325382
 20
83.1439795918
 11
20.2943325382
 21
92.0489795918
  0
LINE
  5
232
100
AcDbEntity
  8
0
100
AcDbLine
 62
7
  6
CONTINUOUS
 10
22.0443325382
 20
19.7989795918
 11
22.0443325382
 21
29.9489795918
  0
LINE
  5
233
100
AcDbEntity
  8
0
100
AcDbLine
 62
7
  6
CONTINUOUS
 10
22.0443325382
 20
32.4489795918
 11
22.0443325382
 21
57.4489795918
  0
LINE
  5
234
100
AcDbEntity
  8
0
100
AcDbLine
 62
7
  6
CONTINUOUS
 10
22.0443325382
 20
59.9489795918
 11
22.0443325382
 21
70.0989795918
  0
LINE
  5
235
100
AcDbEntity
  8
0
100
AcDbLine
 62
7
  6
CONTINUOUS
 10
22.2943325382
 20
18.5489795918
 11
22.2943325382
 21
32.4489795918
  0
LINE
  5
236
100
AcDbEntity
  8
0
100
AcDbLine
 62
7
  6
CONTINUOUS
 10
22.2943325382
 20
57.4489795918
 11
22.2943325382
 21
71.3489795918
  0
LINE
  5
237
100
AcDbEntity
  8
0
100
AcDbLine
 62
7
  6
CONTINUOUS
 10
22.3379934811
 20
32.9489795918
 11
22.3379934811
 21
56.9489795918
  0
LINE
  5
238
100
AcDbEntity
  8
0
100
AcDbLine
 62
7
  6
CONTINUOUS
 10
22.4943325382
 20
60.9489795918
 11
22.4943325382
 21
28.9489795918
  0
LINE
  5
239
100
AcDbEntity
  8
0
100
AcDbLine
 62
7
  6
CONTINUOUS
 10
22.9579913371
 20
63.1681023049
 11
22.9579913371
 21
63.0908280682
  0
LINE
  5
23A
100
AcDbEntity
  8
0
100
AcDbLine
 62
7
  6
CONTINUOUS
 10
15.5943325382
 20
81.0489795918
 11
15.2943325382
 21
80.7489795918
  0
LINE
  5
23B
100
AcDbEntity
  8
0
100
AcDbLine
 62
7
  6
CONTINUOUS
 10
19.1943325382
 20
83.1439795918
 11
18.7943325382
 21
82.7439795918
  0
LINE
  5
23C
100
AcDbEntity
  8
0
100
AcDbLine
 62
7
  6
CONTINUOUS
 10
88.9443325382
 20
40.8739795918
 11
88.4943325382
 21
40.8739795918
  0
LINE
  5
23D
100
AcDbEntity
  8
0
100
AcDbLine
 62
7
  6
CONTINUOUS
 10
26.8943325382
 20
26.7489795918
 11
26.8943325382
 21
115.9489795918
  0
LINE
  5
23E
100
AcDbEntity
  8
0
100
AcDbLine
 62
7
  6
CONTINUOUS
 10
15.5943325382
 20
45.0489795918
 11
18.7943325382
 21
45.0489795918
  0
LINE
  5
23F
100
AcDbEntity
  8
0
100
AcDbLine
 62
7
  6
CONTINUOUS
 10
88.4943325382
 20
49.0239795918
 11
88.9443325382
 21
49.0239795918
  0
LINE
  5
240
100
AcDbEntity
  8
0
100
AcDbLine
 62
7
  6
CONTINUOUS
 10
18.7943325382
 20
72.5439795918
 11
19.1943325382
 21
72.1439795918
  0
LINE
  5
241
100
AcDbEntity
  8
0
100
AcDbLine
 62
7
  6
CONTINUOUS
 10
30.0943325382
 20
119.4489795918
 11
30.0943325382
 21
115.9489795918
  0
LINE
  5
242
100
AcDbEntity
  8
0
100
AcDbLine
 62
7
  6
CONTINUOUS
 10
88.9443325382
 20
50.2239795918
 11
88.5229196764
 21
50.2239795918
  0
LINE
  5
243
100
AcDbEntity
  8
0
100
AcDbLine
 62
7
  6
CONTINUOUS
 10
34.4943325382
 20
118.9489795918
 11
34.4943325382
 21
115.9489795918
  0
LINE
  5
244
100
AcDbEntity
  8
0
100
AcDbLine
 62
7
  6
CONTINUOUS
 10
35.2194153206
 20
115.9489795918
 11
35.2194153206
 21
118.9489795918
  0
LINE
  5
245
100
AcDbEntity
  8
0
100
AcDbLine
 62
7
  6
CONTINUOUS
 10
35.9943325382
 20
118.9489795918
 11
35.9943325382
 21
121.4489795918
  0
LINE
  5
246
100
AcDbEntity
  8
0
100
AcDbLine
 62
7
  6
CONTINUOUS
 10
36.3397775997
 20
118.9489795918
 11
36.3397775997
 21
121.4489795918
  0
LINE
  5
247
100
AcDbEntity
  8
0
100
AcDbLine
 62
7
  6
CONTINUOUS
 10
36.7443325382
 20
121.4489795918
 11
36.7443325382
 21
127.9489795918
  0
LINE
  5
248
100
AcDbEntity
  8
0
100
AcDbLine
 62
7
  6
CONTINUOUS
 10
37.9735371661
 20
121.4489795918
 11
37.9735371661
 21
127.9489795918
  0
LINE
  5
249
100
AcDbEntity
  8
0
100
AcDbLine
 62
7
  6
CONTINUOUS
 10
22.0443325382
 20
55.4986737503
 11
18.9064328806
 21
55.4986737503
  0
LINE
  5
24A
100
AcDbEntity
  8
0
100
AcDbLine
 62
7
  6
CONTINUOUS
 10
20.2943325382
 20
56.0489795918
 11
22.0443325382
 21
56.0489795918
  0
LINE
  5
24B
100
AcDbEntity
  8
0
100
AcDbLine
 62
7
  6
CONTINUOUS
 10
18.7943325382
 20
56.6871478179
 11
20.2943325382
 21
56.6871478179
  0
LINE
  5
24C
100
AcDbEntity
  8
0
100
AcDbLine
 62
7
  6
CONTINUOUS
 10
22.0443325382
 20
56.9489795918
 11
22.3379934811
 21
56.9489795918
  0
LINE
  5
24D
100
AcDbEntity
  8
0
100
AcDbLine
 62
7
  6
CONTINUOUS
 10
22.3161630097
 20
57.4489795918
 11
22.0443325382
 21
57.4489795918
  0
LINE
  5
24E
100
AcDbEntity
  8
0
100
AcDbLine
 62
7
  6
CONTINUOUS
 10
39.4943325382
 20
127.9489795918
 11
39.4943325382
 21
129.9489795918
  0
LINE
  5
24F
100
AcDbEntity
  8
0
100
AcDbLine
 62
7
  6
CONTINUOUS
 10
39.6106077205
 20
127.9489795918
 11
39.6106077205
 21
121.4489795918
  0
LINE
  5
250
100
AcDbEntity
  8
0
100
AcDbLine
 62
7
  6
CONTINUOUS
 10
41.2443672869
 20
121.4489795918
 11
41.2443672869
 21
118.9489795918
  0
LINE
  5
251
100
AcDbEntity
  8
0
100
AcDbLine
 62
7
  6
CONTINUOUS
 10
42.7692497558
 20
118.9489795918
 11
42.7692497558
 21
115.9489795918
  0
LINE
  5
252
100
AcDbEntity
  8
0
100
AcDbLine
 62
7
  6
CONTINUOUS
 10
22.0443325382
 20
59.9489795918
 11
22.2943325382
 21
59.9489795918
  0
LINE
  5
253
100
AcDbEntity
  8
0
100
AcDbLine
 62
7
  6
CONTINUOUS
 10
22.3030600707
 20
61.1489795918
 11
22.0443325382
 21
61.1489795918
  0
LINE
  5
254
100
AcDbEntity
  8
0
100
AcDbLine
 62
7
  6
CONTINUOUS
 10
44.2194153206
 20
115.9489795918
 11
44.2194153206
 21
118.9489795918
  0
LINE
  5
255
100
AcDbEntity
  8
0
100
AcDbLine
 62
7
  6
CONTINUOUS
 10
47.4943325382
 20
127.9489795918
 11
47.4943325382
 21
129.9489795918
  0
LINE
  5
256
100
AcDbEntity
  8
0
100
AcDbLine
 62
7
  6
CONTINUOUS
 10
25.5584711612
 20
65.7542812372
 11
26.8943325382
 21
65.7542812372
  0
LINE
  5
257
100
AcDbEntity
  8
0
100
AcDbLine
 62
7
  6
CONTINUOUS
 10
84.0943325382
 20
65.7542812372
 11
85.4301939152
 21
65.7542812372
  0
LINE
  5
258
100
AcDbEntity
  8
0
100
AcDbLine
 62
7
  6
CONTINUOUS
 10
50.2443325382
 20
121.4489795918
 11
50.2443325382
 21
127.9489795918
  0
LINE
  5
259
100
AcDbEntity
  8
0
100
AcDbLine
 62
7
  6
CONTINUOUS
 10
50.9943325382
 20
118.9489795918
 11
50.9943325382
 21
121.4489795918
  0
LINE
  5
25A
100
AcDbEntity
  8
0
100
AcDbLine
 62
7
  6
CONTINUOUS
 10
51.7692497558
 20
118.9489795918
 11
51.7692497558
 21
115.9489795918
  0
LINE
  5
25B
100
AcDbEntity
  8
0
100
AcDbLine
 62
7
  6
CONTINUOUS
 10
52.4943325382
 20
115.9489795918
 11
52.4943325382
 21
118.9489795918
  0
LINE
  5
25C
100
AcDbEntity
  8
0
100
AcDbLine
 62
7
  6
CONTINUOUS
 10
26.8943325382
 20
66.2267656666
 11
26.1724083825
 21
65.9947066983
  0
LINE
  5
25D
100
AcDbEntity
  8
0
100
AcDbLine
 62
7
  6
CONTINUOUS
 10
22.0443325382
 20
68.8989795918
 11
22.3030600707
 21
68.8989795918
  0
LINE
  5
25E
100
AcDbEntity
  8
0
100
AcDbLine
 62
7
  6
CONTINUOUS
 10
18.7943325382
 20
69.4108113493
 11
20.2943325382
 21
69.4108113493
  0
LINE
  5
25F
100
AcDbEntity
  8
0
100
AcDbLine
 62
7
  6
CONTINUOUS
 10
22.0443325382
 20
70.0489795918
 11
20.2943325382
 21
70.0489795918
  0
LINE
  5
260
100
AcDbEntity
  8
0
100
AcDbLine
 62
7
  6
CONTINUOUS
 10
22.2943325382
 20
70.0989795918
 11
22.0443325382
 21
70.0989795918
  0
LINE
  5
261
100
AcDbEntity
  8
0
100
AcDbLine
 62
7
  6
CONTINUOUS
 10
18.9064328806
 20
70.5992854334
 11
22.2943325382
 21
70.5992854334
  0
LINE
  5
262
100
AcDbEntity
  8
0
100
AcDbLine
 62
7
  6
CONTINUOUS
 10
19.1943325382
 20
72.1439795918
 11
22.3843544714
 21
72.1439795918
  0
LINE
  5
263
100
AcDbEntity
  8
0
100
AcDbLine
 62
7
  6
CONTINUOUS
 10
54.0943325382
 20
118.4489795918
 11
54.0943325382
 21
120.0489795918
  0
LINE
  5
264
100
AcDbEntity
  8
0
100
AcDbLine
 62
7
  6
CONTINUOUS
 10
55.0943325382
 20
128.4489795918
 11
55.0943325382
 21
115.9489795918
  0
LINE
  5
265
100
AcDbEntity
  8
0
100
AcDbLine
 62
7
  6
CONTINUOUS
 10
56.5943325382
 20
128.4489795918
 11
56.5943325382
 21
118.4489795918
  0
LINE
  5
266
100
AcDbEntity
  8
0
100
AcDbLine
 62
7
  6
CONTINUOUS
 10
84.816256694
 20
65.9947066983
 11
84.0943325382
 21
66.2267656666
  0
LINE
  5
267
100
AcDbEntity
  8
0
100
AcDbLine
 62
7
  6
CONTINUOUS
 10
58.4943325382
 20
118.9489795918
 11
58.4943325382
 21
115.9489795918
  0
LINE
  5
268
100
AcDbEntity
  8
0
100
AcDbLine
 62
7
  6
CONTINUOUS
 10
59.2194153206
 20
115.9489795918
 11
59.2194153206
 21
118.9489795918
  0
LINE
  5
269
100
AcDbEntity
  8
0
100
AcDbLine
 62
7
  6
CONTINUOUS
 10
59.9943325382
 20
118.9489795918
 11
59.9943325382
 21
121.9489795918
  0
LINE
  5
26A
100
AcDbEntity
  8
0
100
AcDbLine
 62
7
  6
CONTINUOUS
 10
61.4943325382
 20
121.9489795918
 11
61.4943325382
 21
131.9489795918
  0
LINE
  5
26B
100
AcDbEntity
  8
0
100
AcDbLine
 62
7
  6
CONTINUOUS
 10
62.2443325382
 20
131.9489795918
 11
62.2443325382
 21
132.9489795918
  0
LINE
  5
26C
100
AcDbEntity
  8
0
100
AcDbLine
 62
7
  6
CONTINUOUS
 10
18.7943325382
 20
81.0489795918
 11
15.5943325382
 21
81.0489795918
  0
LINE
  5
26D
100
AcDbEntity
  8
0
100
AcDbLine
 62
7
  6
CONTINUOUS
 10
84.0943325382
 20
82.3489795918
 11
86.0943325382
 21
82.3489795918
  0
LINE
  5
26E
100
AcDbEntity
  8
0
100
AcDbLine
 62
7
  6
CONTINUOUS
 10
66.7692497558
 20
118.9489795918
 11
66.7692497558
 21
115.9489795918
  0
LINE
  5
26F
100
AcDbEntity
  8
0
100
AcDbLine
 62
7
  6
CONTINUOUS
 10
89.5943325382
 20
92.1989795918
 11
86.0943325382
 21
91.5818351594
  0
LINE
  5
270
100
AcDbEntity
  8
0
100
AcDbLine
 62
7
  6
CONTINUOUS
 10
26.8943325382
 20
83.1439795918
 11
19.1943325382
 21
83.1439795918
  0
LINE
  5
271
100
AcDbEntity
  8
0
100
AcDbLine
 62
7
  6
CONTINUOUS
 10
86.0943325382
 20
87.1489795918
 11
84.0943325382
 21
87.1489795918
  0
LINE
  5
272
100
AcDbEntity
  8
0
100
AcDbLine
 62
7
  6
CONTINUOUS
 10
68.2194153206
 20
115.9489795918
 11
68.2194153206
 21
118.9489795918
  0
LINE
  5
273
100
AcDbEntity
  8
0
100
AcDbLine
 62
7
  6
CONTINUOUS
 10
20.2943325382
 20
90.0489795918
 11
19.1943325382
 21
90.0489795918
  0
LINE
  5
274
100
AcDbEntity
  8
0
100
AcDbLine
 62
7
  6
CONTINUOUS
 10
72.7443325382
 20
131.9489795918
 11
72.7443325382
 21
132.9489795918
  0
LINE
  5
275
100
AcDbEntity
  8
0
100
AcDbLine
 62
7
  6
CONTINUOUS
 10
73.4943325382
 20
121.9489795918
 11
73.4943325382
 21
131.9489795918
  0
LINE
  5
276
100
AcDbEntity
  8
0
100
AcDbLine
 62
7
  6
CONTINUOUS
 10
74.9943325382
 20
118.9489795918
 11
74.9943325382
 21
121.9489795918
  0
LINE
  5
277
100
AcDbEntity
  8
0
100
AcDbLine
 62
7
  6
CONTINUOUS
 10
75.7692497558
 20
118.9489795918
 11
75.7692497558
 21
115.9489795918
  0
LINE
  5
278
100
AcDbEntity
  8
0
100
AcDbLine
 62
7
  6
CONTINUOUS
 10
76.4943325382
 20
115.9489795918
 11
76.4943325382
 21
118.9489795918
  0
LINE
  5
279
100
AcDbEntity
  8
0
100
AcDbLine
 62
7
  6
CONTINUOUS
 10
20.2943325382
 20
92.0489795918
 11
26.8943325382
 21
92.0489795918
  0
LINE
  5
27A
100
AcDbEntity
  8
0
100
AcDbLine
 62
7
  6
CONTINUOUS
 10
87.5943325382
 20
92.9489795918
 11
86.0943325382
 21
92.9489795918
  0
LINE
  5
27B
100
AcDbEntity
  8
0
100
AcDbLine
 62
7
  6
CONTINUOUS
 10
89.5943325382
 20
93.4489795918
 11
87.5943325382
 21
93.4489795918
  0
LINE
  5
27C
100
AcDbEntity
  8
0
100
AcDbLine
 62
7
  6
CONTINUOUS
 10
78.0943325382
 20
118.4489795918
 11
78.0943325382
 21
120.0489795918
  0
LINE
  5
27D
100
AcDbEntity
  8
0
100
AcDbLine
 62
7
  6
CONTINUOUS
 10
78.1600259689
 20
118.4489795918
 11
78.1600259689
 21
115.9489795918
  0
LINE
  5
27E
100
AcDbEntity
  8
0
100
AcDbLine
 62
7
  6
CONTINUOUS
 10
79.0943325382
 20
115.9489795918
 11
79.0943325382
 21
118.4489795918
  0
LINE
  5
27F
100
AcDbEntity
  8
0
100
AcDbLine
 62
7
  6
CONTINUOUS
 10
89.5943325382
 20
100.4489795918
 11
87.5943325382
 21
100.4489795918
  0
LINE
  5
280
100
AcDbEntity
  8
0
100
AcDbLine
 62
7
  6
CONTINUOUS
 10
87.5943325382
 20
100.9489795918
 11
86.0943325382
 21
100.9489795918
  0
LINE
  5
281
100
AcDbEntity
  8
0
100
AcDbLine
 62
7
  6
CONTINUOUS
 10
84.0943325382
 20
115.9489795918
 11
84.0943325382
 21
26.7489795918
  0
LINE
  5
282
100
AcDbEntity
  8
0
100
AcDbLine
 62
7
  6
CONTINUOUS
 10
86.0943325382
 20
112.4489795918
 11
86.0943325382
 21
82.3489795918
  0
LINE
  5
283
100
AcDbEntity
  8
0
100
AcDbLine
 62
7
  6
CONTINUOUS
 10
87.5943325382
 20
100.9489721452
 11
87.5943325382
 21
92.9489870385
  0
LINE
  5
284
100
AcDbEntity
  8
0
100
AcDbLine
 62
7
  6
CONTINUOUS
 10
88.0306737393
 20
63.1681023049
 11
88.0306737393
 21
63.0903078848
  0
LINE
  5
285
100
AcDbEntity
  8
0
100
AcDbLine
 62
7
  6
CONTINUOUS
 10
88.4943325382
 20
28.9489795918
 11
88.4943325382
 21
60.9489795918
  0
LINE
  5
286
100
AcDbEntity
  8
0
100
AcDbLine
 62
7
  6
CONTINUOUS
 10
88.6943325382
 20
29.3489795918
 11
88.6943325382
 21
39.6739795918
  0
LINE
  5
287
100
AcDbEntity
  8
0
100
AcDbLine
 62
7
  6
CONTINUOUS
 10
88.6943325382
 20
50.2239795918
 11
88.6943325382
 21
60.5489795918
  0
LINE
  5
288
100
AcDbEntity
  8
0
100
AcDbLine
 62
7
  6
CONTINUOUS
 10
88.9443325382
 20
50.2239795918
 11
88.9443325382
 21
39.6739795918
  0
LINE
  5
289
100
AcDbEntity
  8
0
100
AcDbLine
 62
7
  6
CONTINUOUS
 10
89.5943325382
 20
101.6989704577
 11
89.5943325382
 21
92.198988726
  0
LINE
  5
28A
100
AcDbEntity
  8
0
100
AcDbLine
 62
7
  6
CONTINUOUS
 10
84.0943325382
 20
109.9489795918
 11
26.8943325382
 21
109.9489795918
  0
LINE
  5
28B
100
AcDbEntity
  8
0
100
AcDbLine
 62
7
  6
CONTINUOUS
 10
89.5943325382
 20
101.6989795918
 11
86.0943325382
 21
102.3161240243
  0
LINE
  5
28C
100
AcDbEntity
  8
0
100
AcDbLine
 62
7
  6
CONTINUOUS
 10
76.5400596447
 20
15.6270554361
 11
77.9718438035
 21
20.0812662666
  0
LINE
  5
28D
100
AcDbEntity
  8
0
100
AcDbLine
 62
7
  6
CONTINUOUS
 10
86.0943325382
 20
112.4489795918
 11
84.0943325382
 21
112.4489795918
  0
LINE
  5
28E
100
AcDbEntity
  8
0
100
AcDbLine
 62
7
  6
CONTINUOUS
 10
77.186298217
 20
17.637472181
 11
78.2505987356
 21
20.263586384
  0
LINE
  5
28F
100
AcDbEntity
  8
0
100
AcDbLine
 62
7
  6
CONTINUOUS
 10
84.0943325382
 20
115.9489795918
 11
26.8943325382
 21
115.9489795918
  0
LINE
  5
290
100
AcDbEntity
  8
0
100
AcDbLine
 62
7
  6
CONTINUOUS
 10
52.4943325382
 20
118.4489795918
 11
58.4943325382
 21
118.4489795918
  0
LINE
  5
291
100
AcDbEntity
  8
0
100
AcDbLine
 62
7
  6
CONTINUOUS
 10
76.4943325382
 20
118.4489795918
 11
79.0943201164
 21
118.4489795918
  0
LINE
  5
292
100
AcDbEntity
  8
0
100
AcDbLine
 62
7
  6
CONTINUOUS
 10
34.4943325382
 20
118.9489795918
 11
52.4943325382
 21
118.9489795918
  0
LINE
  5
293
100
AcDbEntity
  8
0
100
AcDbLine
 62
7
  6
CONTINUOUS
 10
58.4943325382
 20
118.9489795918
 11
76.4943325382
 21
118.9489795918
  0
LINE
  5
294
100
AcDbEntity
  8
0
100
AcDbLine
 62
7
  6
CONTINUOUS
 10
30.0943325382
 20
119.4489795918
 11
35.9943325382
 21
119.4489795918
  0
LINE
  5
295
100
AcDbEntity
  8
0
100
AcDbLine
 62
7
  6
CONTINUOUS
 10
50.9943325382
 20
120.0489795918
 11
54.0943325382
 21
120.0489795918
  0
LINE
  5
296
100
AcDbEntity
  8
0
100
AcDbLine
 62
7
  6
CONTINUOUS
 10
74.9943325382
 20
120.0489795918
 11
78.0943325382
 21
120.0489795918
  0
LINE
  5
297
100
AcDbEntity
  8
0
100
AcDbLine
 62
7
  6
CONTINUOUS
 10
34.100583227
 20
120.5489820964
 11
34.0880818495
 21
120.5489820964
  0
LINE
  5
298
100
AcDbEntity
  8
0
100
AcDbLine
 62
7
  6
CONTINUOUS
 10
35.9945325958
 20
121.4489795918
 11
37.9735371661
 21
121.4489795918
  0
LINE
  5
299
100
AcDbEntity
  8
0
100
AcDbLine
 62
7
  6
CONTINUOUS
 10
39.6106077205
 20
121.4489795918
 11
50.9941324806
 21
121.4489795918
  0
LINE
  5
29A
100
AcDbEntity
  8
0
100
AcDbLine
 62
7
  6
CONTINUOUS
 10
59.9943469532
 20
121.9489795918
 11
74.9943181232
 21
121.9489795918
  0
LINE
  5
29B
100
AcDbEntity
  8
0
100
AcDbLine
 62
7
  6
CONTINUOUS
 10
80.179725746
 20
22.1927133944
 11
82.805839949
 21
23.257013913
  0
LINE
  5
29C
100
AcDbEntity
  8
0
100
AcDbLine
 62
7
  6
CONTINUOUS
 10
80.3620458634
 20
22.4714683265
 11
84.816256694
 21
23.9032524854
  0
LINE
  5
29D
100
AcDbEntity
  8
0
100
AcDbLine
 62
7
  6
CONTINUOUS
 10
36.7443578516
 20
127.9489795918
 11
50.2443072248
 21
127.9489795918
  0
LINE
  5
29E
100
AcDbEntity
  8
0
100
AcDbLine
 62
7
  6
CONTINUOUS
 10
55.0943325382
 20
128.4489795918
 11
61.4943325382
 21
128.4489795918
  0
LINE
  5
29F
100
AcDbEntity
  8
0
100
AcDbLine
 62
7
  6
CONTINUOUS
 10
39.4943446661
 20
129.9489795918
 11
47.4943204103
 21
129.9489795918
  0
LINE
  5
2A0
100
AcDbEntity
  8
0
100
AcDbLine
 62
7
  6
CONTINUOUS
 10
61.4945649725
 20
131.9489795918
 11
73.4941001039
 21
131.9489795918
  0
LINE
  5
2A1
100
AcDbEntity
  8
0
100
AcDbLine
 62
7
  6
CONTINUOUS
 10
62.2445417289
 20
132.9489795918
 11
72.7441233475
 21
132.9489795918
  0
ARC
  5
2A2
100
AcDbEntity
  8
0
100
AcDbCircle
 62
7
  6
CONTINUOUS
 10
29.0943325382
 20
18.5489795918
 40
6.8
100
AcDbArc
 50
180.0
 51
270.0
  0
ARC
  5
2A3
100
AcDbEntity
  8
0
100
AcDbCircle
 62
7
  6
CONTINUOUS
 10
27.7943325382
 20
60.5489795918
 40
5.5
100
AcDbArc
 50
151.5622202212
 51
180.0
  0
ARC
  5
2A4
100
AcDbEntity
  8
0
100
AcDbCircle
 62
7
  6
CONTINUOUS
 10
39.8943325382
 20
17.2489795918
 40
5.5
100
AcDbArc
 50
241.5622202212
 51
270.0
  0
ARC
  5
2A5
100
AcDbEntity
  8
0
100
AcDbCircle
 62
7
  6
CONTINUOUS
 10
27.7943325382
 20
29.3489795918
 40
5.5
100
AcDbArc
 50
180.0
 51
208.4377797788
  0
ARC
  5
2A6
100
AcDbEntity
  8
0
100
AcDbCircle
 62
7
  6
CONTINUOUS
 10
27.7943325382
 20
28.9489795918
 40
5.3
100
AcDbArc
 50
180.0
 51
252.180253767
  0
ARC
  5
2A7
100
AcDbEntity
  8
0
100
AcDbCircle
 62
7
  6
CONTINUOUS
 10
27.7943325382
 20
60.9489795918
 40
5.3
100
AcDbArc
 50
107.819746233
 51
180.0
  0
ARC
  5
2A8
100
AcDbEntity
  8
0
100
AcDbCircle
 62
7
  6
CONTINUOUS
 10
39.4943325382
 20
17.2489795918
 40
5.3
100
AcDbArc
 50
197.819746233
 51
270.0
  0
CIRCLE
  5
2A9
100
AcDbEntity
  8
0
100
AcDbCircle
 62
7
  6
CONTINUOUS
 10
28.1943325382
 20
17.6489795918
 40
4.0
  0
ARC
  5
2AA
100
AcDbEntity
  8
0
100
AcDbCircle
 62
7
  6
CONTINUOUS
 10
29.4943325382
 20
18.9489795918
 40
3.7
100
AcDbArc
 50
17.819746233
 51
72.180253767
  0
ARC
  5
2AB
100
AcDbEntity
  8
0
100
AcDbCircle
 62
7
  6
CONTINUOUS
 10
29.4943325382
 20
18.9489795918
 40
3.5
100
AcDbArc
 50
22.0615213239
 51
67.9384786761
  0
ARC
  5
2AC
100
AcDbEntity
  8
0
100
AcDbCircle
 62
7
  6
CONTINUOUS
 10
29.8943325382
 20
26.7489795918
 40
3.0
100
AcDbArc
 50
180.0
 51
270.0
  0
ARC
  5
2AD
100
AcDbEntity
  8
0
100
AcDbCircle
 62
7
  6
CONTINUOUS
 10
28.9068325382
 20
18.8830657922
 40
0.55
100
AcDbArc
 50
336.4692472728
 51
143.5307589364
  0
ARC
  5
2AE
100
AcDbEntity
  8
0
100
AcDbCircle
 62
7
  6
CONTINUOUS
 10
27.4818325382
 20
18.8830657922
 40
0.55
100
AcDbArc
 50
36.4692459724
 51
203.5307575372
  0
ARC
  5
2AF
100
AcDbEntity
  8
0
100
AcDbCircle
 62
7
  6
CONTINUOUS
 10
26.7693325382
 20
17.6489795918
 40
0.55
100
AcDbArc
 50
96.469246212
 51
263.5307556895
  0
ARC
  5
2B0
100
AcDbEntity
  8
0
100
AcDbCircle
 62
7
  6
CONTINUOUS
 10
27.4818325382
 20
16.4148933914
 40
0.55
100
AcDbArc
 50
156.4692360335
 51
323.5307545287
  0
ARC
  5
2B1
100
AcDbEntity
  8
0
100
AcDbCircle
 62
7
  6
CONTINUOUS
 10
28.9068325382
 20
16.4148933914
 40
0.55
100
AcDbArc
 50
216.4692410636
 51
23.5307548111
  0
ARC
  5
2B2
100
AcDbEntity
  8
0
100
AcDbCircle
 62
7
  6
CONTINUOUS
 10
29.6193325382
 20
17.6489795918
 40
0.55
100
AcDbArc
 50
276.4692487078
 51
83.5307589364
  0
ARC
  5
2B3
100
AcDbEntity
  8
0
100
AcDbCircle
 62
7
  6
CONTINUOUS
 10
29.7191579843
 20
18.5293379736
 40
0.336
100
AcDbArc
 50
156.4692308996
 51
263.5307589364
  0
ARC
  5
2B4
100
AcDbEntity
  8
0
100
AcDbCircle
 62
7
  6
CONTINUOUS
 10
28.1943325382
 20
19.4096963553
 40
0.336
100
AcDbArc
 50
216.4692330282
 51
323.5307589364
  0
ARC
  5
2B5
100
AcDbEntity
  8
0
100
AcDbCircle
 62
7
  6
CONTINUOUS
 10
26.6695070921
 20
18.5293379736
 40
0.336
100
AcDbArc
 50
276.469232636
 51
23.5307612268
  0
ARC
  5
2B6
100
AcDbEntity
  8
0
100
AcDbCircle
 62
7
  6
CONTINUOUS
 10
26.6695070921
 20
16.7686212101
 40
0.336
100
AcDbArc
 50
336.4692492973
 51
83.5307642513
  0
ARC
  5
2B7
100
AcDbEntity
  8
0
100
AcDbCircle
 62
7
  6
CONTINUOUS
 10
28.1943325382
 20
15.8882628283
 40
0.336
100
AcDbArc
 50
36.4692410636
 51
143.5307661515
  0
ARC
  5
2B8
100
AcDbEntity
  8
0
100
AcDbCircle
 62
7
  6
CONTINUOUS
 10
29.7191579843
 20
16.7686212101
 40
0.336
100
AcDbArc
 50
96.4692285506
 51
203.5307656892
  0
ARC
  5
2B9
100
AcDbEntity
  8
0
100
AcDbCircle
 62
7
  6
CONTINUOUS
 10
34.100583227
 20
112.7489820964
 40
7.8
100
AcDbArc
 50
75.891246488
 51
90.0
  0
ARC
  5
2BA
100
AcDbEntity
  8
0
100
AcDbCircle
 62
7
  6
CONTINUOUS
 10
34.0880818495
 20
112.7489820964
 40
7.8
100
AcDbArc
 50
90.0
 51
120.7984176416
  0
ARC
  5
2BB
100
AcDbEntity
  8
0
100
AcDbCircle
 62
7
  6
CONTINUOUS
 10
29.0943325382
 20
71.3489795918
 40
6.8
100
AcDbArc
 50
112.5716695495
 51
180.0
  0
ARC
  5
2BC
100
AcDbEntity
  8
0
100
AcDbCircle
 62
7
  6
CONTINUOUS
 10
51.0477126124
 20
114.6491548699
 40
6.2
100
AcDbArc
 50
60.5679963153
 51
89.5691693284
  0
ARC
  5
2BD
100
AcDbEntity
  8
0
100
AcDbCircle
 62
7
  6
CONTINUOUS
 10
51.1409524641
 20
114.6491548699
 40
6.2
100
AcDbArc
 50
90.4308306716
 51
91.3599723438
  0
ARC
  5
2BE
100
AcDbEntity
  8
0
100
AcDbCircle
 62
7
  6
CONTINUOUS
 10
28.1943325382
 20
72.2489795918
 40
4.0
100
AcDbArc
 50
109.5383352703
 51
246.8395453964
  0
ARC
  5
2BF
100
AcDbEntity
  8
0
100
AcDbCircle
 62
7
  6
CONTINUOUS
 10
26.7693325382
 20
72.2489795918
 40
0.55
100
AcDbArc
 50
96.4692410636
 51
263.5307583876
  0
ARC
  5
2C0
100
AcDbEntity
  8
0
100
AcDbCircle
 62
7
  6
CONTINUOUS
 10
26.6695070921
 20
73.1293379736
 40
0.336
100
AcDbArc
 50
276.4692410636
 51
316.3396280234
  0
ARC
  5
2C1
100
AcDbEntity
  8
0
100
AcDbCircle
 62
7
  6
CONTINUOUS
 10
26.6695070921
 20
71.3686212101
 40
0.336
100
AcDbArc
 50
44.100615472
 51
83.5307598348
  0
ARC
  5
2C2
100
AcDbEntity
  8
0
100
AcDbCircle
 62
7
  6
CONTINUOUS
 10
71.0943325382
 20
17.2489795918
 40
5.5
100
AcDbArc
 50
270.0
 51
298.4377797788
  0
ARC
  5
2C3
100
AcDbEntity
  8
0
100
AcDbCircle
 62
7
  6
CONTINUOUS
 10
83.1943325382
 20
60.5489795918
 40
5.5
100
AcDbArc
 50
0.0
 51
28.4377797788
  0
ARC
  5
2C4
100
AcDbEntity
  8
0
100
AcDbCircle
 62
7
  6
CONTINUOUS
 10
83.1943325382
 20
29.3489795918
 40
5.5
100
AcDbArc
 50
331.5622202212
 51
360.0
  0
ARC
  5
2C5
100
AcDbEntity
  8
0
100
AcDbCircle
 62
7
  6
CONTINUOUS
 10
83.1943325382
 20
28.9489795918
 40
5.3
100
AcDbArc
 50
287.819746233
 51
360.0
  0
ARC
  5
2C6
100
AcDbEntity
  8
0
100
AcDbCircle
 62
7
  6
CONTINUOUS
 10
83.1943325382
 20
60.9489795918
 40
5.3
100
AcDbArc
 50
0.0
 51
72.180253767
  0
ARC
  5
2C7
100
AcDbEntity
  8
0
100
AcDbCircle
 62
7
  6
CONTINUOUS
 10
71.4943325382
 20
17.2489795918
 40
5.3
100
AcDbArc
 50
270.0
 51
342.180253767
  0
ARC
  5
2C8
100
AcDbEntity
  8
0
100
AcDbCircle
 62
7
  6
CONTINUOUS
 10
81.4943325382
 20
18.9489795918
 40
3.7
100
AcDbArc
 50
107.819746233
 51
162.180253767
  0
ARC
  5
2C9
100
AcDbEntity
  8
0
100
AcDbCircle
 62
7
  6
CONTINUOUS
 10
81.4943325382
 20
18.9489795918
 40
3.5
100
AcDbArc
 50
112.0615213239
 51
157.9384786761
  0
ARC
  5
2CA
100
AcDbEntity
  8
0
100
AcDbCircle
 62
7
  6
CONTINUOUS
 10
81.0943325382
 20
26.7489795918
 40
3.0
100
AcDbArc
 50
270.3121820681
 51
360.0
  0
ARC
  5
2CB
100
AcDbEntity
  8
0
100
AcDbCircle
 62
7
  6
CONTINUOUS
 10
75.0477126124
 20
114.6491548699
 40
6.2
100
AcDbArc
 50
60.5679963153
 51
89.5691693284
  0
ARC
  5
2CC
100
AcDbEntity
  8
0
100
AcDbCircle
 62
7
  6
CONTINUOUS
 10
75.1409524641
 20
114.6491548699
 40
6.2
100
AcDbArc
 50
90.4308306716
 51
91.3599723438
  0
ARC
  5
2CD
100
AcDbEntity
  8
0
100
AcDbCircle
 62
7
  6
CONTINUOUS
 10
86.278623249
 20
103.7516006599
 40
3.2590658818
100
AcDbArc
 50
293.9226261184
 51
295.069961401
  0
ARC
  5
2CE
100
AcDbEntity
  8
0
100
AcDbCircle
 62
7
  6
CONTINUOUS
 10
86.2803645297
 20
90.1500796605
 40
3.2549578371
100
AcDbArc
 50
64.9162769519
 51
66.0733789241
  0
ARC
  5
2CF
100
AcDbEntity
  8
0
100
AcDbCircle
 62
7
  6
CONTINUOUS
 10
63.0943325382
 20
123.4489795918
 40
2.0
100
AcDbArc
 50
144.593644335
 51
215.2903777237
  0
SPLINE
  5
2D0
100
AcDbEntity
  8
0
100
AcDbSpline
 62
7
  6
CONTINUOUS
 70
0
 71
3
 72
27
 73
23
 74
0
 42
0.0000001
 43
0.0000001
 44
0.0000000001
 40
0.0
 40
0.0
 40
0.0
 40
0.0
 40
0.1510153523
 40
0.2254528521
 40
0.2989355285
 40
0.3711936084
 40
0.4418339217
 40
0.510271709
 40
0.5756092189
 40
0.6364603705
 40
0.6646335265
 40
0.6909443786
 40
0.7152180946
 40
0.7375330002
 40
0.7584450889
 40
0.7790322101
 40
0.8005183669
 40
0.823747033
 40
0.8490198157
 40
0.876265719
 40
0.9356619925
 40
1.0
 40
1.0
 40
1.0
 40
1.0
 10
86.0962923707
 20
91.6438468228
 30
0.0
 10
86.2486789854
 20
91.6808203321
 30
0.0
 10
86.4755908226
 20
91.738545844
 30
0.0
 10
86.7745046866
 20
91.822262273
 30
0.0
 10
86.9934252517
 20
91.8882228873
 30
0.0
 10
87.2069344361
 20
91.9582828677
 30
0.0
 10
87.4132169647
 20
92.0332592833
 30
0.0
 10
87.6095584566
 20
92.1141590943
 30
0.0
 10
87.791591423
 20
92.2022188749
 30
0.0
 10
87.9294976644
 20
92.2847739438
 30
0.0
 10
88.0245991813
 20
92.3578082013
 30
0.0
 10
88.0841304071
 20
92.4141578511
 30
0.0
 10
88.1315065542
 20
92.4736214204
 30
0.0
 10
88.1641419038
 20
92.5363058951
 30
0.0
 10
88.1791002368
 20
92.6017616234
 30
0.0
 10
88.1742344624
 20
92.6679530975
 30
0.0
 10
88.1503287871
 20
92.7321996235
 30
0.0
 10
88.1101998874
 20
92.7933205393
 30
0.0
 10
88.056635335
 20
92.8512643704
 30
0.0
 10
87.9678828822
 20
92.9265875878
 30
0.0
 10
87.8354158145
 20
93.011491127
 30
0.0
 10
87.7207770571
 20
93.0697240979
 30
0.0
 10
87.6602783398
 20
93.0980600535
 30
0.0
  0
SPLINE
  5
2D1
100
AcDbEntity
  8
0
100
AcDbSpline
 62
7
  6
CONTINUOUS
 70
0
 71
3
 72
27
 73
23
 74
0
 42
0.0000001
 43
0.0000001
 44
0.0000000001
 40
0.0
 40
0.0
 40
0.0
 40
0.0
 40
0.0643513498
 40
0.1237670463
 40
0.1510242957
 40
0.1763092724
 40
0.1995489813
 40
0.2210425787
 40
0.2416309705
 40
0.262537723
 40
0.2848435988
 40
0.309107528
 40
0.3354094567
 40
0.3635746317
 40
0.4244146392
 40
0.489745237
 40
0.5581782744
 40
0.6288152091
 40
0.7010708755
 40
0.7745518237
 40
0.8489874661
 40
1.0
 40
1.0
 40
1.0
 40
1.0
 10
87.6595696351
 20
100.7995678856
 30
0.0
 10
87.7201055435
 20
100.8279030342
 30
0.0
 10
87.8348253247
 20
100.8861339252
 30
0.0
 10
87.9674051987
 20
100.9710284557
 30
0.0
 10
88.056266399
 20
101.0463439989
 30
0.0
 10
88.1099200918
 20
101.1042846434
 30
0.0
 10
88.1501459429
 20
101.1654041112
 30
0.0
 10
88.1741558582
 20
101.2296535168
 30
0.0
 10
88.1791282981
 20
101.2958600714
 30
0.0
 10
88.1642597729
 20
101.3613441334
 30
0.0
 10
88.1316917221
 20
101.4240604007
 30
0.0
 10
88.0843622856
 20
101.4835540339
 30
0.0
 10
88.0248606323
 20
101.5399301103
 30
0.0
 10
87.9297798159
 20
101.6130014645
 30
0.0
 10
87.7918708866
 20
101.6955927397
 30
0.0
 10
87.6098154009
 20
101.7836871266
 30
0.0
 10
87.4134358209
 20
101.8646164683
 30
0.0
 10
87.2071060763
 20
101.9396183766
 30
0.0
 10
86.9935433306
 20
102.0097003812
 30
0.0
 10
86.7745650838
 20
102.0756790935
 30
0.0
 10
86.4755709816
 20
102.1594200097
 30
0.0
 10
86.2485973094
 20
102.2171598446
 30
0.0
 10
86.0961688036
 20
102.2541422173
 30
0.0
  0
SPLINE
  5
2D2
100
AcDbEntity
  8
0
100
AcDbSpline
 62
7
  6
CONTINUOUS
 70
0
 71
3
 72
8
 73
4
 74
0
 42
0.0000001
 43
0.0000001
 44
0.0000000001
 40
0.0
 40
0.0
 40
0.0
 40
0.0
 40
1.0
 40
1.0
 40
1.0
 40
1.0
 10
86.52590692
 20
65.0709466152
 30
0.0
 10
86.5250577263
 20
64.3302912536
 30
0.0
 10
86.524634878
 20
63.5896352824
 30
0.0
 10
86.5246348781
 20
62.848979434
 30
0.0
  0
SPLINE
  5
2D3
100
AcDbEntity
  8
0
100
AcDbSpline
 62
7
  6
CONTINUOUS
 70
0
 71
3
 72
9
 73
5
 74
0
 42
0.0000001
 43
0.0000001
 44
0.0000000001
 40
0.0
 40
0.0
 40
0.0
 40
0.0
 40
0.5011943085
 40
1.0
 40
1.0
 40
1.0
 40
1.0
 10
86.5246348781
 20
62.848979434
 30
0.0
 10
86.5246348786
 20
56.5481905521
 30
0.0
 10
86.5865821235
 20
43.9765659613
 30
0.0
 10
86.7643704773
 20
31.4061181717
 30
0.0
 10
86.8758866756
 20
25.1363495609
 30
0.0
  0
SPLINE
  5
2D4
100
AcDbEntity
  8
0
100
AcDbSpline
 62
7
  6
CONTINUOUS
 70
0
 71
3
 72
8
 73
4
 74
0
 42
0.0000001
 43
0.0000001
 44
0.0000000001
 40
0.0
 40
0.0
 40
0.0
 40
0.0
 40
1.0
 40
1.0
 40
1.0
 40
1.0
 10
24.4640318264
 20
62.8489795804
 30
0.0
 10
24.4640318264
 20
63.5896353803
 30
0.0
 10
24.46360735
 20
64.3302913021
 30
0.0
 10
24.4627581565
 20
65.0709466152
 30
0.0
  0
SPLINE
  5
2D5
100
AcDbEntity
  8
0
100
AcDbSpline
 62
7
  6
CONTINUOUS
 70
0
 71
3
 72
9
 73
5
 74
0
 42
0.0000001
 43
0.0000001
 44
0.0000000001
 40
0.0
 40
0.0
 40
0.0
 40
0.0
 40
0.4988065271
 40
1.0
 40
1.0
 40
1.0
 40
1.0
 10
24.1128026264
 20
25.1363242886
 30
0.0
 10
24.2243180162
 20
31.4061075365
 30
0.0
 10
24.4019951298
 20
43.9765649336
 30
0.0
 10
24.4640318264
 20
56.5481970686
 30
0.0
 10
24.4640318264
 20
62.8489795804
 30
0.0
  0
SPLINE
  5
2D6
100
AcDbEntity
  8
0
100
AcDbSpline
 62
7
  6
CONTINUOUS
 70
0
 71
3
 72
9
 73
5
 74
0
 42
0.0000001
 43
0.0000001
 44
0.0000000001
 40
0.0
 40
0.0
 40
0.0
 40
0.0
 40
0.2509341447
 40
1.0
 40
1.0
 40
1.0
 40
1.0
 10
18.7943325382
 20
55.9772149535
 30
0.0
 10
18.8116290525
 20
55.9397366476
 30
0.0
 10
18.8736113969
 20
55.7874237321
 30
0.0
 10
18.906029828
 20
55.6218895243
 30
0.0
 10
18.9064328806
 20
55.4986737503
 30
0.0
  0
SPLINE
  5
2D7
100
AcDbEntity
  8
0
100
AcDbSpline
 62
7
  6
CONTINUOUS
 70
0
 71
3
 72
9
 73
5
 74
0
 42
0.0000001
 43
0.0000001
 44
0.0000000001
 40
0.0
 40
0.0
 40
0.0
 40
0.0
 40
0.2468647075
 40
1.0
 40
1.0
 40
1.0
 40
1.0
 10
18.9064328806
 20
70.5992854334
 30
0.0
 10
18.90629999
 20
70.5586599295
 30
0.0
 10
18.8952929769
 20
70.3941641283
 30
0.0
 10
18.8462681527
 20
70.2332789767
 30
0.0
 10
18.7943325382
 20
70.1207442302
 30
0.0
  0
ELLIPSE
  5
2D8
100
AcDbEntity
  8
0
100
AcDbEllipse
 62
7
  6
CONTINUOUS
 10
88.5229196764
 20
49.0239795918
 30
0.0
 11
0.0
 21
1.2
 31
0.0
 40
0.0436609429
 41
-0.0
 42
0.585621703
  0
ELLIPSE
  5
2D9
100
AcDbEntity
  8
0
100
AcDbEllipse
 62
7
  6
CONTINUOUS
 10
88.5229196764
 20
40.8739795918
 30
0.0
 11
0.0
 21
1.2
 31
0.0
 40
0.0436609429
 41
-3.7272182804
 42
-3.1415926536
  0
ELLIPSE
  5
2DA
100
AcDbEntity
  8
0
100
AcDbEllipse
 62
7
  6
CONTINUOUS
 10
22.3161630097
 20
56.9489795918
 30
0.0
 11
-0.0
 21
0.5
 31
0.0
 40
0.0436609429
 41
-1.5707963268
 42
0.0
  0
ELLIPSE
  5
2DB
100
AcDbEntity
  8
0
100
AcDbEllipse
 62
7
  6
CONTINUOUS
 10
22.3161630097
 20
32.9489795918
 30
0.0
 11
0.0
 21
0.5
 31
0.0
 40
0.0436609429
 41
-3.1415926536
 42
-1.5707963268
  0
ENDSEC
  0
SECTION
  2
OBJECTS
  0
DICTIONARY
  5
C
100
AcDbDictionary
280
0
281
1
  3
ACAD_GROUP
350
D
  3
ACAD_MLINESTYLE
350
17
  3
ACAD_LAYOUT
350
1A
  3
ACAD_PLOTSETTINGS
350
19
  3
ACAD_PLOTSTYLENAME
350
E
  0
DICTIONARY
  5
D
102
{ACAD_REACTORS
330
C
102
}
100
AcDbDictionary
280
0
281
1
  0
ACDBDICTIONARYWDFLT
  5
E
102
{ACAD_REACTORS
330
C
102
}
100
AcDbDictionary
281
1
  3
Normal
350
F
100
AcDbDictionaryWithDefault
340
F
  0
DICTIONARY
  5
17
102
{ACAD_REACTORS
330
C
102
}
100
AcDbDictionary
280
0
281
1
  3
Standard
350
18
  0
DICTIONARY
  5
19
102
{ACAD_REACTORS
330
C
102
}
100
AcDbDictionary
281
1
  0
DICTIONARY
  5
1A
102
{ACAD_REACTORS
330
C
102
}
100
AcDbDictionary
281
1
  3
Model
350
2DC
  3
Layout1
350
2DD
  0
ACDBPLACEHOLDER
  5
F
102
{ACAD_REACTORS
330
E
102
}
  0
MLINESTYLE
  5
18
102
{ACAD_REACTORS
330
17
102
}
100
AcDbMlineStyle
  2
STANDARD
 70
0
  3

 62
256
 51
90.0
 52
90.0
 71
2
 49
0.5
 62
256
  6
BYLAYER
 49
-0.5
 62
256
  6
BYLAYER
  0
LAYOUT
  5
2DC
102
{ACAD_REACTORS
330
1A
102
}
100
AcDbPlotSettings
  1

  2
none_device
  4

  6

 40
0.0
 41
0.0
 42
0.0
 43
0.0
 44
210.0
 45
297.0
 46
0.0
 47
0.0
 48
0.0
 49
0.0
140
0.0
141
0.0
142
1.0
143
1.0
 70
1024
 72
1
 73
0
 74
0
  7

 75
0
147
1.0
148
0.0
149
0.0
100
AcDbLayout
  1
Model
 70
0
 71
0
 10
0.0
 20
0.0
 11
210.0
 21
297.0
 12
0.0
 22
0.0
 32
0.0
 14
0.0
 24
0.0
 34
0.0
 15
0.0
 25
0.0
 35
0.0
146
0.0
 13
0.0
 23
0.0
 33
0.0
 16
1.0
 26
0.0
 36
0.0
 17
0.0
 27
1.0
 37
0.0
 76
0
330
210
345
0
346
0
  0
LAYOUT
  5
2DD
102
{ACAD_REACTORS
330
1A
102
}
100
AcDbPlotSettings
  1

  2
none_device
  4

  6

 40
0.0
 41
0.0
 42
0.0
 43
0.0
 44
210.0
 45
297.0
 46
0.0
 47
0.0
 48
0.0
 49
0.0
140
0.0
141
0.0
142
1.0
143
1.0
 70
0
 72
1
 73
0
 74
0
  7

 75
0
147
1.0
148
0.0
149
0.0
100
AcDbLayout
  1
Layout1
 70
0
 71
1
 10
0.0
 20
0.0
 11
210.0
 21
297.0
 12
0.0
 22
0.0
 32
0.0
 14
0.0
 24
0.0
 34
0.0
 15
0.0
 25
0.0
 35
0.0
146
0.0
 13
0.0
 23
0.0
 33
0.0
 16
1.0
 26
0.0
 36
0.0
 17
0.0
 27
1.0
 37
0.0
 76
0
330
211
345
0
346
0
  0
ENDSEC
  0
EOF
