999
DXF file: C:\Users\sesa63760\OneDrive - Schneider Electric\Documents\7-Dev\_Creo\CAD\MCADPP0000259_3D-CAD\drw0001_3.dxf
999
Pro/ENGINEER 2019471 by Parametric Technology Corporation
  0
SECTION
  2
HEADER
  9
$ACADVER
  1
AC1024
  9
$DWGCODEPAGE
  3
ANSI_1252
  9
$EXTMAX
 10
176.5895939703
 20
249.7481400438
 30
0.0
  9
$EXTMIN
 10
0.0
 20
0.0
 30
0.0
  9
$LIMMIN
 10
0.0
 20
0.0
  9
$LIMMAX
 10
176.5895939703
 20
249.7481400438
  9
$VIEWCTR
 10
88.2947969852
 20
124.8740700219
  9
$VIEWSIZE
 40
249.7481400438
  9
$CLAYER
  8
0
  9
$LTSCALE
 40
16.2798787584
  9
$CELTYPE
  6
BYLAYER
  9
$DIMSCALE
 40
1.0
  9
$DIMASZ
 40
2.1022570711
  9
$DIMEXO
 40
1.0
  9
$DIMDLI
 40
11.2479162331
  9
$DIMEXE
 40
1.0
  9
$DIMCEN
 40
2.6639801605
  9
$DIMLFAC
 40
1.0
  9
$DIMBLK
  1
_FILLED
  9
$DIMALT
 70
0
  9
$DIMALTF
 40
0.0393700787
  9
$DIMTXT
 40
2.9431598995
  9
$DIMTOL
 70
1
  9
$DIMLIM
 70
0
  9
$DIMTFAC
 40
1.0
  9
$DIMTP
 40
0.01
  9
$DIMTM
 40
0.01
  9
$DIMGAP
 40
0.625
  9
$DIMDSEP
 70
46
  9
$AUNITS
 70
0
  9
$PDMODE
 70
3
  9
$PDSIZE
 40
0.3125
  9
$HANDSEED
  5
3A9
  9
$TILEMODE
 70
1
  9
$MEASUREMENT
 70
1
  9
$INSUNITS
 70
4
  0
ENDSEC
  0
SECTION
  2
CLASSES
  0
CLASS
  1
ACDBDICTIONARYWDFLT
  2
AcDbDictionaryWithDefault
  3
AutoCAD 2000
 90
0
 91
1
280
0
281
0
  0
CLASS
  1
ACDBPLACEHOLDER
  2
AcDbPlaceHolder
  3
AutoCAD 2000
 90
0
 91
1
280
0
281
0
  0
CLASS
  1
LAYOUT
  2
AcDbLayout
  3
AutoCAD 2000
 90
0
 91
0
280
0
281
0
  0
ENDSEC
  0
SECTION
  2
TABLES
  0
TABLE
  2
VPORT
  5
8
100
AcDbSymbolTable
 70
2
  0
VPORT
  5
1F4
100
AcDbSymbolTableRecord
100
AcDbViewportTableRecord
  2
*ACTIVE
 70
0
 10
0.0
 20
0.0
 11
1.0
 21
1.0
 12
88.2947969852
 22
124.8740700219
 13
0.0
 23
0.0
 14
1.0
 24
1.0
 15
0.0
 25
0.0
 16
0.0
 26
0.0
 36
1.0
 17
0.0
 27
0.0
 37
0.0
 40
249.7481400438
 41
0.7070707071
 42
50.0
 43
0.0
 44
0.0
 50
0.0
 51
0.0
 71
0
 72
100
 73
1
 74
1
 75
0
 76
0
 77
0
 78
0
  0
ENDTAB
  0
TABLE
  2
LTYPE
  5
5
100
AcDbSymbolTable
 70
6
  0
LTYPE
  5
14
100
AcDbSymbolTableRecord
100
AcDbLinetypeTableRecord
  2
BYBLOCK
 70
0
  3

 72
65
 73
0
 40
0.0
  0
LTYPE
  5
15
100
AcDbSymbolTableRecord
100
AcDbLinetypeTableRecord
  2
BYLAYER
 70
0
  3

 72
65
 73
0
 40
0.0
  0
LTYPE
  5
16
100
AcDbSymbolTableRecord
100
AcDbLinetypeTableRecord
  2
CONTINUOUS
 70
64
  3
Solid line
 72
65
 73
0
 40
0.0
  0
LTYPE
  5
1F5
100
AcDbSymbolTableRecord
100
AcDbLinetypeTableRecord
  2
CENTER
 70
64
  3
____ _ ____ _ ____ _ ____ _ ____ _ ____ _ ____
 72
65
 73
4
 40
0.6
 49
0.375
 74
0
 49
-0.075
 74
0
 49
0.075
 74
0
 49
-0.075
 74
0
  0
LTYPE
  5
1F6
100
AcDbSymbolTableRecord
100
AcDbLinetypeTableRecord
  2
HIDDEN
 70
64
  3
- - - - - - - - - - - - - - - - - - - -
 72
65
 73
2
 40
0.2
 49
0.1
 74
0
 49
-0.1
 74
0
  0
LTYPE
  5
1F7
100
AcDbSymbolTableRecord
100
AcDbLinetypeTableRecord
  2
PHANTOM
 70
64
  3
_____ _ _ _____ _ _ _____ _ _ _____
 72
65
 73
6
 40
0.8
 49
0.45
 74
0
 49
-0.05
 74
0
 49
0.1
 74
0
 49
-0.05
 74
0
 49
0.1
 74
0
 49
-0.05
 74
0
  0
LTYPE
  5
1F8
100
AcDbSymbolTableRecord
100
AcDbLinetypeTableRecord
  2
DOT
 70
64
  3
. . . . . . . . . . . . . . . . . . . .
 72
65
 73
2
 40
0.2
 49
0.1
 74
0
 49
-0.1
 74
0
  0
LTYPE
  5
1F9
100
AcDbSymbolTableRecord
100
AcDbLinetypeTableRecord
  2
DASHED
 70
64
  3
- - - - - - - - - - - - - - - - - - - -
 72
65
 73
2
 40
0.2
 49
0.1
 74
0
 49
-0.1
 74
0
  0
ENDTAB
  0
TABLE
  2
LAYER
  5
2
100
AcDbSymbolTable
 70
36
  0
LAYER
  5
10
100
AcDbSymbolTableRecord
100
AcDbLayerTableRecord
  2
0
 70
0
 62
7
  6
CONTINUOUS
370
-3
390
F
  0
LAYER
  5
1FA
100
AcDbSymbolTableRecord
100
AcDbLayerTableRecord
  2
DEFAULT_1
 70
0
 62
7
  6
CENTER
370
-3
390
F
  0
LAYER
  5
1FB
100
AcDbSymbolTableRecord
100
AcDbLayerTableRecord
  2
DEFAULT_2
 70
0
 62
8
  6
HIDDEN
370
-3
390
F
  0
LAYER
  5
1FC
100
AcDbSymbolTableRecord
100
AcDbLayerTableRecord
  2
DEFAULT_3
 70
0
 62
7
  6
PHANTOM
370
-3
390
F
  0
LAYER
  5
1FD
100
AcDbSymbolTableRecord
100
AcDbLayerTableRecord
  2
00_COMPONENTS
 70
0
 62
7
  6
CONTINUOUS
370
-3
390
F
  0
LAYER
  5
1FE
100
AcDbSymbolTableRecord
100
AcDbLayerTableRecord
  2
01_1_DEFAULT_DATUMS
 70
0
 62
7
  6
CONTINUOUS
370
-3
390
F
  0
LAYER
  5
1FF
100
AcDbSymbolTableRecord
100
AcDbLayerTableRecord
  2
01_PLANES
 70
0
 62
7
  6
CONTINUOUS
370
-3
390
F
  0
LAYER
  5
200
100
AcDbSymbolTableRecord
100
AcDbLayerTableRecord
  2
02_COORD_SYS
 70
0
 62
7
  6
CONTINUOUS
370
-3
390
F
  0
LAYER
  5
201
100
AcDbSymbolTableRecord
100
AcDbLayerTableRecord
  2
03_AXES
 70
0
 62
7
  6
CONTINUOUS
370
-3
390
F
  0
LAYER
  5
202
100
AcDbSymbolTableRecord
100
AcDbLayerTableRecord
  2
04_POINTS
 70
0
 62
7
  6
CONTINUOUS
370
-3
390
F
  0
LAYER
  5
203
100
AcDbSymbolTableRecord
100
AcDbLayerTableRecord
  2
05_CURVES
 70
0
 62
7
  6
CONTINUOUS
370
-3
390
F
  0
LAYER
  5
204
100
AcDbSymbolTableRecord
100
AcDbLayerTableRecord
  2
06_SURFS
 70
0
 62
7
  6
CONTINUOUS
370
-3
390
F
  0
LAYER
  5
205
100
AcDbSymbolTableRecord
100
AcDbLayerTableRecord
  2
07_COSMETICS
 70
0
 62
7
  6
CONTINUOUS
370
-3
390
F
  0
LAYER
  5
206
100
AcDbSymbolTableRecord
100
AcDbLayerTableRecord
  2
10_NOTES
 70
0
 62
7
  6
CONTINUOUS
370
-3
390
F
  0
LAYER
  5
207
100
AcDbSymbolTableRecord
100
AcDbLayerTableRecord
  2
11_NOTES_PUB
 70
0
 62
7
  6
CONTINUOUS
370
-3
390
F
  0
LAYER
  5
208
100
AcDbSymbolTableRecord
100
AcDbLayerTableRecord
  2
13_REF_GTOL
 70
0
 62
7
  6
CONTINUOUS
370
-3
390
F
  0
LAYER
  5
209
100
AcDbSymbolTableRecord
100
AcDbLayerTableRecord
  2
16_MISC
 70
0
 62
7
  6
CONTINUOUS
370
-3
390
F
  0
LAYER
  5
20A
100
AcDbSymbolTableRecord
100
AcDbLayerTableRecord
  2
17_NO_PRINT
 70
0
 62
7
  6
CONTINUOUS
370
-3
390
F
  0
LAYER
  5
20B
100
AcDbSymbolTableRecord
100
AcDbLayerTableRecord
  2
18_DATUM_CAMS_JOINTS
 70
0
 62
7
  6
CONTINUOUS
370
-3
390
F
  0
LAYER
  5
20C
100
AcDbSymbolTableRecord
100
AcDbLayerTableRecord
  2
19_DATUM_FUNCTIONAL
 70
0
 62
7
  6
CONTINUOUS
370
-3
390
F
  0
LAYER
  5
20D
100
AcDbSymbolTableRecord
100
AcDbLayerTableRecord
  2
20_DATUM_KINEMATIC_SCHEME
 70
0
 62
7
  6
CONTINUOUS
370
-3
390
F
  0
LAYER
  5
20E
100
AcDbSymbolTableRecord
100
AcDbLayerTableRecord
  2
INTFCLR_3
 70
0
 62
7
  6
CONTINUOUS
370
-3
390
F
  0
LAYER
  5
20F
100
AcDbSymbolTableRecord
100
AcDbLayerTableRecord
  2
black
 70
0
 62
7
  6
CONTINUOUS
370
-3
390
F
  0
ENDTAB
  0
TABLE
  2
STYLE
  5
3
100
AcDbSymbolTable
 70
1
  0
STYLE
  5
11
100
AcDbSymbolTableRecord
100
AcDbTextStyleTableRecord
  2
STANDARD
 70
0
 40
0.0
 41
0.8
 50
0.0
 71
0
 42
0.2
  3
txt
  4

  0
STYLE
  5
210
100
AcDbSymbolTableRecord
100
AcDbTextStyleTableRecord
  2
TEXTSTYLE_1
 70
0
 40
0.0
 41
0.8
 50
0.0
 71
0
 42
0.2
  3
gdt
  4

  0
ENDTAB
  0
TABLE
  2
VIEW
  5
6
100
AcDbSymbolTable
 70
0
  0
ENDTAB
  0
TABLE
  2
UCS
  5
7
100
AcDbSymbolTable
 70
0
  0
ENDTAB
  0
TABLE
  2
APPID
  5
9
100
AcDbSymbolTable
 70
1
  0
APPID
  5
211
100
AcDbSymbolTableRecord
100
AcDbRegAppTableRecord
  2
ACAD
 70
0
  0
ENDTAB
  0
TABLE
  2
BLOCK_RECORD
  5
1
100
AcDbSymbolTable
 70
0
  0
BLOCK_RECORD
  5
212
100
AcDbSymbolTableRecord
100
AcDbBlockTableRecord
  2
*Model_Space
  0
BLOCK_RECORD
  5
213
100
AcDbSymbolTableRecord
100
AcDbBlockTableRecord
  2
*Paper_Space
  0
BLOCK_RECORD
  5
214
100
AcDbSymbolTableRecord
100
AcDbBlockTableRecord
  2
_FILLED
  0
ENDTAB
  0
TABLE
  2
DIMSTYLE
  5
A
100
AcDbSymbolTable
 70
1
100
AcDbDimStyleTable
 71
0
  0
DIMSTYLE
105
215
100
AcDbSymbolTableRecord
100
AcDbDimStyleTableRecord
  2
STANDARD
 70
0
  3

  4

 40
1.0
 41
2.1022570711
 42
1.0
 43
0.38
 44
1.0
 45
0.0
 46
0.0
 47
0.01
 48
0.01
140
2.9431598995
141
0.09
142
0.0
143
25.4
144
1.0
145
0.0
146
1.0
147
0.625
 71
1
 72
0
 73
0
 74
0
 75
0
 76
0
 77
1
 78
8
 79
2
170
0
171
1
172
0
173
0
174
0
175
0
176
0
177
0
178
0
270
2
179
2
271
2
272
2
273
2
274
2
275
0
280
0
281
0
282
0
283
1
284
8
285
0
286
0
287
3
288
0
340
11
278
46
341
214
342
214
343
214
344
214
  0
ENDTAB
  0
ENDSEC
  0
SECTION
  2
BLOCKS
  0
BLOCK
  5
20
100
AcDbEntity
  8
0
100
AcDbBlockBegin
  2
*Model_Space
 70
0
 10
0.0
 20
0.0
 30
0.0
  3
*Model_Space
  1

  0
ENDBLK
  5
21
100
AcDbEntity
  8
0
100
AcDbBlockEnd
  0
BLOCK
  5
1C
100
AcDbEntity
  8
0
100
AcDbBlockBegin
  2
*Paper_Space
 70
0
 10
0.0
 20
0.0
 30
0.0
  3
*Paper_Space
  1

  0
ENDBLK
  5
1D
100
AcDbEntity
  8
0
100
AcDbBlockEnd
  0
BLOCK
  5
216
100
AcDbEntity
  8
0
100
AcDbBlockBegin
  2
_FILLED
 70
64
 10
0.0
 20
0.0
  3
_FILLED
  1

  0
SOLID
  5
217
100
AcDbEntity
  8
0
  6
BYBLOCK
 62
0
100
AcDbTrace
 10
0.0
 20
0.0
 11
-1.0
 21
0.25
 12
-1.0
 22
-0.25
 13
-1.0
 23
-0.25
  0
ENDBLK
  5
218
100
AcDbEntity
  8
0
  6
BYBLOCK
 62
0
100
AcDbBlockEnd
  0
ENDSEC
  0
SECTION
  2
ENTITIES
  0
LINE
  5
219
100
AcDbEntity
  8
INTFCLR_3
100
AcDbLine
 62
7
  6
CONTINUOUS
 10
20.8903112084
 20
175.1854485777
 11
20.8903112084
 21
134.7854485777
  0
LINE
  5
21A
100
AcDbEntity
  8
INTFCLR_3
100
AcDbLine
 62
7
  6
CONTINUOUS
 10
20.9903112084
 20
166.5854485777
 11
20.9903112084
 21
165.5854485777
  0
LINE
  5
21B
100
AcDbEntity
  8
INTFCLR_3
100
AcDbLine
 62
7
  6
CONTINUOUS
 10
20.9903112084
 20
164.2854485777
 11
20.9903112084
 21
163.2854485777
  0
LINE
  5
21C
100
AcDbEntity
  8
INTFCLR_3
100
AcDbLine
 62
7
  6
CONTINUOUS
 10
20.9903112084
 20
161.9854485777
 11
20.9903112084
 21
160.9854485777
  0
LINE
  5
21D
100
AcDbEntity
  8
INTFCLR_3
100
AcDbLine
 62
7
  6
CONTINUOUS
 10
20.9903112084
 20
159.6854485777
 11
20.9903112084
 21
158.6854485777
  0
LINE
  5
21E
100
AcDbEntity
  8
INTFCLR_3
100
AcDbLine
 62
7
  6
CONTINUOUS
 10
20.9903112084
 20
157.3854485777
 11
20.9903112084
 21
156.3854485777
  0
LINE
  5
21F
100
AcDbEntity
  8
INTFCLR_3
100
AcDbLine
 62
7
  6
CONTINUOUS
 10
20.9903112084
 20
155.0854485777
 11
20.9903112084
 21
154.0854485777
  0
LINE
  5
220
100
AcDbEntity
  8
INTFCLR_3
100
AcDbLine
 62
7
  6
CONTINUOUS
 10
20.9903112084
 20
152.7854485777
 11
20.9903112084
 21
151.7854485777
  0
LINE
  5
221
100
AcDbEntity
  8
INTFCLR_3
100
AcDbLine
 62
7
  6
CONTINUOUS
 10
20.9903112084
 20
150.4854485777
 11
20.9903112084
 21
149.4854485777
  0
LINE
  5
222
100
AcDbEntity
  8
INTFCLR_3
100
AcDbLine
 62
7
  6
CONTINUOUS
 10
21.6903112084
 20
165.5854485777
 11
21.6903112084
 21
164.2854485777
  0
LINE
  5
223
100
AcDbEntity
  8
INTFCLR_3
100
AcDbLine
 62
7
  6
CONTINUOUS
 10
21.6903112084
 20
163.2854485777
 11
21.6903112084
 21
161.9854485777
  0
LINE
  5
224
100
AcDbEntity
  8
INTFCLR_3
100
AcDbLine
 62
7
  6
CONTINUOUS
 10
21.6903112084
 20
160.9854485777
 11
21.6903112084
 21
159.6854485777
  0
LINE
  5
225
100
AcDbEntity
  8
INTFCLR_3
100
AcDbLine
 62
7
  6
CONTINUOUS
 10
21.6903112084
 20
158.6854485777
 11
21.6903112084
 21
157.3854485777
  0
LINE
  5
226
100
AcDbEntity
  8
INTFCLR_3
100
AcDbLine
 62
7
  6
CONTINUOUS
 10
21.6903112084
 20
156.3854485777
 11
21.6903112084
 21
155.0854485777
  0
LINE
  5
227
100
AcDbEntity
  8
INTFCLR_3
100
AcDbLine
 62
7
  6
CONTINUOUS
 10
21.6903112084
 20
154.0854485777
 11
21.6903112084
 21
152.7854485777
  0
LINE
  5
228
100
AcDbEntity
  8
INTFCLR_3
100
AcDbLine
 62
7
  6
CONTINUOUS
 10
21.6903112084
 20
151.7854485777
 11
21.6903112084
 21
150.4854485777
  0
LINE
  5
229
100
AcDbEntity
  8
INTFCLR_3
100
AcDbLine
 62
7
  6
CONTINUOUS
 10
21.6903112084
 20
149.4854485777
 11
21.6903112084
 21
148.1854485777
  0
LINE
  5
22A
100
AcDbEntity
  8
INTFCLR_3
100
AcDbLine
 62
7
  6
CONTINUOUS
 10
22.0903112084
 20
150.4854485777
 11
22.0903112084
 21
134.7854485777
  0
LINE
  5
22B
100
AcDbEntity
  8
INTFCLR_3
100
AcDbLine
 62
7
  6
CONTINUOUS
 10
22.9903112084
 20
172.7854485777
 11
22.9903112084
 21
169.7854485777
  0
LINE
  5
22C
100
AcDbEntity
  8
INTFCLR_3
100
AcDbLine
 62
7
  6
CONTINUOUS
 10
23.1403112084
 20
160.2854485777
 11
23.1403112084
 21
134.7854485777
  0
LINE
  5
22D
100
AcDbEntity
  8
INTFCLR_3
100
AcDbLine
 62
7
  6
CONTINUOUS
 10
23.2903112084
 20
134.7854485777
 11
23.2903112084
 21
142.7854485777
  0
LINE
  5
22E
100
AcDbEntity
  8
INTFCLR_3
100
AcDbLine
 62
7
  6
CONTINUOUS
 10
23.4903112084
 20
175.1854485777
 11
23.4903112084
 21
172.5104485777
  0
LINE
  5
22F
100
AcDbEntity
  8
INTFCLR_3
100
AcDbLine
 62
7
  6
CONTINUOUS
 10
23.6903112084
 20
167.8854485777
 11
23.6903112084
 21
166.5854485777
  0
LINE
  5
230
100
AcDbEntity
  8
INTFCLR_3
100
AcDbLine
 62
7
  6
CONTINUOUS
 10
23.7403112084
 20
160.2854485777
 11
23.7403112084
 21
145.7854485777
  0
LINE
  5
231
100
AcDbEntity
  8
INTFCLR_3
100
AcDbLine
 62
7
  6
CONTINUOUS
 10
24.0903112084
 20
160.2854485777
 11
24.0903112084
 21
145.2854485777
  0
LINE
  5
232
100
AcDbEntity
  8
INTFCLR_3
100
AcDbLine
 62
7
  6
CONTINUOUS
 10
25.4903112084
 20
134.7854485777
 11
25.4903112084
 21
69.1854485777
  0
LINE
  5
233
100
AcDbEntity
  8
INTFCLR_3
100
AcDbLine
 62
7
  6
CONTINUOUS
 10
25.7403112084
 20
169.7854485777
 11
25.7403112084
 21
141.2354485777
  0
LINE
  5
234
100
AcDbEntity
  8
INTFCLR_3
100
AcDbLine
 62
7
  6
CONTINUOUS
 10
27.0153112084
 20
82.0854485777
 11
27.0153112084
 21
69.1854485777
  0
LINE
  5
235
100
AcDbEntity
  8
INTFCLR_3
100
AcDbLine
 62
7
  6
CONTINUOUS
 10
27.0903112084
 20
160.2854485777
 11
27.0903112084
 21
145.2854485777
  0
LINE
  5
236
100
AcDbEntity
  8
INTFCLR_3
100
AcDbLine
 62
7
  6
CONTINUOUS
 10
27.9979494408
 20
75.1854485777
 11
27.9979494408
 21
69.1854485777
  0
LINE
  5
237
100
AcDbEntity
  8
INTFCLR_3
100
AcDbLine
 62
7
  6
CONTINUOUS
 10
29.4903112084
 20
87.4854485777
 11
29.4903112084
 21
69.1854485777
  0
LINE
  5
238
100
AcDbEntity
  8
INTFCLR_3
100
AcDbLine
 62
7
  6
CONTINUOUS
 10
29.5403112084
 20
157.2854485777
 11
29.5403112084
 21
134.7854485777
  0
LINE
  5
239
100
AcDbEntity
  8
INTFCLR_3
100
AcDbLine
 62
7
  6
CONTINUOUS
 10
30.0403112084
 20
168.5104485777
 11
30.0403112084
 21
172.5104485777
  0
LINE
  5
23A
100
AcDbEntity
  8
INTFCLR_3
100
AcDbLine
 62
7
  6
CONTINUOUS
 10
30.6588903008
 20
172.5104485777
 11
30.6588903008
 21
166.0104485777
  0
LINE
  5
23B
100
AcDbEntity
  8
INTFCLR_3
100
AcDbLine
 62
7
  6
CONTINUOUS
 10
30.7403112084
 20
132.9854485777
 11
30.7403112084
 21
84.7854485777
  0
LINE
  5
23C
100
AcDbEntity
  8
INTFCLR_3
100
AcDbLine
 62
7
  6
CONTINUOUS
 10
30.8203530932
 20
168.5104485777
 11
30.8203530932
 21
164.9104485777
  0
LINE
  5
23D
100
AcDbEntity
  8
INTFCLR_3
100
AcDbLine
 62
7
  6
CONTINUOUS
 10
31.1153112084
 20
87.1854485777
 11
31.1153112084
 21
69.1854485777
  0
LINE
  5
23E
100
AcDbEntity
  8
INTFCLR_3
100
AcDbLine
 62
7
  6
CONTINUOUS
 10
31.1874609665
 20
172.5104485777
 11
31.1874609665
 21
168.5104485777
  0
LINE
  5
23F
100
AcDbEntity
  8
INTFCLR_3
100
AcDbLine
 62
7
  6
CONTINUOUS
 10
31.6873504763
 20
172.5104485777
 11
31.6873504763
 21
166.0104485777
  0
LINE
  5
240
100
AcDbEntity
  8
INTFCLR_3
100
AcDbLine
 62
7
  6
CONTINUOUS
 10
32.215921142
 20
172.5104485777
 11
32.215921142
 21
168.5104485777
  0
LINE
  5
241
100
AcDbEntity
  8
INTFCLR_3
100
AcDbLine
 62
7
  6
CONTINUOUS
 10
32.3202693235
 20
168.5104485777
 11
32.3202693235
 21
164.9104485777
  0
LINE
  5
242
100
AcDbEntity
  8
INTFCLR_3
100
AcDbLine
 62
7
  6
CONTINUOUS
 10
32.7153112084
 20
166.0104485777
 11
32.7153112084
 21
168.5104485777
  0
LINE
  5
243
100
AcDbEntity
  8
INTFCLR_3
100
AcDbLine
 62
7
  6
CONTINUOUS
 10
32.7403112084
 20
160.2854485777
 11
32.7403112084
 21
157.2854485777
  0
LINE
  5
244
100
AcDbEntity
  8
INTFCLR_3
100
AcDbLine
 62
7
  6
CONTINUOUS
 10
32.9153112084
 20
82.0854485777
 11
32.9153112084
 21
69.1854485777
  0
LINE
  5
245
100
AcDbEntity
  8
INTFCLR_3
100
AcDbLine
 62
7
  6
CONTINUOUS
 10
33.2590934657
 20
168.5104485777
 11
33.2590934657
 21
166.0104485777
  0
LINE
  5
246
100
AcDbEntity
  8
INTFCLR_3
100
AcDbLine
 62
7
  6
CONTINUOUS
 10
33.4903530932
 20
168.5104485777
 11
33.4903530932
 21
164.9104485777
  0
LINE
  5
247
100
AcDbEntity
  8
INTFCLR_3
100
AcDbLine
 62
7
  6
CONTINUOUS
 10
33.6353567232
 20
166.0104485777
 11
33.6353567232
 21
164.9104485777
  0
LINE
  5
248
100
AcDbEntity
  8
INTFCLR_3
100
AcDbLine
 62
7
  6
CONTINUOUS
 10
33.9903112084
 20
132.9854485777
 11
33.9903112084
 21
126.9854485777
  0
LINE
  5
249
100
AcDbEntity
  8
INTFCLR_3
100
AcDbLine
 62
7
  6
CONTINUOUS
 10
34.2403112084
 20
82.0854485777
 11
34.2403112084
 21
69.1854485777
  0
LINE
  5
24A
100
AcDbEntity
  8
INTFCLR_3
100
AcDbLine
 62
7
  6
CONTINUOUS
 10
34.2875536412
 20
168.5104485777
 11
34.2875536412
 21
166.0104485777
  0
LINE
  5
24B
100
AcDbEntity
  8
INTFCLR_3
100
AcDbLine
 62
7
  6
CONTINUOUS
 10
34.9053567232
 20
166.0104485777
 11
34.9053567232
 21
164.9104485777
  0
LINE
  5
24C
100
AcDbEntity
  8
INTFCLR_3
100
AcDbLine
 62
7
  6
CONTINUOUS
 10
34.9902693235
 20
168.5104485777
 11
34.9902693235
 21
164.9104485777
  0
LINE
  5
24D
100
AcDbEntity
  8
INTFCLR_3
100
AcDbLine
 62
7
  6
CONTINUOUS
 10
35.2652656935
 20
166.0104485777
 11
35.2652656935
 21
164.9104485777
  0
LINE
  5
24E
100
AcDbEntity
  8
INTFCLR_3
100
AcDbLine
 62
7
  6
CONTINUOUS
 10
35.4403112084
 20
170.6104485777
 11
35.4403112084
 21
166.0104485777
  0
LINE
  5
24F
100
AcDbEntity
  8
INTFCLR_3
100
AcDbLine
 62
7
  6
CONTINUOUS
 10
36.1903112084
 20
172.5104485777
 11
36.1903112084
 21
166.0104485777
  0
LINE
  5
250
100
AcDbEntity
  8
INTFCLR_3
100
AcDbLine
 62
7
  6
CONTINUOUS
 10
36.2403530932
 20
170.6104485777
 11
36.2403530932
 21
164.9104485777
  0
LINE
  5
251
100
AcDbEntity
  8
INTFCLR_3
100
AcDbLine
 62
7
  6
CONTINUOUS
 10
36.5352656935
 20
166.0104485777
 11
36.5352656935
 21
164.9104485777
  0
LINE
  5
252
100
AcDbEntity
  8
INTFCLR_3
100
AcDbLine
 62
7
  6
CONTINUOUS
 10
36.9103112084
 20
82.0854485777
 11
36.9103112084
 21
69.1854485777
  0
LINE
  5
253
100
AcDbEntity
  8
INTFCLR_3
100
AcDbLine
 62
7
  6
CONTINUOUS
 10
37.4453567232
 20
166.0104485777
 11
37.4453567232
 21
164.9104485777
  0
LINE
  5
254
100
AcDbEntity
  8
INTFCLR_3
100
AcDbLine
 62
7
  6
CONTINUOUS
 10
155.9903112084
 20
69.1854485777
 11
148.5653112084
 21
69.1854485777
  0
LINE
  5
255
100
AcDbEntity
  8
INTFCLR_3
100
AcDbLine
 62
7
  6
CONTINUOUS
 10
147.2303112084
 20
69.1854485777
 11
124.2603112084
 21
69.1854485777
  0
LINE
  5
256
100
AcDbEntity
  8
INTFCLR_3
100
AcDbLine
 62
7
  6
CONTINUOUS
 10
122.9153112084
 20
69.1854485777
 11
115.3403112084
 21
69.1854485777
  0
LINE
  5
257
100
AcDbEntity
  8
INTFCLR_3
100
AcDbLine
 62
7
  6
CONTINUOUS
 10
111.1403112084
 20
69.1854485777
 11
103.5653112084
 21
69.1854485777
  0
LINE
  5
258
100
AcDbEntity
  8
INTFCLR_3
100
AcDbLine
 62
7
  6
CONTINUOUS
 10
102.2203112084
 20
69.1854485777
 11
79.2503112084
 21
69.1854485777
  0
LINE
  5
259
100
AcDbEntity
  8
INTFCLR_3
100
AcDbLine
 62
7
  6
CONTINUOUS
 10
77.9153112084
 20
69.1854485777
 11
70.3403112084
 21
69.1854485777
  0
LINE
  5
25A
100
AcDbEntity
  8
INTFCLR_3
100
AcDbLine
 62
7
  6
CONTINUOUS
 10
66.1403112084
 20
69.1854485777
 11
58.5653112084
 21
69.1854485777
  0
LINE
  5
25B
100
AcDbEntity
  8
INTFCLR_3
100
AcDbLine
 62
7
  6
CONTINUOUS
 10
57.2103112084
 20
69.1854485777
 11
34.2403112084
 21
69.1854485777
  0
LINE
  5
25C
100
AcDbEntity
  8
INTFCLR_3
100
AcDbLine
 62
7
  6
CONTINUOUS
 10
32.9153112084
 20
69.1854485777
 11
25.4903112084
 21
69.1854485777
  0
LINE
  5
25D
100
AcDbEntity
  8
INTFCLR_3
100
AcDbLine
 62
7
  6
CONTINUOUS
 10
37.7402693235
 20
170.6104485777
 11
37.7402693235
 21
164.9104485777
  0
LINE
  5
25E
100
AcDbEntity
  8
INTFCLR_3
100
AcDbLine
 62
7
  6
CONTINUOUS
 10
37.7903112084
 20
172.5104485777
 11
37.7903112084
 21
166.0104485777
  0
LINE
  5
25F
100
AcDbEntity
  8
INTFCLR_3
100
AcDbLine
 62
7
  6
CONTINUOUS
 10
38.5308410896
 20
82.0854485777
 11
38.5308410896
 21
69.1854485777
  0
LINE
  5
260
100
AcDbEntity
  8
INTFCLR_3
100
AcDbLine
 62
7
  6
CONTINUOUS
 10
38.5403112084
 20
170.6104485777
 11
38.5403112084
 21
166.0104485777
  0
LINE
  5
261
100
AcDbEntity
  8
INTFCLR_3
100
AcDbLine
 62
7
  6
CONTINUOUS
 10
38.7153567232
 20
166.0104485777
 11
38.7153567232
 21
164.9104485777
  0
LINE
  5
262
100
AcDbEntity
  8
INTFCLR_3
100
AcDbLine
 62
7
  6
CONTINUOUS
 10
38.9903530932
 20
168.5104485777
 11
38.9903530932
 21
164.9104485777
  0
LINE
  5
263
100
AcDbEntity
  8
INTFCLR_3
100
AcDbLine
 62
7
  6
CONTINUOUS
 10
39.0752656935
 20
166.0104485777
 11
39.0752656935
 21
164.9104485777
  0
LINE
  5
264
100
AcDbEntity
  8
INTFCLR_3
100
AcDbLine
 62
7
  6
CONTINUOUS
 10
39.6930290724
 20
168.5104485777
 11
39.6930290724
 21
166.0104485777
  0
LINE
  5
265
100
AcDbEntity
  8
INTFCLR_3
100
AcDbLine
 62
7
  6
CONTINUOUS
 10
40.2103112084
 20
82.0854485777
 11
40.2103112084
 21
69.1854485777
  0
LINE
  5
266
100
AcDbEntity
  8
INTFCLR_3
100
AcDbLine
 62
7
  6
CONTINUOUS
 10
40.3452656935
 20
166.0104485777
 11
40.3452656935
 21
164.9104485777
  0
LINE
  5
267
100
AcDbEntity
  8
INTFCLR_3
100
AcDbLine
 62
7
  6
CONTINUOUS
 10
40.4902693235
 20
168.5104485777
 11
40.4902693235
 21
164.9104485777
  0
LINE
  5
268
100
AcDbEntity
  8
INTFCLR_3
100
AcDbLine
 62
7
  6
CONTINUOUS
 10
40.721528951
 20
168.5104485777
 11
40.721528951
 21
166.0104485777
  0
LINE
  5
269
100
AcDbEntity
  8
INTFCLR_3
100
AcDbLine
 62
7
  6
CONTINUOUS
 10
41.2653112084
 20
166.0104485777
 11
41.2653112084
 21
168.5104485777
  0
LINE
  5
26A
100
AcDbEntity
  8
INTFCLR_3
100
AcDbLine
 62
7
  6
CONTINUOUS
 10
41.6603530932
 20
168.5104485777
 11
41.6603530932
 21
164.9104485777
  0
LINE
  5
26B
100
AcDbEntity
  8
INTFCLR_3
100
AcDbLine
 62
7
  6
CONTINUOUS
 10
41.764675422
 20
172.5104485777
 11
41.764675422
 21
168.5104485777
  0
LINE
  5
26C
100
AcDbEntity
  8
INTFCLR_3
100
AcDbLine
 62
7
  6
CONTINUOUS
 10
42.2932719404
 20
172.5104485777
 11
42.2932719404
 21
166.0104485777
  0
LINE
  5
26D
100
AcDbEntity
  8
INTFCLR_3
100
AcDbLine
 62
7
  6
CONTINUOUS
 10
42.7931614502
 20
172.5104485777
 11
42.7931614502
 21
168.5104485777
  0
LINE
  5
26E
100
AcDbEntity
  8
INTFCLR_3
100
AcDbLine
 62
7
  6
CONTINUOUS
 10
43.1602693235
 20
168.5104485777
 11
43.1602693235
 21
164.9104485777
  0
LINE
  5
26F
100
AcDbEntity
  8
INTFCLR_3
100
AcDbLine
 62
7
  6
CONTINUOUS
 10
43.2403112084
 20
84.7854485777
 11
43.2403112084
 21
82.0854485777
  0
LINE
  5
270
100
AcDbEntity
  8
INTFCLR_3
100
AcDbLine
 62
7
  6
CONTINUOUS
 10
43.3217321159
 20
172.5104485777
 11
43.3217321159
 21
166.0104485777
  0
LINE
  5
271
100
AcDbEntity
  8
INTFCLR_3
100
AcDbLine
 62
7
  6
CONTINUOUS
 10
151.9903112084
 20
73.1851570652
 11
150.3653112084
 21
73.1851570652
  0
LINE
  5
272
100
AcDbEntity
  8
INTFCLR_3
100
AcDbLine
 62
7
  6
CONTINUOUS
 10
121.1153112084
 20
73.1851570652
 11
119.4903112084
 21
73.1851570652
  0
LINE
  5
273
100
AcDbEntity
  8
INTFCLR_3
100
AcDbLine
 62
7
  6
CONTINUOUS
 10
106.9903112084
 20
73.1851570652
 11
105.3653112084
 21
73.1851570652
  0
LINE
  5
274
100
AcDbEntity
  8
INTFCLR_3
100
AcDbLine
 62
7
  6
CONTINUOUS
 10
76.1153112084
 20
73.1851570652
 11
74.4903112084
 21
73.1851570652
  0
LINE
  5
275
100
AcDbEntity
  8
INTFCLR_3
100
AcDbLine
 62
7
  6
CONTINUOUS
 10
61.9903112084
 20
73.1851570652
 11
60.3653112084
 21
73.1851570652
  0
LINE
  5
276
100
AcDbEntity
  8
INTFCLR_3
100
AcDbLine
 62
7
  6
CONTINUOUS
 10
31.1153112084
 20
73.1851570652
 11
29.4903112084
 21
73.1851570652
  0
LINE
  5
277
100
AcDbEntity
  8
INTFCLR_3
100
AcDbLine
 62
7
  6
CONTINUOUS
 10
155.9903112084
 20
75.1854485777
 11
153.482672976
 21
75.1854485777
  0
LINE
  5
278
100
AcDbEntity
  8
INTFCLR_3
100
AcDbLine
 62
7
  6
CONTINUOUS
 10
117.9944317976
 20
75.1854485777
 11
108.4844317976
 21
75.1854485777
  0
LINE
  5
279
100
AcDbEntity
  8
INTFCLR_3
100
AcDbLine
 62
7
  6
CONTINUOUS
 10
72.9961906192
 20
75.1854485777
 11
63.4861906192
 21
75.1854485777
  0
LINE
  5
27A
100
AcDbEntity
  8
INTFCLR_3
100
AcDbLine
 62
7
  6
CONTINUOUS
 10
27.9979494408
 20
75.1854485777
 11
25.4903112084
 21
75.1854485777
  0
LINE
  5
27B
100
AcDbEntity
  8
INTFCLR_3
100
AcDbLine
 62
7
  6
CONTINUOUS
 10
23.5903112084
 20
142.7854485777
 11
24.4903112084
 21
141.2354485777
  0
LINE
  5
27C
100
AcDbEntity
  8
INTFCLR_3
100
AcDbLine
 62
7
  6
CONTINUOUS
 10
43.9403112084
 20
168.5104485777
 11
43.9403112084
 21
172.5104485777
  0
LINE
  5
27D
100
AcDbEntity
  8
INTFCLR_3
100
AcDbLine
 62
7
  6
CONTINUOUS
 10
44.3994031371
 20
82.0854485777
 11
44.3994031371
 21
69.1854485777
  0
LINE
  5
27E
100
AcDbEntity
  8
INTFCLR_3
100
AcDbLine
 62
7
  6
CONTINUOUS
 10
45.7253112084
 20
82.0854485777
 11
45.7253112084
 21
69.1854485777
  0
LINE
  5
27F
100
AcDbEntity
  8
INTFCLR_3
100
AcDbLine
 62
7
  6
CONTINUOUS
 10
47.0512192797
 20
82.0854485777
 11
47.0512192797
 21
69.1854485777
  0
LINE
  5
280
100
AcDbEntity
  8
INTFCLR_3
100
AcDbLine
 62
7
  6
CONTINUOUS
 10
48.2403112084
 20
84.7854485777
 11
48.2403112084
 21
82.0854485777
  0
LINE
  5
281
100
AcDbEntity
  8
INTFCLR_3
100
AcDbLine
 62
7
  6
CONTINUOUS
 10
155.9903112084
 20
82.0854485777
 11
25.4903112084
 21
82.0854485777
  0
LINE
  5
282
100
AcDbEntity
  8
INTFCLR_3
100
AcDbLine
 62
7
  6
CONTINUOUS
 10
50.5903112084
 20
171.3854485777
 11
50.5903112084
 21
168.1104485777
  0
LINE
  5
283
100
AcDbEntity
  8
INTFCLR_3
100
AcDbLine
 62
7
  6
CONTINUOUS
 10
51.2403112084
 20
82.0854485777
 11
51.2403112084
 21
69.1854485777
  0
LINE
  5
284
100
AcDbEntity
  8
INTFCLR_3
100
AcDbLine
 62
7
  6
CONTINUOUS
 10
52.9197813271
 20
82.0854485777
 11
52.9197813271
 21
69.1854485777
  0
LINE
  5
285
100
AcDbEntity
  8
INTFCLR_3
100
AcDbLine
 62
7
  6
CONTINUOUS
 10
52.990347207
 20
172.5104485777
 11
52.990347207
 21
171.3854485777
  0
LINE
  5
286
100
AcDbEntity
  8
INTFCLR_3
100
AcDbLine
 62
7
  6
CONTINUOUS
 10
54.5403112084
 20
82.0854485777
 11
54.5403112084
 21
69.1854485777
  0
LINE
  5
287
100
AcDbEntity
  8
INTFCLR_3
100
AcDbLine
 62
7
  6
CONTINUOUS
 10
150.7403112084
 20
84.7854485777
 11
120.7403112084
 21
84.7854485777
  0
LINE
  5
288
100
AcDbEntity
  8
INTFCLR_3
100
AcDbLine
 62
7
  6
CONTINUOUS
 10
105.7403112084
 20
84.7854485777
 11
75.7403112084
 21
84.7854485777
  0
LINE
  5
289
100
AcDbEntity
  8
INTFCLR_3
100
AcDbLine
 62
7
  6
CONTINUOUS
 10
60.7403112084
 20
84.7854485777
 11
30.7403112084
 21
84.7854485777
  0
LINE
  5
28A
100
AcDbEntity
  8
INTFCLR_3
100
AcDbLine
 62
7
  6
CONTINUOUS
 10
150.3653112084
 20
87.1854485777
 11
121.1153112084
 21
87.1854485777
  0
LINE
  5
28B
100
AcDbEntity
  8
INTFCLR_3
100
AcDbLine
 62
7
  6
CONTINUOUS
 10
105.3653112084
 20
87.1854485777
 11
76.1153112084
 21
87.1854485777
  0
LINE
  5
28C
100
AcDbEntity
  8
INTFCLR_3
100
AcDbLine
 62
7
  6
CONTINUOUS
 10
60.3653112084
 20
87.1854485777
 11
31.1153112084
 21
87.1854485777
  0
LINE
  5
28D
100
AcDbEntity
  8
INTFCLR_3
100
AcDbLine
 62
7
  6
CONTINUOUS
 10
155.9903112084
 20
87.4854485777
 11
151.9903112084
 21
87.4854485777
  0
LINE
  5
28E
100
AcDbEntity
  8
INTFCLR_3
100
AcDbLine
 62
7
  6
CONTINUOUS
 10
119.4903112084
 20
87.4854485777
 11
117.1403112084
 21
87.4854485777
  0
LINE
  5
28F
100
AcDbEntity
  8
INTFCLR_3
100
AcDbLine
 62
7
  6
CONTINUOUS
 10
109.3403112084
 20
87.4854485777
 11
106.9903112084
 21
87.4854485777
  0
LINE
  5
290
100
AcDbEntity
  8
INTFCLR_3
100
AcDbLine
 62
7
  6
CONTINUOUS
 10
74.4903112084
 20
87.4854485777
 11
72.1403112084
 21
87.4854485777
  0
LINE
  5
291
100
AcDbEntity
  8
INTFCLR_3
100
AcDbLine
 62
7
  6
CONTINUOUS
 10
64.3403112084
 20
87.4854485777
 11
61.9903112084
 21
87.4854485777
  0
LINE
  5
292
100
AcDbEntity
  8
INTFCLR_3
100
AcDbLine
 62
7
  6
CONTINUOUS
 10
29.4903112084
 20
87.4854485777
 11
25.4903112084
 21
87.4854485777
  0
LINE
  5
293
100
AcDbEntity
  8
INTFCLR_3
100
AcDbLine
 62
7
  6
CONTINUOUS
 10
57.2103112084
 20
82.0854485777
 11
57.2103112084
 21
69.1854485777
  0
LINE
  5
294
100
AcDbEntity
  8
INTFCLR_3
100
AcDbLine
 62
7
  6
CONTINUOUS
 10
57.4903112084
 20
132.9854485777
 11
57.4903112084
 21
126.9854485777
  0
LINE
  5
295
100
AcDbEntity
  8
INTFCLR_3
100
AcDbLine
 62
7
  6
CONTINUOUS
 10
58.5653112084
 20
82.0854485777
 11
58.5653112084
 21
69.1854485777
  0
LINE
  5
296
100
AcDbEntity
  8
INTFCLR_3
100
AcDbLine
 62
7
  6
CONTINUOUS
 10
58.7402677003
 20
157.2854485777
 11
58.7402677003
 21
160.2854485777
  0
LINE
  5
297
100
AcDbEntity
  8
INTFCLR_3
100
AcDbLine
 62
7
  6
CONTINUOUS
 10
59.9902752098
 20
172.5104485777
 11
59.9902752098
 21
171.3854485777
  0
LINE
  5
298
100
AcDbEntity
  8
INTFCLR_3
100
AcDbLine
 62
7
  6
CONTINUOUS
 10
60.3653112084
 20
87.1854485777
 11
60.3653112084
 21
69.1854485777
  0
LINE
  5
299
100
AcDbEntity
  8
INTFCLR_3
100
AcDbLine
 62
7
  6
CONTINUOUS
 10
60.7403112084
 20
132.9854485777
 11
60.7403112084
 21
84.7854485777
  0
LINE
  5
29A
100
AcDbEntity
  8
INTFCLR_3
100
AcDbLine
 62
7
  6
CONTINUOUS
 10
150.7403112084
 20
90.7854485777
 11
120.7403112084
 21
90.7854485777
  0
LINE
  5
29B
100
AcDbEntity
  8
INTFCLR_3
100
AcDbLine
 62
7
  6
CONTINUOUS
 10
105.7403112084
 20
90.7854485777
 11
75.7403112084
 21
90.7854485777
  0
LINE
  5
29C
100
AcDbEntity
  8
INTFCLR_3
100
AcDbLine
 62
7
  6
CONTINUOUS
 10
60.7403112084
 20
90.7854485777
 11
30.7403112084
 21
90.7854485777
  0
LINE
  5
29D
100
AcDbEntity
  8
INTFCLR_3
100
AcDbLine
 62
7
  6
CONTINUOUS
 10
64.3103112084
 20
134.7854485777
 11
64.703220255
 21
115.4854485777
  0
LINE
  5
29E
100
AcDbEntity
  8
INTFCLR_3
100
AcDbLine
 62
7
  6
CONTINUOUS
 10
61.7353112084
 20
134.7854485777
 11
62.3562379321
 21
82.0854485777
  0
LINE
  5
29F
100
AcDbEntity
  8
INTFCLR_3
100
AcDbLine
 62
7
  6
CONTINUOUS
 10
61.9403112084
 20
157.2854485777
 11
61.9403112084
 21
134.7854485777
  0
LINE
  5
2A0
100
AcDbEntity
  8
INTFCLR_3
100
AcDbLine
 62
7
  6
CONTINUOUS
 10
61.9903112084
 20
87.4854485777
 11
61.9903112084
 21
69.1854485777
  0
LINE
  5
2A1
100
AcDbEntity
  8
INTFCLR_3
100
AcDbLine
 62
7
  6
CONTINUOUS
 10
62.3903112084
 20
171.3854485777
 11
62.3903112084
 21
168.1104485777
  0
LINE
  5
2A2
100
AcDbEntity
  8
INTFCLR_3
100
AcDbLine
 62
7
  6
CONTINUOUS
 10
63.0903112084
 20
171.3854485777
 11
63.0903112084
 21
168.1104485777
  0
LINE
  5
2A3
100
AcDbEntity
  8
INTFCLR_3
100
AcDbLine
 62
7
  6
CONTINUOUS
 10
63.2403112084
 20
169.7854485777
 11
63.2403461599
 21
138.9854485777
  0
LINE
  5
2A4
100
AcDbEntity
  8
INTFCLR_3
100
AcDbLine
 62
7
  6
CONTINUOUS
 10
63.4861906192
 20
69.1854485777
 11
63.4861906192
 21
75.1854485777
  0
LINE
  5
2A5
100
AcDbEntity
  8
INTFCLR_3
100
AcDbLine
 62
7
  6
CONTINUOUS
 10
64.3403112084
 20
115.4854485777
 11
64.3403112084
 21
87.4854485777
  0
LINE
  5
2A6
100
AcDbEntity
  8
INTFCLR_3
100
AcDbLine
 62
7
  6
CONTINUOUS
 10
64.4509930432
 20
82.0854485777
 11
64.4509930432
 21
134.7854485777
  0
LINE
  5
2A7
100
AcDbEntity
  8
INTFCLR_3
100
AcDbLine
 62
7
  6
CONTINUOUS
 10
64.4617294614
 20
69.1854485777
 11
64.4617294614
 21
82.085389986
  0
LINE
  5
2A8
100
AcDbEntity
  8
INTFCLR_3
100
AcDbLine
 62
7
  6
CONTINUOUS
 10
65.490347207
 20
172.5104485777
 11
65.490347207
 21
171.3854485777
  0
LINE
  5
2A9
100
AcDbEntity
  8
INTFCLR_3
100
AcDbLine
 62
7
  6
CONTINUOUS
 10
65.6282392369
 20
134.7854485777
 11
65.6282392369
 21
115.4854485777
  0
LINE
  5
2AA
100
AcDbEntity
  8
INTFCLR_3
100
AcDbLine
 62
7
  6
CONTINUOUS
 10
65.6403112084
 20
138.9854485777
 11
65.6403112084
 21
134.7854485777
  0
LINE
  5
2AB
100
AcDbEntity
  8
INTFCLR_3
100
AcDbLine
 62
7
  6
CONTINUOUS
 10
65.6903389029
 20
134.7854485777
 11
65.6903389029
 21
160.2854485777
  0
LINE
  5
2AC
100
AcDbEntity
  8
INTFCLR_3
100
AcDbLine
 62
7
  6
CONTINUOUS
 10
66.1403112084
 20
75.1854485777
 11
66.1403112084
 21
69.1854485777
  0
LINE
  5
2AD
100
AcDbEntity
  8
INTFCLR_3
100
AcDbLine
 62
7
  6
CONTINUOUS
 10
66.7403112084
 20
160.2854485777
 11
66.7403112084
 21
145.2854485777
  0
LINE
  5
2AE
100
AcDbEntity
  8
INTFCLR_3
100
AcDbLine
 62
7
  6
CONTINUOUS
 10
66.8153112084
 20
160.2854485777
 11
66.8153112084
 21
134.7854485777
  0
LINE
  5
2AF
100
AcDbEntity
  8
INTFCLR_3
100
AcDbLine
 62
7
  6
CONTINUOUS
 10
66.9124308478
 20
134.7854485777
 11
66.9124308478
 21
115.4854485777
  0
LINE
  5
2B0
100
AcDbEntity
  8
INTFCLR_3
100
AcDbLine
 62
7
  6
CONTINUOUS
 10
67.278243821
 20
134.7854485777
 11
67.278243821
 21
75.1854485777
  0
LINE
  5
2B1
100
AcDbEntity
  8
INTFCLR_3
100
AcDbLine
 62
7
  6
CONTINUOUS
 10
69.218243821
 20
134.7854485777
 11
69.218243821
 21
75.1854485777
  0
LINE
  5
2B2
100
AcDbEntity
  8
INTFCLR_3
100
AcDbLine
 62
7
  6
CONTINUOUS
 10
69.5850039409
 20
134.7854485777
 11
69.5850039409
 21
115.4854485777
  0
LINE
  5
2B3
100
AcDbEntity
  8
INTFCLR_3
100
AcDbLine
 62
7
  6
CONTINUOUS
 10
69.665295732
 20
134.7854485777
 11
69.665295732
 21
160.2854485777
  0
LINE
  5
2B4
100
AcDbEntity
  8
INTFCLR_3
100
AcDbLine
 62
7
  6
CONTINUOUS
 10
69.7403112084
 20
160.2854485777
 11
69.7403112084
 21
145.2854485777
  0
LINE
  5
2B5
100
AcDbEntity
  8
INTFCLR_3
100
AcDbLine
 62
7
  6
CONTINUOUS
 10
70.3403112084
 20
75.1854485777
 11
70.3403112084
 21
69.1854485777
  0
LINE
  5
2B6
100
AcDbEntity
  8
INTFCLR_3
100
AcDbLine
 62
7
  6
CONTINUOUS
 10
70.7902835139
 20
134.7854485777
 11
70.7902835139
 21
160.2854485777
  0
LINE
  5
2B7
100
AcDbEntity
  8
INTFCLR_3
100
AcDbLine
 62
7
  6
CONTINUOUS
 10
70.8403112084
 20
138.9854485777
 11
70.8403112084
 21
134.7854485777
  0
LINE
  5
2B8
100
AcDbEntity
  8
INTFCLR_3
100
AcDbLine
 62
7
  6
CONTINUOUS
 10
70.9993427215
 20
134.7854485777
 11
70.9993427215
 21
115.4854485777
  0
LINE
  5
2B9
100
AcDbEntity
  8
INTFCLR_3
100
AcDbLine
 62
7
  6
CONTINUOUS
 10
72.0153112084
 20
82.0854485777
 11
72.0153112084
 21
69.1854485777
  0
LINE
  5
2BA
100
AcDbEntity
  8
INTFCLR_3
100
AcDbLine
 62
7
  6
CONTINUOUS
 10
72.0248197434
 20
82.0854485777
 11
72.0248197434
 21
134.7854485777
  0
LINE
  5
2BB
100
AcDbEntity
  8
INTFCLR_3
100
AcDbLine
 62
7
  6
CONTINUOUS
 10
72.1403112084
 20
115.4854485777
 11
72.1403112084
 21
87.4854485777
  0
LINE
  5
2BC
100
AcDbEntity
  8
INTFCLR_3
100
AcDbLine
 62
7
  6
CONTINUOUS
 10
72.4902752098
 20
172.5104485777
 11
72.4902752098
 21
171.3854485777
  0
LINE
  5
2BD
100
AcDbEntity
  8
INTFCLR_3
100
AcDbLine
 62
7
  6
CONTINUOUS
 10
72.9961906192
 20
75.1854485777
 11
72.9961906192
 21
69.1854485777
  0
LINE
  5
2BE
100
AcDbEntity
  8
INTFCLR_3
100
AcDbLine
 62
7
  6
CONTINUOUS
 10
73.2403112084
 20
169.7854485777
 11
73.2402762568
 21
138.9854485777
  0
LINE
  5
2BF
100
AcDbEntity
  8
INTFCLR_3
100
AcDbLine
 62
7
  6
CONTINUOUS
 10
72.1703112084
 20
134.7854485777
 11
71.7910043933
 21
115.4854485777
  0
LINE
  5
2C0
100
AcDbEntity
  8
INTFCLR_3
100
AcDbLine
 62
7
  6
CONTINUOUS
 10
74.4403112084
 20
157.2854485777
 11
74.4403112084
 21
134.7854485777
  0
LINE
  5
2C1
100
AcDbEntity
  8
INTFCLR_3
100
AcDbLine
 62
7
  6
CONTINUOUS
 10
74.4903112084
 20
87.4854485777
 11
74.4903112084
 21
69.1854485777
  0
LINE
  5
2C2
100
AcDbEntity
  8
INTFCLR_3
100
AcDbLine
 62
7
  6
CONTINUOUS
 10
74.8903112084
 20
171.3854485777
 11
74.8903112084
 21
168.1104485777
  0
LINE
  5
2C3
100
AcDbEntity
  8
INTFCLR_3
100
AcDbLine
 62
7
  6
CONTINUOUS
 10
75.5903112084
 20
171.3854485777
 11
75.5903112084
 21
168.1104485777
  0
LINE
  5
2C4
100
AcDbEntity
  8
INTFCLR_3
100
AcDbLine
 62
7
  6
CONTINUOUS
 10
75.7403112084
 20
132.9854485777
 11
75.7403112084
 21
84.7854485777
  0
LINE
  5
2C5
100
AcDbEntity
  8
INTFCLR_3
100
AcDbLine
 62
7
  6
CONTINUOUS
 10
76.1153112084
 20
87.1854485777
 11
76.1153112084
 21
69.1854485777
  0
LINE
  5
2C6
100
AcDbEntity
  8
INTFCLR_3
100
AcDbLine
 62
7
  6
CONTINUOUS
 10
77.7403112084
 20
160.2854485777
 11
77.7403112084
 21
157.2854485777
  0
LINE
  5
2C7
100
AcDbEntity
  8
INTFCLR_3
100
AcDbLine
 62
7
  6
CONTINUOUS
 10
77.9153112084
 20
82.0854485777
 11
77.9153112084
 21
69.1854485777
  0
LINE
  5
2C8
100
AcDbEntity
  8
INTFCLR_3
100
AcDbLine
 62
7
  6
CONTINUOUS
 10
77.990347207
 20
172.5104485777
 11
77.990347207
 21
171.3854485777
  0
LINE
  5
2C9
100
AcDbEntity
  8
INTFCLR_3
100
AcDbLine
 62
7
  6
CONTINUOUS
 10
78.9903112084
 20
132.9854485777
 11
78.9903112084
 21
126.9854485777
  0
LINE
  5
2CA
100
AcDbEntity
  8
INTFCLR_3
100
AcDbLine
 62
7
  6
CONTINUOUS
 10
79.2503112084
 20
82.0854485777
 11
79.2503112084
 21
69.1854485777
  0
LINE
  5
2CB
100
AcDbEntity
  8
INTFCLR_3
100
AcDbLine
 62
7
  6
CONTINUOUS
 10
74.7453112084
 20
134.7854485777
 11
74.1236743613
 21
82.0854485777
  0
LINE
  5
2CC
100
AcDbEntity
  8
INTFCLR_3
100
AcDbLine
 62
7
  6
CONTINUOUS
 10
81.9203112084
 20
82.0854485777
 11
81.9203112084
 21
69.1854485777
  0
LINE
  5
2CD
100
AcDbEntity
  8
INTFCLR_3
100
AcDbLine
 62
7
  6
CONTINUOUS
 10
83.5408410896
 20
82.0854485777
 11
83.5408410896
 21
69.1854485777
  0
LINE
  5
2CE
100
AcDbEntity
  8
INTFCLR_3
100
AcDbLine
 62
7
  6
CONTINUOUS
 10
84.9902752098
 20
172.5104485777
 11
84.9902752098
 21
171.3854485777
  0
LINE
  5
2CF
100
AcDbEntity
  8
INTFCLR_3
100
AcDbLine
 62
7
  6
CONTINUOUS
 10
85.2203112084
 20
82.0854485777
 11
85.2203112084
 21
69.1854485777
  0
LINE
  5
2D0
100
AcDbEntity
  8
INTFCLR_3
100
AcDbLine
 62
7
  6
CONTINUOUS
 10
117.1403112084
 20
115.4854485777
 11
114.2023785957
 21
115.4854485777
  0
LINE
  5
2D1
100
AcDbEntity
  8
INTFCLR_3
100
AcDbLine
 62
7
  6
CONTINUOUS
 10
112.2623785957
 20
115.4854485777
 11
109.3403112084
 21
115.4854485777
  0
LINE
  5
2D2
100
AcDbEntity
  8
INTFCLR_3
100
AcDbLine
 62
7
  6
CONTINUOUS
 10
72.1403112084
 20
115.4854485777
 11
69.218243821
 21
115.4854485777
  0
LINE
  5
2D3
100
AcDbEntity
  8
INTFCLR_3
100
AcDbLine
 62
7
  6
CONTINUOUS
 10
67.278243821
 20
115.4854485777
 11
64.3403112084
 21
115.4854485777
  0
LINE
  5
2D4
100
AcDbEntity
  8
INTFCLR_3
100
AcDbLine
 62
7
  6
CONTINUOUS
 10
87.3903112084
 20
171.3854485777
 11
87.3903112084
 21
168.1104485777
  0
LINE
  5
2D5
100
AcDbEntity
  8
INTFCLR_3
100
AcDbLine
 62
7
  6
CONTINUOUS
 10
88.2403112084
 20
84.7854485777
 11
88.2403112084
 21
82.0854485777
  0
LINE
  5
2D6
100
AcDbEntity
  8
INTFCLR_3
100
AcDbLine
 62
7
  6
CONTINUOUS
 10
89.4094031371
 20
82.0854485777
 11
89.4094031371
 21
69.1854485777
  0
LINE
  5
2D7
100
AcDbEntity
  8
INTFCLR_3
100
AcDbLine
 62
7
  6
CONTINUOUS
 10
90.7353112084
 20
82.0854485777
 11
90.7353112084
 21
69.1854485777
  0
LINE
  5
2D8
100
AcDbEntity
  8
INTFCLR_3
100
AcDbLine
 62
7
  6
CONTINUOUS
 10
92.0612192797
 20
82.0854485777
 11
92.0612192797
 21
69.1854485777
  0
LINE
  5
2D9
100
AcDbEntity
  8
INTFCLR_3
100
AcDbLine
 62
7
  6
CONTINUOUS
 10
93.2403112084
 20
84.7854485777
 11
93.2403112084
 21
82.0854485777
  0
LINE
  5
2DA
100
AcDbEntity
  8
INTFCLR_3
100
AcDbLine
 62
7
  6
CONTINUOUS
 10
96.2503112084
 20
82.0854485777
 11
96.2503112084
 21
69.1854485777
  0
LINE
  5
2DB
100
AcDbEntity
  8
INTFCLR_3
100
AcDbLine
 62
7
  6
CONTINUOUS
 10
96.7403112084
 20
180.4854485777
 11
96.7403112084
 21
179.2854485777
  0
LINE
  5
2DC
100
AcDbEntity
  8
INTFCLR_3
100
AcDbLine
 62
7
  6
CONTINUOUS
 10
97.0403530157
 20
180.4854485777
 11
97.0403530157
 21
181.7854485777
  0
LINE
  5
2DD
100
AcDbEntity
  8
INTFCLR_3
100
AcDbLine
 62
7
  6
CONTINUOUS
 10
97.1403112084
 20
175.6854485777
 11
97.1403112084
 21
172.5104485777
  0
LINE
  5
2DE
100
AcDbEntity
  8
INTFCLR_3
100
AcDbLine
 62
7
  6
CONTINUOUS
 10
150.7403112084
 20
126.9854485777
 11
120.7403112084
 21
126.9854485777
  0
LINE
  5
2DF
100
AcDbEntity
  8
INTFCLR_3
100
AcDbLine
 62
7
  6
CONTINUOUS
 10
105.7403112084
 20
126.9854485777
 11
75.7403112084
 21
126.9854485777
  0
LINE
  5
2E0
100
AcDbEntity
  8
INTFCLR_3
100
AcDbLine
 62
7
  6
CONTINUOUS
 10
60.7403112084
 20
126.9854485777
 11
30.7403112084
 21
126.9854485777
  0
LINE
  5
2E1
100
AcDbEntity
  8
INTFCLR_3
100
AcDbLine
 62
7
  6
CONTINUOUS
 10
97.6403112084
 20
179.2854485777
 11
97.6403112084
 21
161.7854485777
  0
LINE
  5
2E2
100
AcDbEntity
  8
INTFCLR_3
100
AcDbLine
 62
7
  6
CONTINUOUS
 10
97.9297813271
 20
82.0854485777
 11
97.9297813271
 21
69.1854485777
  0
LINE
  5
2E3
100
AcDbEntity
  8
INTFCLR_3
100
AcDbLine
 62
7
  6
CONTINUOUS
 10
98.130887441
 20
181.7854485777
 11
98.130887441
 21
180.4854485777
  0
LINE
  5
2E4
100
AcDbEntity
  8
INTFCLR_3
100
AcDbLine
 62
7
  6
CONTINUOUS
 10
98.7403112084
 20
175.6854485777
 11
98.7403112084
 21
172.5104485777
  0
LINE
  5
2E5
100
AcDbEntity
  8
INTFCLR_3
100
AcDbLine
 62
7
  6
CONTINUOUS
 10
99.5503112084
 20
82.0854485777
 11
99.5503112084
 21
69.1854485777
  0
LINE
  5
2E6
100
AcDbEntity
  8
INTFCLR_3
100
AcDbLine
 62
7
  6
CONTINUOUS
 10
102.2203112084
 20
82.0854485777
 11
102.2203112084
 21
69.1854485777
  0
LINE
  5
2E7
100
AcDbEntity
  8
INTFCLR_3
100
AcDbLine
 62
7
  6
CONTINUOUS
 10
102.4903112084
 20
132.9854485777
 11
102.4903112084
 21
126.9854485777
  0
LINE
  5
2E8
100
AcDbEntity
  8
INTFCLR_3
100
AcDbLine
 62
7
  6
CONTINUOUS
 10
150.7403112084
 20
132.9854485777
 11
120.7403112084
 21
132.9854485777
  0
LINE
  5
2E9
100
AcDbEntity
  8
INTFCLR_3
100
AcDbLine
 62
7
  6
CONTINUOUS
 10
105.7403112084
 20
132.9854485777
 11
75.7403112084
 21
132.9854485777
  0
LINE
  5
2EA
100
AcDbEntity
  8
INTFCLR_3
100
AcDbLine
 62
7
  6
CONTINUOUS
 10
60.7403112084
 20
132.9854485777
 11
30.7403112084
 21
132.9854485777
  0
LINE
  5
2EB
100
AcDbEntity
  8
INTFCLR_3
100
AcDbLine
 62
7
  6
CONTINUOUS
 10
160.5903112084
 20
134.7854485777
 11
20.8903112084
 21
134.7854485777
  0
LINE
  5
2EC
100
AcDbEntity
  8
INTFCLR_3
100
AcDbLine
 62
7
  6
CONTINUOUS
 10
106.7353112084
 20
134.7854485777
 11
107.3569480555
 21
82.0854485777
  0
LINE
  5
2ED
100
AcDbEntity
  8
INTFCLR_3
100
AcDbLine
 62
7
  6
CONTINUOUS
 10
103.5653112084
 20
82.0854485777
 11
103.5653112084
 21
69.1854485777
  0
LINE
  5
2EE
100
AcDbEntity
  8
INTFCLR_3
100
AcDbLine
 62
7
  6
CONTINUOUS
 10
103.7402677003
 20
157.2854485777
 11
103.7402677003
 21
160.2854485777
  0
LINE
  5
2EF
100
AcDbEntity
  8
INTFCLR_3
100
AcDbLine
 62
7
  6
CONTINUOUS
 10
104.4403112084
 20
179.2854485777
 11
104.4403112084
 21
161.7854485777
  0
LINE
  5
2F0
100
AcDbEntity
  8
INTFCLR_3
100
AcDbLine
 62
7
  6
CONTINUOUS
 10
105.3653112084
 20
87.1854485777
 11
105.3653112084
 21
69.1854485777
  0
LINE
  5
2F1
100
AcDbEntity
  8
INTFCLR_3
100
AcDbLine
 62
7
  6
CONTINUOUS
 10
105.7403112084
 20
132.9854485777
 11
105.7403112084
 21
84.7854485777
  0
LINE
  5
2F2
100
AcDbEntity
  8
INTFCLR_3
100
AcDbLine
 62
7
  6
CONTINUOUS
 10
106.9903112084
 20
87.4854485777
 11
106.9903112084
 21
69.1854485777
  0
LINE
  5
2F3
100
AcDbEntity
  8
INTFCLR_3
100
AcDbLine
 62
7
  6
CONTINUOUS
 10
107.0403112084
 20
157.2854485777
 11
107.0403112084
 21
134.7854485777
  0
LINE
  5
2F4
100
AcDbEntity
  8
INTFCLR_3
100
AcDbLine
 62
7
  6
CONTINUOUS
 10
108.2403112084
 20
169.7854485777
 11
108.2403461599
 21
138.9854485777
  0
LINE
  5
2F5
100
AcDbEntity
  8
INTFCLR_3
100
AcDbLine
 62
7
  6
CONTINUOUS
 10
108.4844317976
 20
69.1854485777
 11
108.4844317976
 21
75.1854485777
  0
LINE
  5
2F6
100
AcDbEntity
  8
INTFCLR_3
100
AcDbLine
 62
7
  6
CONTINUOUS
 10
109.3403112084
 20
115.4854485777
 11
109.3403112084
 21
87.4854485777
  0
LINE
  5
2F7
100
AcDbEntity
  8
INTFCLR_3
100
AcDbLine
 62
7
  6
CONTINUOUS
 10
109.4538912379
 20
82.0854485777
 11
109.4538912379
 21
134.7854485777
  0
LINE
  5
2F8
100
AcDbEntity
  8
INTFCLR_3
100
AcDbLine
 62
7
  6
CONTINUOUS
 10
109.4625268639
 20
69.1854485777
 11
109.4625268639
 21
82.085389986
  0
LINE
  5
2F9
100
AcDbEntity
  8
INTFCLR_3
100
AcDbLine
 62
7
  6
CONTINUOUS
 10
118.2403112084
 20
138.9854485777
 11
108.2403112084
 21
138.9854485777
  0
LINE
  5
2FA
100
AcDbEntity
  8
INTFCLR_3
100
AcDbLine
 62
7
  6
CONTINUOUS
 10
73.2403112084
 20
138.9854485777
 11
63.2403112084
 21
138.9854485777
  0
LINE
  5
2FB
100
AcDbEntity
  8
INTFCLR_3
100
AcDbLine
 62
7
  6
CONTINUOUS
 10
156.9903112084
 20
141.2354485777
 11
155.7403112084
 21
141.2354485777
  0
LINE
  5
2FC
100
AcDbEntity
  8
INTFCLR_3
100
AcDbLine
 62
7
  6
CONTINUOUS
 10
25.7403112084
 20
141.2354485777
 11
24.4903112084
 21
141.2354485777
  0
LINE
  5
2FD
100
AcDbEntity
  8
INTFCLR_3
100
AcDbLine
 62
7
  6
CONTINUOUS
 10
160.5903112084
 20
142.7854485777
 11
157.8903112084
 21
142.7854485777
  0
LINE
  5
2FE
100
AcDbEntity
  8
INTFCLR_3
100
AcDbLine
 62
7
  6
CONTINUOUS
 10
23.5903112084
 20
142.7854485777
 11
20.8903112084
 21
142.7854485777
  0
LINE
  5
2FF
100
AcDbEntity
  8
INTFCLR_3
100
AcDbLine
 62
7
  6
CONTINUOUS
 10
109.3103112084
 20
134.7854485777
 11
109.6896180234
 21
115.4854485777
  0
LINE
  5
300
100
AcDbEntity
  8
INTFCLR_3
100
AcDbLine
 62
7
  6
CONTINUOUS
 10
110.4812796953
 20
134.7854485777
 11
110.4812796953
 21
115.4854485777
  0
LINE
  5
301
100
AcDbEntity
  8
INTFCLR_3
100
AcDbLine
 62
7
  6
CONTINUOUS
 10
110.6403112084
 20
138.9854485777
 11
110.6403112084
 21
134.7854485777
  0
LINE
  5
302
100
AcDbEntity
  8
INTFCLR_3
100
AcDbLine
 62
7
  6
CONTINUOUS
 10
110.6903389029
 20
134.7854485777
 11
110.6903389029
 21
160.2854485777
  0
LINE
  5
303
100
AcDbEntity
  8
INTFCLR_3
100
AcDbLine
 62
7
  6
CONTINUOUS
 10
111.1403112084
 20
75.1854485777
 11
111.1403112084
 21
69.1854485777
  0
LINE
  5
304
100
AcDbEntity
  8
INTFCLR_3
100
AcDbLine
 62
7
  6
CONTINUOUS
 10
111.7403112084
 20
160.2854485777
 11
111.7403112084
 21
145.2854485777
  0
LINE
  5
305
100
AcDbEntity
  8
INTFCLR_3
100
AcDbLine
 62
7
  6
CONTINUOUS
 10
111.8153112084
 20
160.2854485777
 11
111.8153112084
 21
134.7854485777
  0
LINE
  5
306
100
AcDbEntity
  8
INTFCLR_3
100
AcDbLine
 62
7
  6
CONTINUOUS
 10
111.8956184759
 20
134.7854485777
 11
111.8956184759
 21
115.4854485777
  0
LINE
  5
307
100
AcDbEntity
  8
INTFCLR_3
100
AcDbLine
 62
7
  6
CONTINUOUS
 10
112.2623785957
 20
134.7854485777
 11
112.2623785957
 21
75.1854485777
  0
LINE
  5
308
100
AcDbEntity
  8
INTFCLR_3
100
AcDbLine
 62
7
  6
CONTINUOUS
 10
113.0497300979
 20
181.7854485777
 11
113.0497300979
 21
180.4854485777
  0
LINE
  5
309
100
AcDbEntity
  8
INTFCLR_3
100
AcDbLine
 62
7
  6
CONTINUOUS
 10
114.140269401
 20
180.4854485777
 11
114.140269401
 21
181.7854485777
  0
LINE
  5
30A
100
AcDbEntity
  8
INTFCLR_3
100
AcDbLine
 62
7
  6
CONTINUOUS
 10
114.2023785957
 20
134.7854485777
 11
114.2023785957
 21
75.1854485777
  0
LINE
  5
30B
100
AcDbEntity
  8
INTFCLR_3
100
AcDbLine
 62
7
  6
CONTINUOUS
 10
114.4403112084
 20
180.4854485777
 11
114.4403112084
 21
179.2854485777
  0
LINE
  5
30C
100
AcDbEntity
  8
INTFCLR_3
100
AcDbLine
 62
7
  6
CONTINUOUS
 10
114.568191569
 20
134.7854485777
 11
114.568191569
 21
115.4854485777
  0
LINE
  5
30D
100
AcDbEntity
  8
INTFCLR_3
100
AcDbLine
 62
7
  6
CONTINUOUS
 10
114.665295732
 20
134.7854485777
 11
114.665295732
 21
160.2854485777
  0
LINE
  5
30E
100
AcDbEntity
  8
INTFCLR_3
100
AcDbLine
 62
7
  6
CONTINUOUS
 10
114.7403112084
 20
160.2854485777
 11
114.7403112084
 21
145.2854485777
  0
LINE
  5
30F
100
AcDbEntity
  8
INTFCLR_3
100
AcDbLine
 62
7
  6
CONTINUOUS
 10
115.3403112084
 20
75.1854485777
 11
115.3403112084
 21
69.1854485777
  0
LINE
  5
310
100
AcDbEntity
  8
INTFCLR_3
100
AcDbLine
 62
7
  6
CONTINUOUS
 10
157.3903112084
 20
145.2854485777
 11
154.3903112084
 21
145.2854485777
  0
LINE
  5
311
100
AcDbEntity
  8
INTFCLR_3
100
AcDbLine
 62
7
  6
CONTINUOUS
 10
114.7403112084
 20
145.2854485777
 11
111.7403112084
 21
145.2854485777
  0
LINE
  5
312
100
AcDbEntity
  8
INTFCLR_3
100
AcDbLine
 62
7
  6
CONTINUOUS
 10
69.7403112084
 20
145.2854485777
 11
66.7403112084
 21
145.2854485777
  0
LINE
  5
313
100
AcDbEntity
  8
INTFCLR_3
100
AcDbLine
 62
7
  6
CONTINUOUS
 10
27.0903112084
 20
145.2854485777
 11
24.0903112084
 21
145.2854485777
  0
LINE
  5
314
100
AcDbEntity
  8
INTFCLR_3
100
AcDbLine
 62
7
  6
CONTINUOUS
 10
157.7403112084
 20
145.7854485777
 11
155.7403112084
 21
145.7854485777
  0
LINE
  5
315
100
AcDbEntity
  8
INTFCLR_3
100
AcDbLine
 62
7
  6
CONTINUOUS
 10
25.7403112084
 20
145.7854485777
 11
23.7403112084
 21
145.7854485777
  0
LINE
  5
316
100
AcDbEntity
  8
INTFCLR_3
100
AcDbLine
 62
7
  6
CONTINUOUS
 10
160.5903112084
 20
148.1854485777
 11
159.7903112084
 21
148.1854485777
  0
LINE
  5
317
100
AcDbEntity
  8
INTFCLR_3
100
AcDbLine
 62
7
  6
CONTINUOUS
 10
21.6903112084
 20
148.1854485777
 11
20.8903112084
 21
148.1854485777
  0
LINE
  5
318
100
AcDbEntity
  8
INTFCLR_3
100
AcDbLine
 62
7
  6
CONTINUOUS
 10
160.4903112084
 20
149.4854485777
 11
159.7903112084
 21
149.4854485777
  0
LINE
  5
319
100
AcDbEntity
  8
INTFCLR_3
100
AcDbLine
 62
7
  6
CONTINUOUS
 10
21.6903112084
 20
149.4854485777
 11
20.9903112084
 21
149.4854485777
  0
LINE
  5
31A
100
AcDbEntity
  8
INTFCLR_3
100
AcDbLine
 62
7
  6
CONTINUOUS
 10
115.7902835139
 20
134.7854485777
 11
115.7902835139
 21
160.2854485777
  0
LINE
  5
31B
100
AcDbEntity
  8
INTFCLR_3
100
AcDbLine
 62
7
  6
CONTINUOUS
 10
115.8403112084
 20
138.9854485777
 11
115.8403112084
 21
134.7854485777
  0
LINE
  5
31C
100
AcDbEntity
  8
INTFCLR_3
100
AcDbLine
 62
7
  6
CONTINUOUS
 10
115.8523831798
 20
134.7854485777
 11
115.8523831798
 21
115.4854485777
  0
LINE
  5
31D
100
AcDbEntity
  8
INTFCLR_3
100
AcDbLine
 62
7
  6
CONTINUOUS
 10
117.0153112084
 20
82.0854485777
 11
117.0153112084
 21
69.1854485777
  0
LINE
  5
31E
100
AcDbEntity
  8
INTFCLR_3
100
AcDbLine
 62
7
  6
CONTINUOUS
 10
117.0271687647
 20
82.0854485777
 11
117.0271687647
 21
134.7854485777
  0
LINE
  5
31F
100
AcDbEntity
  8
INTFCLR_3
100
AcDbLine
 62
7
  6
CONTINUOUS
 10
117.1403112084
 20
115.4854485777
 11
117.1403112084
 21
87.4854485777
  0
LINE
  5
320
100
AcDbEntity
  8
INTFCLR_3
100
AcDbLine
 62
7
  6
CONTINUOUS
 10
117.9944317976
 20
75.1854485777
 11
117.9944317976
 21
69.1854485777
  0
LINE
  5
321
100
AcDbEntity
  8
INTFCLR_3
100
AcDbLine
 62
7
  6
CONTINUOUS
 10
118.2403112084
 20
169.7854485777
 11
118.2402762568
 21
138.9854485777
  0
LINE
  5
322
100
AcDbEntity
  8
INTFCLR_3
100
AcDbLine
 62
7
  6
CONTINUOUS
 10
119.4903112084
 20
87.4854485777
 11
119.4903112084
 21
69.1854485777
  0
LINE
  5
323
100
AcDbEntity
  8
INTFCLR_3
100
AcDbLine
 62
7
  6
CONTINUOUS
 10
119.5403112084
 20
157.2854485777
 11
119.5403112084
 21
134.7854485777
  0
LINE
  5
324
100
AcDbEntity
  8
INTFCLR_3
100
AcDbLine
 62
7
  6
CONTINUOUS
 10
120.7403112084
 20
132.9854485777
 11
120.7403112084
 21
84.7854485777
  0
LINE
  5
325
100
AcDbEntity
  8
INTFCLR_3
100
AcDbLine
 62
7
  6
CONTINUOUS
 10
121.1153112084
 20
87.1854485777
 11
121.1153112084
 21
69.1854485777
  0
LINE
  5
326
100
AcDbEntity
  8
INTFCLR_3
100
AcDbLine
 62
7
  6
CONTINUOUS
 10
119.7453112084
 20
134.7854485777
 11
119.1243844846
 21
82.0854485777
  0
LINE
  5
327
100
AcDbEntity
  8
INTFCLR_3
100
AcDbLine
 62
7
  6
CONTINUOUS
 10
117.1703112084
 20
134.7854485777
 11
116.7774021618
 21
115.4854485777
  0
LINE
  5
328
100
AcDbEntity
  8
INTFCLR_3
100
AcDbLine
 62
7
  6
CONTINUOUS
 10
160.4903112084
 20
150.4854485777
 11
159.7903112084
 21
150.4854485777
  0
LINE
  5
329
100
AcDbEntity
  8
INTFCLR_3
100
AcDbLine
 62
7
  6
CONTINUOUS
 10
159.3903112084
 20
150.4854485777
 11
22.0903112084
 21
150.4854485777
  0
LINE
  5
32A
100
AcDbEntity
  8
INTFCLR_3
100
AcDbLine
 62
7
  6
CONTINUOUS
 10
21.6903112084
 20
150.4854485777
 11
20.9903112084
 21
150.4854485777
  0
LINE
  5
32B
100
AcDbEntity
  8
INTFCLR_3
100
AcDbLine
 62
7
  6
CONTINUOUS
 10
160.4903112084
 20
151.7854485777
 11
159.7903112084
 21
151.7854485777
  0
LINE
  5
32C
100
AcDbEntity
  8
INTFCLR_3
100
AcDbLine
 62
7
  6
CONTINUOUS
 10
21.6903112084
 20
151.7854485777
 11
20.9903112084
 21
151.7854485777
  0
LINE
  5
32D
100
AcDbEntity
  8
INTFCLR_3
100
AcDbLine
 62
7
  6
CONTINUOUS
 10
118.2403112084
 20
151.9854485777
 11
108.2403112084
 21
151.9854485777
  0
LINE
  5
32E
100
AcDbEntity
  8
INTFCLR_3
100
AcDbLine
 62
7
  6
CONTINUOUS
 10
73.2403112084
 20
151.9854485777
 11
63.2403461599
 21
151.9854485777
  0
LINE
  5
32F
100
AcDbEntity
  8
INTFCLR_3
100
AcDbLine
 62
7
  6
CONTINUOUS
 10
160.4903112084
 20
152.7854485777
 11
159.7903112084
 21
152.7854485777
  0
LINE
  5
330
100
AcDbEntity
  8
INTFCLR_3
100
AcDbLine
 62
7
  6
CONTINUOUS
 10
21.6903112084
 20
152.7854485777
 11
20.9903112084
 21
152.7854485777
  0
LINE
  5
331
100
AcDbEntity
  8
INTFCLR_3
100
AcDbLine
 62
7
  6
CONTINUOUS
 10
160.4903112084
 20
154.0854485777
 11
159.7903112084
 21
154.0854485777
  0
LINE
  5
332
100
AcDbEntity
  8
INTFCLR_3
100
AcDbLine
 62
7
  6
CONTINUOUS
 10
21.6903112084
 20
154.0854485777
 11
20.9903112084
 21
154.0854485777
  0
LINE
  5
333
100
AcDbEntity
  8
INTFCLR_3
100
AcDbLine
 62
7
  6
CONTINUOUS
 10
160.4903112084
 20
155.0854485777
 11
159.7903112084
 21
155.0854485777
  0
LINE
  5
334
100
AcDbEntity
  8
INTFCLR_3
100
AcDbLine
 62
7
  6
CONTINUOUS
 10
21.6903112084
 20
155.0854485777
 11
20.9903112084
 21
155.0854485777
  0
LINE
  5
335
100
AcDbEntity
  8
INTFCLR_3
100
AcDbLine
 62
7
  6
CONTINUOUS
 10
122.7403112084
 20
160.2854485777
 11
122.7403112084
 21
157.2854485777
  0
LINE
  5
336
100
AcDbEntity
  8
INTFCLR_3
100
AcDbLine
 62
7
  6
CONTINUOUS
 10
122.9153112084
 20
82.0854485777
 11
122.9153112084
 21
69.1854485777
  0
LINE
  5
337
100
AcDbEntity
  8
INTFCLR_3
100
AcDbLine
 62
7
  6
CONTINUOUS
 10
123.9903112084
 20
132.9854485777
 11
123.9903112084
 21
126.9854485777
  0
LINE
  5
338
100
AcDbEntity
  8
INTFCLR_3
100
AcDbLine
 62
7
  6
CONTINUOUS
 10
124.2603112084
 20
82.0854485777
 11
124.2603112084
 21
69.1854485777
  0
LINE
  5
339
100
AcDbEntity
  8
INTFCLR_3
100
AcDbLine
 62
7
  6
CONTINUOUS
 10
126.9303112084
 20
82.0854485777
 11
126.9303112084
 21
69.1854485777
  0
LINE
  5
33A
100
AcDbEntity
  8
INTFCLR_3
100
AcDbLine
 62
7
  6
CONTINUOUS
 10
160.4903112084
 20
156.3854485777
 11
159.7903112084
 21
156.3854485777
  0
LINE
  5
33B
100
AcDbEntity
  8
INTFCLR_3
100
AcDbLine
 62
7
  6
CONTINUOUS
 10
21.6903112084
 20
156.3854485777
 11
20.9903112084
 21
156.3854485777
  0
LINE
  5
33C
100
AcDbEntity
  8
INTFCLR_3
100
AcDbLine
 62
7
  6
CONTINUOUS
 10
151.9403112084
 20
157.2854485777
 11
119.5403112084
 21
157.2854485777
  0
LINE
  5
33D
100
AcDbEntity
  8
INTFCLR_3
100
AcDbLine
 62
7
  6
CONTINUOUS
 10
107.0403112084
 20
157.2854485777
 11
74.4403112084
 21
157.2854485777
  0
LINE
  5
33E
100
AcDbEntity
  8
INTFCLR_3
100
AcDbLine
 62
7
  6
CONTINUOUS
 10
61.9403112084
 20
157.2854485777
 11
29.5403112084
 21
157.2854485777
  0
LINE
  5
33F
100
AcDbEntity
  8
INTFCLR_3
100
AcDbLine
 62
7
  6
CONTINUOUS
 10
160.4903112084
 20
157.3854485777
 11
159.7903112084
 21
157.3854485777
  0
LINE
  5
340
100
AcDbEntity
  8
INTFCLR_3
100
AcDbLine
 62
7
  6
CONTINUOUS
 10
21.6903112084
 20
157.3854485777
 11
20.9903112084
 21
157.3854485777
  0
LINE
  5
341
100
AcDbEntity
  8
INTFCLR_3
100
AcDbLine
 62
7
  6
CONTINUOUS
 10
160.4903112084
 20
158.6854485777
 11
159.7903112084
 21
158.6854485777
  0
LINE
  5
342
100
AcDbEntity
  8
INTFCLR_3
100
AcDbLine
 62
7
  6
CONTINUOUS
 10
21.6903112084
 20
158.6854485777
 11
20.9903112084
 21
158.6854485777
  0
LINE
  5
343
100
AcDbEntity
  8
INTFCLR_3
100
AcDbLine
 62
7
  6
CONTINUOUS
 10
160.4903112084
 20
159.6854485777
 11
159.7903112084
 21
159.6854485777
  0
LINE
  5
344
100
AcDbEntity
  8
INTFCLR_3
100
AcDbLine
 62
7
  6
CONTINUOUS
 10
21.6903112084
 20
159.6854485777
 11
20.9903112084
 21
159.6854485777
  0
LINE
  5
345
100
AcDbEntity
  8
INTFCLR_3
100
AcDbLine
 62
7
  6
CONTINUOUS
 10
20.8903112084
 20
160.2854485777
 11
160.5903112084
 21
160.2854485777
  0
LINE
  5
346
100
AcDbEntity
  8
INTFCLR_3
100
AcDbLine
 62
7
  6
CONTINUOUS
 10
160.4903112084
 20
160.9854485777
 11
159.7903112084
 21
160.9854485777
  0
LINE
  5
347
100
AcDbEntity
  8
INTFCLR_3
100
AcDbLine
 62
7
  6
CONTINUOUS
 10
21.6903112084
 20
160.9854485777
 11
20.9903112084
 21
160.9854485777
  0
LINE
  5
348
100
AcDbEntity
  8
INTFCLR_3
100
AcDbLine
 62
7
  6
CONTINUOUS
 10
104.4403112084
 20
161.7854485777
 11
97.6403112084
 21
161.7854485777
  0
LINE
  5
349
100
AcDbEntity
  8
INTFCLR_3
100
AcDbLine
 62
7
  6
CONTINUOUS
 10
160.4903112084
 20
161.9854485777
 11
159.7903112084
 21
161.9854485777
  0
LINE
  5
34A
100
AcDbEntity
  8
INTFCLR_3
100
AcDbLine
 62
7
  6
CONTINUOUS
 10
21.6903112084
 20
161.9854485777
 11
20.9903112084
 21
161.9854485777
  0
LINE
  5
34B
100
AcDbEntity
  8
INTFCLR_3
100
AcDbLine
 62
7
  6
CONTINUOUS
 10
128.5508410896
 20
82.0854485777
 11
128.5508410896
 21
69.1854485777
  0
LINE
  5
34C
100
AcDbEntity
  8
INTFCLR_3
100
AcDbLine
 62
7
  6
CONTINUOUS
 10
130.2303112084
 20
82.0854485777
 11
130.2303112084
 21
69.1854485777
  0
LINE
  5
34D
100
AcDbEntity
  8
INTFCLR_3
100
AcDbLine
 62
7
  6
CONTINUOUS
 10
133.2403112084
 20
84.7854485777
 11
133.2403112084
 21
82.0854485777
  0
LINE
  5
34E
100
AcDbEntity
  8
INTFCLR_3
100
AcDbLine
 62
7
  6
CONTINUOUS
 10
160.4903112084
 20
163.2854485777
 11
159.7903112084
 21
163.2854485777
  0
LINE
  5
34F
100
AcDbEntity
  8
INTFCLR_3
100
AcDbLine
 62
7
  6
CONTINUOUS
 10
21.6903112084
 20
163.2854485777
 11
20.9903112084
 21
163.2854485777
  0
LINE
  5
350
100
AcDbEntity
  8
INTFCLR_3
100
AcDbLine
 62
7
  6
CONTINUOUS
 10
160.4903112084
 20
164.2854485777
 11
159.7903112084
 21
164.2854485777
  0
LINE
  5
351
100
AcDbEntity
  8
INTFCLR_3
100
AcDbLine
 62
7
  6
CONTINUOUS
 10
21.6903112084
 20
164.2854485777
 11
20.9903112084
 21
164.2854485777
  0
LINE
  5
352
100
AcDbEntity
  8
INTFCLR_3
100
AcDbLine
 62
7
  6
CONTINUOUS
 10
43.1603112084
 20
164.9104485777
 11
41.6603112084
 21
164.9104485777
  0
LINE
  5
353
100
AcDbEntity
  8
INTFCLR_3
100
AcDbLine
 62
7
  6
CONTINUOUS
 10
40.4903112084
 20
164.9104485777
 11
33.4903530932
 21
164.9104485777
  0
LINE
  5
354
100
AcDbEntity
  8
INTFCLR_3
100
AcDbLine
 62
7
  6
CONTINUOUS
 10
32.3203112084
 20
164.9104485777
 11
30.8203112084
 21
164.9104485777
  0
LINE
  5
355
100
AcDbEntity
  8
INTFCLR_3
100
AcDbLine
 62
7
  6
CONTINUOUS
 10
160.4903112084
 20
165.5854485777
 11
159.7903112084
 21
165.5854485777
  0
LINE
  5
356
100
AcDbEntity
  8
INTFCLR_3
100
AcDbLine
 62
7
  6
CONTINUOUS
 10
21.6903112084
 20
165.5854485777
 11
20.9903112084
 21
165.5854485777
  0
LINE
  5
357
100
AcDbEntity
  8
INTFCLR_3
100
AcDbLine
 62
7
  6
CONTINUOUS
 10
43.3217321159
 20
166.0104485777
 11
30.6588903008
 21
166.0104485777
  0
LINE
  5
358
100
AcDbEntity
  8
INTFCLR_3
100
AcDbLine
 62
7
  6
CONTINUOUS
 10
160.4903112084
 20
166.5854485777
 11
157.7903112084
 21
166.5854485777
  0
LINE
  5
359
100
AcDbEntity
  8
INTFCLR_3
100
AcDbLine
 62
7
  6
CONTINUOUS
 10
23.6903112084
 20
166.5854485777
 11
20.9903112084
 21
166.5854485777
  0
LINE
  5
35A
100
AcDbEntity
  8
INTFCLR_3
100
AcDbLine
 62
7
  6
CONTINUOUS
 10
160.5903112084
 20
167.8854485777
 11
157.7903112084
 21
167.8854485777
  0
LINE
  5
35B
100
AcDbEntity
  8
INTFCLR_3
100
AcDbLine
 62
7
  6
CONTINUOUS
 10
23.6903112084
 20
167.8854485777
 11
20.8903112084
 21
167.8854485777
  0
LINE
  5
35C
100
AcDbEntity
  8
INTFCLR_3
100
AcDbLine
 62
7
  6
CONTINUOUS
 10
87.3903112084
 20
168.1104485777
 11
75.5903112084
 21
168.1104485777
  0
LINE
  5
35D
100
AcDbEntity
  8
INTFCLR_3
100
AcDbLine
 62
7
  6
CONTINUOUS
 10
74.8903112084
 20
168.1104485777
 11
63.0903112084
 21
168.1104485777
  0
LINE
  5
35E
100
AcDbEntity
  8
INTFCLR_3
100
AcDbLine
 62
7
  6
CONTINUOUS
 10
62.3903112084
 20
168.1104485777
 11
50.5903112084
 21
168.1104485777
  0
LINE
  5
35F
100
AcDbEntity
  8
INTFCLR_3
100
AcDbLine
 62
7
  6
CONTINUOUS
 10
134.4194031371
 20
82.0854485777
 11
134.4194031371
 21
69.1854485777
  0
LINE
  5
360
100
AcDbEntity
  8
INTFCLR_3
100
AcDbLine
 62
7
  6
CONTINUOUS
 10
135.7453112084
 20
82.0854485777
 11
135.7453112084
 21
69.1854485777
  0
LINE
  5
361
100
AcDbEntity
  8
INTFCLR_3
100
AcDbLine
 62
7
  6
CONTINUOUS
 10
137.0712192797
 20
82.0854485777
 11
137.0712192797
 21
69.1854485777
  0
LINE
  5
362
100
AcDbEntity
  8
INTFCLR_3
100
AcDbLine
 62
7
  6
CONTINUOUS
 10
138.2403112084
 20
84.7854485777
 11
138.2403112084
 21
82.0854485777
  0
LINE
  5
363
100
AcDbEntity
  8
INTFCLR_3
100
AcDbLine
 62
7
  6
CONTINUOUS
 10
30.040271506
 20
168.5104485777
 11
43.9403112084
 21
168.5104485777
  0
LINE
  5
364
100
AcDbEntity
  8
INTFCLR_3
100
AcDbLine
 62
7
  6
CONTINUOUS
 10
160.5903112084
 20
169.7854485777
 11
20.8903112084
 21
169.7854485777
  0
LINE
  5
365
100
AcDbEntity
  8
INTFCLR_3
100
AcDbLine
 62
7
  6
CONTINUOUS
 10
38.5403112084
 20
170.6104485777
 11
35.4403112084
 21
170.6104485777
  0
LINE
  5
366
100
AcDbEntity
  8
INTFCLR_3
100
AcDbLine
 62
7
  6
CONTINUOUS
 10
104.4403112084
 20
170.7854485777
 11
97.6403112084
 21
170.7854485777
  0
LINE
  5
367
100
AcDbEntity
  8
INTFCLR_3
100
AcDbLine
 62
7
  6
CONTINUOUS
 10
87.3903112084
 20
171.3854485777
 11
75.5903112084
 21
171.3854485777
  0
LINE
  5
368
100
AcDbEntity
  8
INTFCLR_3
100
AcDbLine
 62
7
  6
CONTINUOUS
 10
74.8903112084
 20
171.3854485777
 11
63.0903112084
 21
171.3854485777
  0
LINE
  5
369
100
AcDbEntity
  8
INTFCLR_3
100
AcDbLine
 62
7
  6
CONTINUOUS
 10
62.3903112084
 20
171.3854485777
 11
50.5903112084
 21
171.3854485777
  0
LINE
  5
36A
100
AcDbEntity
  8
INTFCLR_3
100
AcDbLine
 62
7
  6
CONTINUOUS
 10
157.9903112084
 20
172.5104485777
 11
23.4903112084
 21
172.5104485777
  0
LINE
  5
36B
100
AcDbEntity
  8
INTFCLR_3
100
AcDbLine
 62
7
  6
CONTINUOUS
 10
158.4903112084
 20
172.7854485777
 11
22.9903112084
 21
172.7854485777
  0
LINE
  5
36C
100
AcDbEntity
  8
INTFCLR_3
100
AcDbLine
 62
7
  6
CONTINUOUS
 10
160.5903112084
 20
172.910494651
 11
157.9903112084
 21
172.910494651
  0
LINE
  5
36D
100
AcDbEntity
  8
INTFCLR_3
100
AcDbLine
 62
7
  6
CONTINUOUS
 10
23.4903112084
 20
172.910494651
 11
20.8903112084
 21
172.910494651
  0
LINE
  5
36E
100
AcDbEntity
  8
INTFCLR_3
100
AcDbLine
 62
7
  6
CONTINUOUS
 10
98.7403112084
 20
173.3854960472
 11
97.1403112084
 21
173.3854960472
  0
LINE
  5
36F
100
AcDbEntity
  8
INTFCLR_3
100
AcDbLine
 62
7
  6
CONTINUOUS
 10
160.5903112084
 20
173.7354485777
 11
157.9903112084
 21
173.7354485777
  0
LINE
  5
370
100
AcDbEntity
  8
INTFCLR_3
100
AcDbLine
 62
7
  6
CONTINUOUS
 10
23.4903112084
 20
173.7354485777
 11
20.8903112084
 21
173.7354485777
  0
LINE
  5
371
100
AcDbEntity
  8
INTFCLR_3
100
AcDbLine
 62
7
  6
CONTINUOUS
 10
141.2603112084
 20
82.0854485777
 11
141.2603112084
 21
69.1854485777
  0
LINE
  5
372
100
AcDbEntity
  8
INTFCLR_3
100
AcDbLine
 62
7
  6
CONTINUOUS
 10
142.9397813272
 20
82.0854485777
 11
142.9397813272
 21
69.1854485777
  0
LINE
  5
373
100
AcDbEntity
  8
INTFCLR_3
100
AcDbLine
 62
7
  6
CONTINUOUS
 10
144.5603112084
 20
82.0854485777
 11
144.5603112084
 21
69.1854485777
  0
LINE
  5
374
100
AcDbEntity
  8
INTFCLR_3
100
AcDbLine
 62
7
  6
CONTINUOUS
 10
157.8903112084
 20
142.7854485777
 11
156.9903112084
 21
141.2354485777
  0
LINE
  5
375
100
AcDbEntity
  8
INTFCLR_3
100
AcDbLine
 62
7
  6
CONTINUOUS
 10
160.5903112084
 20
174.5604025043
 11
157.9903112084
 21
174.5604025043
  0
LINE
  5
376
100
AcDbEntity
  8
INTFCLR_3
100
AcDbLine
 62
7
  6
CONTINUOUS
 10
23.4903112084
 20
174.5604025043
 11
20.8903112084
 21
174.5604025043
  0
LINE
  5
377
100
AcDbEntity
  8
INTFCLR_3
100
AcDbLine
 62
7
  6
CONTINUOUS
 10
98.7403112084
 20
175.0854011082
 11
97.1403112084
 21
175.0854011082
  0
LINE
  5
378
100
AcDbEntity
  8
INTFCLR_3
100
AcDbLine
 62
7
  6
CONTINUOUS
 10
160.5903112084
 20
175.1854485777
 11
157.9903112084
 21
175.1854485777
  0
LINE
  5
379
100
AcDbEntity
  8
INTFCLR_3
100
AcDbLine
 62
7
  6
CONTINUOUS
 10
156.1902693235
 20
175.1854485777
 11
154.6903530932
 21
175.1854485777
  0
LINE
  5
37A
100
AcDbEntity
  8
INTFCLR_3
100
AcDbLine
 62
7
  6
CONTINUOUS
 10
23.4903112084
 20
175.1854485777
 11
20.8903112084
 21
175.1854485777
  0
LINE
  5
37B
100
AcDbEntity
  8
INTFCLR_3
100
AcDbLine
 62
7
  6
CONTINUOUS
 10
98.7403112084
 20
175.6854485777
 11
97.1403112084
 21
175.6854485777
  0
LINE
  5
37C
100
AcDbEntity
  8
INTFCLR_3
100
AcDbLine
 62
7
  6
CONTINUOUS
 10
114.4403112084
 20
179.2854485777
 11
96.7403112084
 21
179.2854485777
  0
LINE
  5
37D
100
AcDbEntity
  8
INTFCLR_3
100
AcDbLine
 62
7
  6
CONTINUOUS
 10
147.2303112084
 20
82.0854485777
 11
147.2303112084
 21
69.1854485777
  0
LINE
  5
37E
100
AcDbEntity
  8
INTFCLR_3
100
AcDbLine
 62
7
  6
CONTINUOUS
 10
147.4903112084
 20
132.9854485777
 11
147.4903112084
 21
126.9854485777
  0
LINE
  5
37F
100
AcDbEntity
  8
INTFCLR_3
100
AcDbLine
 62
7
  6
CONTINUOUS
 10
148.5653112084
 20
82.0854485777
 11
148.5653112084
 21
69.1854485777
  0
LINE
  5
380
100
AcDbEntity
  8
INTFCLR_3
100
AcDbLine
 62
7
  6
CONTINUOUS
 10
148.7402677003
 20
157.2854485777
 11
148.7402677003
 21
160.2854485777
  0
LINE
  5
381
100
AcDbEntity
  8
INTFCLR_3
100
AcDbLine
 62
7
  6
CONTINUOUS
 10
150.3653112084
 20
87.1854485777
 11
150.3653112084
 21
69.1854485777
  0
LINE
  5
382
100
AcDbEntity
  8
INTFCLR_3
100
AcDbLine
 62
7
  6
CONTINUOUS
 10
150.7403112084
 20
132.9854485777
 11
150.7403112084
 21
84.7854485777
  0
LINE
  5
383
100
AcDbEntity
  8
INTFCLR_3
100
AcDbLine
 62
7
  6
CONTINUOUS
 10
114.4403112084
 20
180.4854485777
 11
96.7403112084
 21
180.4854485777
  0
LINE
  5
384
100
AcDbEntity
  8
INTFCLR_3
100
AcDbLine
 62
7
  6
CONTINUOUS
 10
114.1402770653
 20
181.7854485777
 11
97.0403453514
 21
181.7854485777
  0
LINE
  5
385
100
AcDbEntity
  8
INTFCLR_3
100
AcDbLine
 62
7
  6
CONTINUOUS
 10
151.9403112084
 20
157.2854485777
 11
151.9403112084
 21
134.7854485777
  0
LINE
  5
386
100
AcDbEntity
  8
INTFCLR_3
100
AcDbLine
 62
7
  6
CONTINUOUS
 10
151.9903112084
 20
87.4854485777
 11
151.9903112084
 21
69.1854485777
  0
LINE
  5
387
100
AcDbEntity
  8
INTFCLR_3
100
AcDbLine
 62
7
  6
CONTINUOUS
 10
153.482672976
 20
69.1854485777
 11
153.482672976
 21
75.1854485777
  0
LINE
  5
388
100
AcDbEntity
  8
INTFCLR_3
100
AcDbLine
 62
7
  6
CONTINUOUS
 10
154.3903112084
 20
160.2854485777
 11
154.3903112084
 21
145.2854485777
  0
LINE
  5
389
100
AcDbEntity
  8
INTFCLR_3
100
AcDbLine
 62
7
  6
CONTINUOUS
 10
154.4653112084
 20
82.0854485777
 11
154.4653112084
 21
69.1854485777
  0
LINE
  5
38A
100
AcDbEntity
  8
INTFCLR_3
100
AcDbLine
 62
7
  6
CONTINUOUS
 10
154.6903112084
 20
175.1854485777
 11
154.6903112084
 21
172.5104485777
  0
LINE
  5
38B
100
AcDbEntity
  8
INTFCLR_3
100
AcDbLine
 62
7
  6
CONTINUOUS
 10
155.7403112084
 20
169.7854485777
 11
155.7403112084
 21
141.2354485777
  0
LINE
  5
38C
100
AcDbEntity
  8
INTFCLR_3
100
AcDbLine
 62
7
  6
CONTINUOUS
 10
155.9903112084
 20
134.7854485777
 11
155.9903112084
 21
69.1854485777
  0
LINE
  5
38D
100
AcDbEntity
  8
INTFCLR_3
100
AcDbLine
 62
7
  6
CONTINUOUS
 10
156.1902693235
 20
172.5104485777
 11
156.1902693235
 21
175.1854485777
  0
LINE
  5
38E
100
AcDbEntity
  8
INTFCLR_3
100
AcDbLine
 62
7
  6
CONTINUOUS
 10
157.3903112084
 20
160.2854485777
 11
157.3903112084
 21
145.2854485777
  0
LINE
  5
38F
100
AcDbEntity
  8
INTFCLR_3
100
AcDbLine
 62
7
  6
CONTINUOUS
 10
157.7403112084
 20
160.2854485777
 11
157.7403112084
 21
145.7854485777
  0
LINE
  5
390
100
AcDbEntity
  8
INTFCLR_3
100
AcDbLine
 62
7
  6
CONTINUOUS
 10
157.7903112084
 20
167.8854485777
 11
157.7903112084
 21
166.5854485777
  0
LINE
  5
391
100
AcDbEntity
  8
INTFCLR_3
100
AcDbLine
 62
7
  6
CONTINUOUS
 10
157.9903112084
 20
175.1854485777
 11
157.9903112084
 21
172.5104485777
  0
LINE
  5
392
100
AcDbEntity
  8
INTFCLR_3
100
AcDbLine
 62
7
  6
CONTINUOUS
 10
158.1903112084
 20
134.7854485777
 11
158.1903112084
 21
142.7854485777
  0
LINE
  5
393
100
AcDbEntity
  8
INTFCLR_3
100
AcDbLine
 62
7
  6
CONTINUOUS
 10
158.3403112084
 20
160.2854485777
 11
158.3403112084
 21
134.7854485777
  0
LINE
  5
394
100
AcDbEntity
  8
INTFCLR_3
100
AcDbLine
 62
7
  6
CONTINUOUS
 10
158.4903112084
 20
172.7854485777
 11
158.4903112084
 21
169.7854485777
  0
LINE
  5
395
100
AcDbEntity
  8
INTFCLR_3
100
AcDbLine
 62
7
  6
CONTINUOUS
 10
159.3903112084
 20
150.4854485777
 11
159.3903112084
 21
134.7854485777
  0
LINE
  5
396
100
AcDbEntity
  8
INTFCLR_3
100
AcDbLine
 62
7
  6
CONTINUOUS
 10
159.7903112084
 20
165.5854485777
 11
159.7903112084
 21
164.2854485777
  0
LINE
  5
397
100
AcDbEntity
  8
INTFCLR_3
100
AcDbLine
 62
7
  6
CONTINUOUS
 10
159.7903112084
 20
163.2854485777
 11
159.7903112084
 21
161.9854485777
  0
LINE
  5
398
100
AcDbEntity
  8
INTFCLR_3
100
AcDbLine
 62
7
  6
CONTINUOUS
 10
159.7903112084
 20
160.9854485777
 11
159.7903112084
 21
159.6854485777
  0
LINE
  5
399
100
AcDbEntity
  8
INTFCLR_3
100
AcDbLine
 62
7
  6
CONTINUOUS
 10
159.7903112084
 20
158.6854485777
 11
159.7903112084
 21
157.3854485777
  0
LINE
  5
39A
100
AcDbEntity
  8
INTFCLR_3
100
AcDbLine
 62
7
  6
CONTINUOUS
 10
159.7903112084
 20
156.3854485777
 11
159.7903112084
 21
155.0854485777
  0
LINE
  5
39B
100
AcDbEntity
  8
INTFCLR_3
100
AcDbLine
 62
7
  6
CONTINUOUS
 10
159.7903112084
 20
154.0854485777
 11
159.7903112084
 21
152.7854485777
  0
LINE
  5
39C
100
AcDbEntity
  8
INTFCLR_3
100
AcDbLine
 62
7
  6
CONTINUOUS
 10
159.7903112084
 20
151.7854485777
 11
159.7903112084
 21
150.4854485777
  0
LINE
  5
39D
100
AcDbEntity
  8
INTFCLR_3
100
AcDbLine
 62
7
  6
CONTINUOUS
 10
159.7903112084
 20
149.4854485777
 11
159.7903112084
 21
148.1854485777
  0
LINE
  5
39E
100
AcDbEntity
  8
INTFCLR_3
100
AcDbLine
 62
7
  6
CONTINUOUS
 10
160.4903112084
 20
166.5854485777
 11
160.4903112084
 21
165.5854485777
  0
LINE
  5
39F
100
AcDbEntity
  8
INTFCLR_3
100
AcDbLine
 62
7
  6
CONTINUOUS
 10
160.4903112084
 20
164.2854485777
 11
160.4903112084
 21
163.2854485777
  0
LINE
  5
3A0
100
AcDbEntity
  8
INTFCLR_3
100
AcDbLine
 62
7
  6
CONTINUOUS
 10
160.4903112084
 20
161.9854485777
 11
160.4903112084
 21
160.9854485777
  0
LINE
  5
3A1
100
AcDbEntity
  8
INTFCLR_3
100
AcDbLine
 62
7
  6
CONTINUOUS
 10
160.4903112084
 20
159.6854485777
 11
160.4903112084
 21
158.6854485777
  0
LINE
  5
3A2
100
AcDbEntity
  8
INTFCLR_3
100
AcDbLine
 62
7
  6
CONTINUOUS
 10
160.4903112084
 20
157.3854485777
 11
160.4903112084
 21
156.3854485777
  0
LINE
  5
3A3
100
AcDbEntity
  8
INTFCLR_3
100
AcDbLine
 62
7
  6
CONTINUOUS
 10
160.4903112084
 20
155.0854485777
 11
160.4903112084
 21
154.0854485777
  0
LINE
  5
3A4
100
AcDbEntity
  8
INTFCLR_3
100
AcDbLine
 62
7
  6
CONTINUOUS
 10
160.4903112084
 20
152.7854485777
 11
160.4903112084
 21
151.7854485777
  0
LINE
  5
3A5
100
AcDbEntity
  8
INTFCLR_3
100
AcDbLine
 62
7
  6
CONTINUOUS
 10
160.4903112084
 20
150.4854485777
 11
160.4903112084
 21
149.4854485777
  0
LINE
  5
3A6
100
AcDbEntity
  8
INTFCLR_3
100
AcDbLine
 62
7
  6
CONTINUOUS
 10
160.5903112084
 20
175.1854485777
 11
160.5903112084
 21
134.7854485777
  0
ENDSEC
  0
SECTION
  2
OBJECTS
  0
DICTIONARY
  5
C
100
AcDbDictionary
280
0
281
1
  3
ACAD_GROUP
350
D
  3
ACAD_MLINESTYLE
350
17
  3
ACAD_LAYOUT
350
1A
  3
ACAD_PLOTSETTINGS
350
19
  3
ACAD_PLOTSTYLENAME
350
E
  0
DICTIONARY
  5
D
102
{ACAD_REACTORS
330
C
102
}
100
AcDbDictionary
280
0
281
1
  0
ACDBDICTIONARYWDFLT
  5
E
102
{ACAD_REACTORS
330
C
102
}
100
AcDbDictionary
281
1
  3
Normal
350
F
100
AcDbDictionaryWithDefault
340
F
  0
DICTIONARY
  5
17
102
{ACAD_REACTORS
330
C
102
}
100
AcDbDictionary
280
0
281
1
  3
Standard
350
18
  0
DICTIONARY
  5
19
102
{ACAD_REACTORS
330
C
102
}
100
AcDbDictionary
281
1
  0
DICTIONARY
  5
1A
102
{ACAD_REACTORS
330
C
102
}
100
AcDbDictionary
281
1
  3
Model
350
3A7
  3
Layout1
350
3A8
  0
ACDBPLACEHOLDER
  5
F
102
{ACAD_REACTORS
330
E
102
}
  0
MLINESTYLE
  5
18
102
{ACAD_REACTORS
330
17
102
}
100
AcDbMlineStyle
  2
STANDARD
 70
0
  3

 62
256
 51
90.0
 52
90.0
 71
2
 49
0.5
 62
256
  6
BYLAYER
 49
-0.5
 62
256
  6
BYLAYER
  0
LAYOUT
  5
3A7
102
{ACAD_REACTORS
330
1A
102
}
100
AcDbPlotSettings
  1

  2
none_device
  4

  6

 40
0.0
 41
0.0
 42
0.0
 43
0.0
 44
210.0
 45
297.0
 46
0.0
 47
0.0
 48
0.0
 49
0.0
140
0.0
141
0.0
142
1.0
143
1.0
 70
1024
 72
1
 73
0
 74
0
  7

 75
0
147
1.0
148
0.0
149
0.0
100
AcDbLayout
  1
Model
 70
0
 71
0
 10
0.0
 20
0.0
 11
210.0
 21
297.0
 12
0.0
 22
0.0
 32
0.0
 14
0.0
 24
0.0
 34
0.0
 15
0.0
 25
0.0
 35
0.0
146
0.0
 13
0.0
 23
0.0
 33
0.0
 16
1.0
 26
0.0
 36
0.0
 17
0.0
 27
1.0
 37
0.0
 76
0
330
212
345
0
346
0
  0
LAYOUT
  5
3A8
102
{ACAD_REACTORS
330
1A
102
}
100
AcDbPlotSettings
  1

  2
none_device
  4

  6

 40
0.0
 41
0.0
 42
0.0
 43
0.0
 44
210.0
 45
297.0
 46
0.0
 47
0.0
 48
0.0
 49
0.0
140
0.0
141
0.0
142
1.0
143
1.0
 70
0
 72
1
 73
0
 74
0
  7

 75
0
147
1.0
148
0.0
149
0.0
100
AcDbLayout
  1
Layout1
 70
0
 71
1
 10
0.0
 20
0.0
 11
210.0
 21
297.0
 12
0.0
 22
0.0
 32
0.0
 14
0.0
 24
0.0
 34
0.0
 15
0.0
 25
0.0
 35
0.0
146
0.0
 13
0.0
 23
0.0
 33
0.0
 16
1.0
 26
0.0
 36
0.0
 17
0.0
 27
1.0
 37
0.0
 76
0
330
213
345
0
346
0
  0
ENDSEC
  0
EOF
