999
DXF file: C:\Users\sesa63760\Dev\_Creo\CAD\MCADID0005789_3D-CAD\mcadid0005789_3d-simplified_1.dxf
999
Pro/ENGINEER 2019471 by Parametric Technology Corporation
  0
SECTION
  2
HEADER
  9
$ACADVER
  1
AC1024
  9
$DWGCODEPAGE
  3
ANSI_1252
  9
$EXTMAX
 10
76.4438237838
 20
108.1134079228
 30
0.0
  9
$EXTMIN
 10
0.0
 20
0.0
 30
0.0
  9
$LIMMIN
 10
0.0
 20
0.0
  9
$LIMMAX
 10
76.4438237838
 20
108.1134079228
  9
$VIEWCTR
 10
38.2219118919
 20
54.0567039614
  9
$VIEWSIZE
 40
108.1134079228
  9
$CLAYER
  8
0
  9
$LTSCALE
 40
7.0473925164
  9
$CELTYPE
  6
BYLAYER
  9
$DIMSCALE
 40
1.0
  9
$DIMASZ
 40
0.9100455212
  9
$DIMEXO
 40
1.0
  9
$DIMDLI
 40
4.8691075568
  9
$DIMEXE
 40
1.0
  9
$DIMCEN
 40
1.1532096845
  9
$DIMLFAC
 40
1.0
  9
$DIMBLK
  1
_FILLED
  9
$DIMALT
 70
0
  9
$DIMALTF
 40
0.0393700787
  9
$DIMTXT
 40
1.2740637297
  9
$DIMTOL
 70
1
  9
$DIMLIM
 70
0
  9
$DIMTFAC
 40
1.0
  9
$DIMTP
 40
0.01
  9
$DIMTM
 40
0.01
  9
$DIMGAP
 40
0.625
  9
$DIMDSEP
 70
46
  9
$AUNITS
 70
0
  9
$PDMODE
 70
3
  9
$PDSIZE
 40
0.3125
  9
$HANDSEED
  5
2F7
  9
$TILEMODE
 70
1
  9
$MEASUREMENT
 70
1
  9
$INSUNITS
 70
4
  0
ENDSEC
  0
SECTION
  2
CLASSES
  0
CLASS
  1
ACDBDICTIONARYWDFLT
  2
AcDbDictionaryWithDefault
  3
AutoCAD 2000
 90
0
 91
1
280
0
281
0
  0
CLASS
  1
ACDBPLACEHOLDER
  2
AcDbPlaceHolder
  3
AutoCAD 2000
 90
0
 91
1
280
0
281
0
  0
CLASS
  1
LAYOUT
  2
AcDbLayout
  3
AutoCAD 2000
 90
0
 91
0
280
0
281
0
  0
ENDSEC
  0
SECTION
  2
TABLES
  0
TABLE
  2
VPORT
  5
8
100
AcDbSymbolTable
 70
2
  0
VPORT
  5
1F4
100
AcDbSymbolTableRecord
100
AcDbViewportTableRecord
  2
*ACTIVE
 70
0
 10
0.0
 20
0.0
 11
1.0
 21
1.0
 12
38.2219118919
 22
54.0567039614
 13
0.0
 23
0.0
 14
1.0
 24
1.0
 15
0.0
 25
0.0
 16
0.0
 26
0.0
 36
1.0
 17
0.0
 27
0.0
 37
0.0
 40
108.1134079228
 41
0.7070707071
 42
50.0
 43
0.0
 44
0.0
 50
0.0
 51
0.0
 71
0
 72
100
 73
1
 74
1
 75
0
 76
0
 77
0
 78
0
  0
ENDTAB
  0
TABLE
  2
LTYPE
  5
5
100
AcDbSymbolTable
 70
6
  0
LTYPE
  5
14
100
AcDbSymbolTableRecord
100
AcDbLinetypeTableRecord
  2
BYBLOCK
 70
0
  3

 72
65
 73
0
 40
0.0
  0
LTYPE
  5
15
100
AcDbSymbolTableRecord
100
AcDbLinetypeTableRecord
  2
BYLAYER
 70
0
  3

 72
65
 73
0
 40
0.0
  0
LTYPE
  5
16
100
AcDbSymbolTableRecord
100
AcDbLinetypeTableRecord
  2
CONTINUOUS
 70
64
  3
Solid line
 72
65
 73
0
 40
0.0
  0
LTYPE
  5
1F5
100
AcDbSymbolTableRecord
100
AcDbLinetypeTableRecord
  2
CENTER
 70
64
  3
____ _ ____ _ ____ _ ____ _ ____ _ ____ _ ____
 72
65
 73
4
 40
0.6
 49
0.375
 74
0
 49
-0.075
 74
0
 49
0.075
 74
0
 49
-0.075
 74
0
  0
LTYPE
  5
1F6
100
AcDbSymbolTableRecord
100
AcDbLinetypeTableRecord
  2
HIDDEN
 70
64
  3
- - - - - - - - - - - - - - - - - - - -
 72
65
 73
2
 40
0.2
 49
0.1
 74
0
 49
-0.1
 74
0
  0
LTYPE
  5
1F7
100
AcDbSymbolTableRecord
100
AcDbLinetypeTableRecord
  2
PHANTOM
 70
64
  3
_____ _ _ _____ _ _ _____ _ _ _____
 72
65
 73
6
 40
0.8
 49
0.45
 74
0
 49
-0.05
 74
0
 49
0.1
 74
0
 49
-0.05
 74
0
 49
0.1
 74
0
 49
-0.05
 74
0
  0
LTYPE
  5
1F8
100
AcDbSymbolTableRecord
100
AcDbLinetypeTableRecord
  2
DOT
 70
64
  3
. . . . . . . . . . . . . . . . . . . .
 72
65
 73
2
 40
0.2
 49
0.1
 74
0
 49
-0.1
 74
0
  0
LTYPE
  5
1F9
100
AcDbSymbolTableRecord
100
AcDbLinetypeTableRecord
  2
DASHED
 70
64
  3
- - - - - - - - - - - - - - - - - - - -
 72
65
 73
2
 40
0.2
 49
0.1
 74
0
 49
-0.1
 74
0
  0
ENDTAB
  0
TABLE
  2
LAYER
  5
2
100
AcDbSymbolTable
 70
36
  0
LAYER
  5
10
100
AcDbSymbolTableRecord
100
AcDbLayerTableRecord
  2
0
 70
0
 62
7
  6
CONTINUOUS
370
-3
390
F
  0
LAYER
  5
1FA
100
AcDbSymbolTableRecord
100
AcDbLayerTableRecord
  2
DEFAULT_1
 70
0
 62
7
  6
CENTER
370
-3
390
F
  0
LAYER
  5
1FB
100
AcDbSymbolTableRecord
100
AcDbLayerTableRecord
  2
DEFAULT_2
 70
0
 62
7
  6
HIDDEN
370
-3
390
F
  0
LAYER
  5
1FC
100
AcDbSymbolTableRecord
100
AcDbLayerTableRecord
  2
DEFAULT_3
 70
0
 62
7
  6
PHANTOM
370
-3
390
F
  0
LAYER
  5
1FD
100
AcDbSymbolTableRecord
100
AcDbLayerTableRecord
  2
00_COMPONENTS
 70
0
 62
7
  6
CONTINUOUS
370
-3
390
F
  0
LAYER
  5
1FE
100
AcDbSymbolTableRecord
100
AcDbLayerTableRecord
  2
01_1_DEFAULT_DATUMS
 70
0
 62
7
  6
CONTINUOUS
370
-3
390
F
  0
LAYER
  5
1FF
100
AcDbSymbolTableRecord
100
AcDbLayerTableRecord
  2
01_PLANES
 70
0
 62
7
  6
CONTINUOUS
370
-3
390
F
  0
LAYER
  5
200
100
AcDbSymbolTableRecord
100
AcDbLayerTableRecord
  2
02_COORD_SYS
 70
0
 62
7
  6
CONTINUOUS
370
-3
390
F
  0
LAYER
  5
201
100
AcDbSymbolTableRecord
100
AcDbLayerTableRecord
  2
03_AXES
 70
0
 62
7
  6
CONTINUOUS
370
-3
390
F
  0
LAYER
  5
202
100
AcDbSymbolTableRecord
100
AcDbLayerTableRecord
  2
04_POINTS
 70
0
 62
7
  6
CONTINUOUS
370
-3
390
F
  0
LAYER
  5
203
100
AcDbSymbolTableRecord
100
AcDbLayerTableRecord
  2
05_CURVES
 70
0
 62
7
  6
CONTINUOUS
370
-3
390
F
  0
LAYER
  5
204
100
AcDbSymbolTableRecord
100
AcDbLayerTableRecord
  2
06_SURFS
 70
0
 62
7
  6
CONTINUOUS
370
-3
390
F
  0
LAYER
  5
205
100
AcDbSymbolTableRecord
100
AcDbLayerTableRecord
  2
07_COSMETICS
 70
0
 62
7
  6
CONTINUOUS
370
-3
390
F
  0
LAYER
  5
206
100
AcDbSymbolTableRecord
100
AcDbLayerTableRecord
  2
10_NOTES
 70
0
 62
7
  6
CONTINUOUS
370
-3
390
F
  0
LAYER
  5
207
100
AcDbSymbolTableRecord
100
AcDbLayerTableRecord
  2
11_NOTES_PUB
 70
0
 62
7
  6
CONTINUOUS
370
-3
390
F
  0
LAYER
  5
208
100
AcDbSymbolTableRecord
100
AcDbLayerTableRecord
  2
13_REF_GTOL
 70
0
 62
7
  6
CONTINUOUS
370
-3
390
F
  0
LAYER
  5
209
100
AcDbSymbolTableRecord
100
AcDbLayerTableRecord
  2
16_MISC
 70
0
 62
7
  6
CONTINUOUS
370
-3
390
F
  0
LAYER
  5
20A
100
AcDbSymbolTableRecord
100
AcDbLayerTableRecord
  2
17_NO_PRINT
 70
0
 62
7
  6
CONTINUOUS
370
-3
390
F
  0
LAYER
  5
20B
100
AcDbSymbolTableRecord
100
AcDbLayerTableRecord
  2
18_DATUM_CAMS_JOINTS
 70
0
 62
7
  6
CONTINUOUS
370
-3
390
F
  0
LAYER
  5
20C
100
AcDbSymbolTableRecord
100
AcDbLayerTableRecord
  2
19_DATUM_FUNCTIONAL
 70
0
 62
7
  6
CONTINUOUS
370
-3
390
F
  0
LAYER
  5
20D
100
AcDbSymbolTableRecord
100
AcDbLayerTableRecord
  2
20_DATUM_KINEMATIC_SCHEME
 70
0
 62
7
  6
CONTINUOUS
370
-3
390
F
  0
ENDTAB
  0
TABLE
  2
STYLE
  5
3
100
AcDbSymbolTable
 70
1
  0
STYLE
  5
11
100
AcDbSymbolTableRecord
100
AcDbTextStyleTableRecord
  2
STANDARD
 70
0
 40
0.0
 41
1.0
 50
0.0
 71
0
 42
0.2
  3
ARIAL.TTF
  4

  0
STYLE
  5
20E
100
AcDbSymbolTableRecord
100
AcDbTextStyleTableRecord
  2
TEXTSTYLE_1
 70
0
 40
0.0
 41
0.8
 50
0.0
 71
0
 42
0.2
  3
gdt
  4

  0
ENDTAB
  0
TABLE
  2
VIEW
  5
6
100
AcDbSymbolTable
 70
0
  0
ENDTAB
  0
TABLE
  2
UCS
  5
7
100
AcDbSymbolTable
 70
0
  0
ENDTAB
  0
TABLE
  2
APPID
  5
9
100
AcDbSymbolTable
 70
1
  0
APPID
  5
20F
100
AcDbSymbolTableRecord
100
AcDbRegAppTableRecord
  2
ACAD
 70
0
  0
ENDTAB
  0
TABLE
  2
BLOCK_RECORD
  5
1
100
AcDbSymbolTable
 70
0
  0
BLOCK_RECORD
  5
210
100
AcDbSymbolTableRecord
100
AcDbBlockTableRecord
  2
*Model_Space
  0
BLOCK_RECORD
  5
211
100
AcDbSymbolTableRecord
100
AcDbBlockTableRecord
  2
*Paper_Space
  0
BLOCK_RECORD
  5
212
100
AcDbSymbolTableRecord
100
AcDbBlockTableRecord
  2
_FILLED
  0
ENDTAB
  0
TABLE
  2
DIMSTYLE
  5
A
100
AcDbSymbolTable
 70
1
100
AcDbDimStyleTable
 71
0
  0
DIMSTYLE
105
213
100
AcDbSymbolTableRecord
100
AcDbDimStyleTableRecord
  2
STANDARD
 70
0
  3

  4

 40
1.0
 41
0.9100455212
 42
1.0
 43
0.38
 44
1.0
 45
0.0
 46
0.0
 47
0.01
 48
0.01
140
1.2740637297
141
0.09
142
0.0
143
25.4
144
1.0
145
0.0
146
1.0
147
0.625
 71
1
 72
0
 73
0
 74
0
 75
0
 76
0
 77
1
 78
8
 79
2
170
0
171
1
172
0
173
0
174
0
175
0
176
0
177
0
178
0
270
2
179
2
271
2
272
2
273
2
274
2
275
0
280
0
281
0
282
0
283
1
284
8
285
0
286
0
287
3
288
0
340
11
278
46
341
212
342
212
343
212
344
212
  0
ENDTAB
  0
ENDSEC
  0
SECTION
  2
BLOCKS
  0
BLOCK
  5
20
100
AcDbEntity
  8
0
100
AcDbBlockBegin
  2
*Model_Space
 70
0
 10
0.0
 20
0.0
 30
0.0
  3
*Model_Space
  1

  0
ENDBLK
  5
21
100
AcDbEntity
  8
0
100
AcDbBlockEnd
  0
BLOCK
  5
1C
100
AcDbEntity
  8
0
100
AcDbBlockBegin
  2
*Paper_Space
 70
0
 10
0.0
 20
0.0
 30
0.0
  3
*Paper_Space
  1

  0
ENDBLK
  5
1D
100
AcDbEntity
  8
0
100
AcDbBlockEnd
  0
BLOCK
  5
214
100
AcDbEntity
  8
0
100
AcDbBlockBegin
  2
_FILLED
 70
64
 10
0.0
 20
0.0
  3
_FILLED
  1

  0
SOLID
  5
215
100
AcDbEntity
  8
0
  6
BYBLOCK
 62
0
100
AcDbTrace
 10
0.0
 20
0.0
 11
-1.0
 21
0.25
 12
-1.0
 22
-0.25
 13
-1.0
 23
-0.25
  0
ENDBLK
  5
216
100
AcDbEntity
  8
0
  6
BYBLOCK
 62
0
100
AcDbBlockEnd
  0
ENDSEC
  0
SECTION
  2
ENTITIES
  0
LWPOLYLINE
  5
217
100
AcDbEntity
  8
0
100
AcDbPolyline
 62
7
  6
BYLAYER
 90
3
 70
0
 10
10.2507026956
 20
48.0211020456
 10
10.2736549115
 20
48.1834963938
 10
11.4202974282
 20
50.2699384542
  0
LINE
  5
218
100
AcDbEntity
  8
0
100
AcDbLine
 62
7
  6
BYLAYER
 10
23.8685990172
 20
73.8899681837
 11
22.1008394242
 21
72.869357799
  0
LINE
  5
219
100
AcDbEntity
  8
0
100
AcDbLine
 62
7
  6
BYLAYER
 10
30.7509951371
 20
30.7373332143
 11
34.5565772326
 21
28.5402290721
  0
LINE
  5
21A
100
AcDbEntity
  8
0
100
AcDbLine
 62
7
  6
BYLAYER
 10
25.6363733301
 20
72.8693662974
 11
23.868613737
 21
71.8487559127
  0
LINE
  5
21B
100
AcDbEntity
  8
0
100
AcDbLine
 62
7
  6
BYLAYER
 10
35.1222650127
 20
29.6704486759
 11
32.0126495537
 21
31.4657453833
  0
LINE
  5
21C
100
AcDbEntity
  8
0
100
AcDbLine
 62
7
  6
BYLAYER
 10
30.2431384316
 20
72.5773719601
 11
27.4257234109
 21
70.9507463491
  0
LINE
  5
21D
100
AcDbEntity
  8
0
100
AcDbLine
 62
7
  6
BYLAYER
 10
44.8828641875
 20
80.5192588662
 11
40.7351301314
 21
78.1245777867
  0
LINE
  5
21E
100
AcDbEntity
  8
0
100
AcDbLine
 62
7
  6
BYLAYER
 10
32.8771068492
 20
72.7712847027
 11
41.4422398565
 21
77.7163370322
  0
LINE
  5
21F
100
AcDbEntity
  8
0
100
AcDbLine
 62
7
  6
BYLAYER
 10
45.8123948668
 20
79.8451025634
 11
42.3431097686
 21
77.8614869208
  0
LINE
  5
220
100
AcDbEntity
  8
0
100
AcDbLine
 62
7
  6
BYLAYER
 10
22.1008394242
 20
72.869357799
 11
22.1008394242
 21
57.9489866121
  0
LINE
  5
221
100
AcDbEntity
  8
0
100
AcDbLine
 62
7
  6
BYLAYER
 10
40.7351301314
 20
78.1245777867
 11
38.5922645791
 21
76.0709128605
  0
LINE
  5
222
100
AcDbEntity
  8
0
100
AcDbLine
 62
7
  6
BYLAYER
 10
15.0150705381
 20
54.5590445527
 11
15.0220020425
 21
54.5649744416
  0
LINE
  5
223
100
AcDbEntity
  8
0
100
AcDbLine
 62
7
  6
BYLAYER
 10
61.700933482
 20
39.8921620671
 11
54.7621393002
 21
39.1232587038
  0
LINE
  5
224
100
AcDbEntity
  8
0
100
AcDbLine
 62
7
  6
BYLAYER
 10
37.2435941882
 20
34.814445266
 11
40.1533507072
 21
33.1345345611
  0
LINE
  5
225
100
AcDbEntity
  8
0
100
AcDbLine
 62
7
  6
BYLAYER
 10
40.7190384873
 20
34.8491980003
 11
38.1628368309
 21
36.3249883279
  0
LINE
  5
226
100
AcDbEntity
  8
0
100
AcDbLine
 62
7
  6
BYLAYER
 10
23.868613737
 20
57.9556303688
 11
23.868613737
 21
71.8487559127
  0
LINE
  5
227
100
AcDbEntity
  8
0
100
AcDbLine
 62
7
  6
BYLAYER
 10
24.1090276697
 20
57.9498026071
 11
24.1090276697
 21
61.1886844127
  0
LINE
  5
228
100
AcDbEntity
  8
0
100
AcDbLine
 62
7
  6
BYLAYER
 10
30.702793903
 20
67.576403001
 11
26.3187501123
 21
65.045289247
  0
LINE
  5
229
100
AcDbEntity
  8
0
100
AcDbLine
 62
7
  6
BYLAYER
 10
46.9576957127
 20
74.532059147
 11
38.3925627053
 21
69.5870068175
  0
LINE
  5
22A
100
AcDbEntity
  8
0
100
AcDbLine
 62
7
  6
BYLAYER
 10
24.1090276697
 20
61.1886844127
 11
26.3187501123
 21
62.4644994806
  0
LINE
  5
22B
100
AcDbEntity
  8
0
100
AcDbLine
 62
7
  6
BYLAYER
 10
46.7844825365
 20
75.2806051373
 11
50.3070515852
 21
77.2946866756
  0
LINE
  5
22C
100
AcDbEntity
  8
0
100
AcDbLine
 62
7
  6
BYLAYER
 10
45.3045891195
 20
34.0795459337
 11
44.6603492876
 21
34.4514895595
  0
LINE
  5
22D
100
AcDbEntity
  8
0
100
AcDbLine
 62
7
  6
BYLAYER
 10
40.5493333308
 20
36.8251348426
 11
38.3661773486
 21
38.0855520221
  0
LINE
  5
22E
100
AcDbEntity
  8
0
100
AcDbLine
 62
7
  6
BYLAYER
 10
49.7593803879
 20
32.7323828059
 11
45.7210322042
 21
35.0638714715
  0
LINE
  5
22F
100
AcDbEntity
  8
0
100
AcDbLine
 62
7
  6
BYLAYER
 10
26.3187501123
 20
62.4644994806
 11
26.3187501123
 21
65.045289247
  0
LINE
  5
230
100
AcDbEntity
  8
0
100
AcDbLine
 62
7
  6
BYLAYER
 10
28.1112367603
 20
66.0801757183
 11
28.1112367603
 21
70.2157087503
  0
LWPOLYLINE
  5
231
100
AcDbEntity
  8
0
100
AcDbPolyline
 62
7
  6
BYLAYER
 90
6
 70
0
 10
11.4202974282
 20
50.2699384542
 10
13.2212638407
 20
51.4710727681
 10
15.5101177896
 20
51.6752845929
 10
18.0862598316
 20
50.867631611
 10
19.4116218618
 20
50.1031162745
 10
22.2612193342
 20
47.6361271335
  0
LINE
  5
232
100
AcDbEntity
  8
0
100
AcDbLine
 62
7
  6
BYLAYER
 10
47.6648054378
 20
74.1238183924
 11
51.812539494
 21
76.5184994719
  0
LINE
  5
233
100
AcDbEntity
  8
0
100
AcDbLine
 62
7
  6
BYLAYER
 10
51.9009282096
 20
76.4674693776
 11
47.7531941535
 21
74.0727882981
  0
LINE
  5
234
100
AcDbEntity
  8
0
100
AcDbLine
 62
7
  6
BYLAYER
 10
15.0141661248
 20
54.5606087807
 11
19.9716462784
 21
57.4228266321
  0
LINE
  5
235
100
AcDbEntity
  8
0
100
AcDbLine
 62
7
  6
BYLAYER
 10
11.8093529489
 20
52.6526175699
 11
15.0469193061
 21
54.5218162201
  0
LINE
  5
236
100
AcDbEntity
  8
0
100
AcDbLine
 62
7
  6
BYLAYER
 10
39.8951708712
 20
68.7194952141
 11
48.4603038786
 21
73.6645475436
  0
LINE
  5
237
100
AcDbEntity
  8
0
100
AcDbLine
 62
7
  6
BYLAYER
 10
52.8304588888
 20
75.7933130748
 11
49.3611737907
 21
73.8096974322
  0
LINE
  5
238
100
AcDbEntity
  8
0
100
AcDbLine
 62
7
  6
BYLAYER
 10
47.2845169577
 20
35.2227398696
 11
46.586873082
 21
35.625515637
  0
LINE
  5
239
100
AcDbEntity
  8
0
100
AcDbLine
 62
7
  6
BYLAYER
 10
48.640972552
 20
36.0058851974
 11
49.7593803879
 21
35.3601867399
  0
LWPOLYLINE
  5
23A
100
AcDbEntity
  8
0
100
AcDbPolyline
 62
7
  6
BYLAYER
 90
3
 70
0
 10
27.6270161526
 20
35.1412437272
 10
27.2319232922
 20
32.3458339989
 10
26.0852807755
 20
30.2593919385
  0
LINE
  5
23B
100
AcDbEntity
  8
0
100
AcDbLine
 62
7
  6
BYLAYER
 10
45.8123948668
 20
79.8451025634
 11
43.8765264099
 21
76.970418487
  0
LINE
  5
23C
100
AcDbEntity
  8
0
100
AcDbLine
 62
7
  6
BYLAYER
 10
46.9576957127
 20
74.532059147
 11
42.4041064141
 21
70.1680211787
  0
LINE
  5
23D
100
AcDbEntity
  8
0
100
AcDbLine
 62
7
  6
BYLAYER
 10
39.8951708712
 20
67.7635245824
 11
39.4011779433
 21
67.290094997
  0
LINE
  5
23E
100
AcDbEntity
  8
0
100
AcDbLine
 62
7
  6
BYLAYER
 10
45.2540816915
 20
71.8134453504
 11
47.6648054378
 21
74.1238183924
  0
LINE
  5
23F
100
AcDbEntity
  8
0
100
AcDbLine
 62
7
  6
BYLAYER
 10
47.7531941535
 20
74.0727882981
 11
45.6103286012
 21
72.0191233719
  0
LINE
  5
240
100
AcDbEntity
  8
0
100
AcDbLine
 62
7
  6
BYLAYER
 10
26.9821050022
 20
57.1401721462
 11
28.5140469659
 21
58.0246339719
  0
LINE
  5
241
100
AcDbEntity
  8
0
100
AcDbLine
 62
7
  6
BYLAYER
 10
49.7593803879
 20
35.3601867399
 11
48.6987246321
 21
36.0392281773
  0
LINE
  5
242
100
AcDbEntity
  8
0
100
AcDbLine
 62
7
  6
BYLAYER
 10
32.8771068492
 20
71.0566839877
 11
32.8771068492
 21
72.7712847027
  0
LINE
  5
243
100
AcDbEntity
  8
0
100
AcDbLine
 62
7
  6
BYLAYER
 10
53.9757597348
 20
70.4802696583
 11
45.4106267274
 21
65.5352173289
  0
LINE
  5
244
100
AcDbEntity
  8
0
100
AcDbLine
 62
7
  6
BYLAYER
 10
54.6828694599
 20
70.0720289038
 11
58.830603516
 21
72.4667099833
  0
LINE
  5
245
100
AcDbEntity
  8
0
100
AcDbLine
 62
7
  6
BYLAYER
 10
58.9189922317
 20
72.415679889
 11
54.7712581756
 21
70.0209988095
  0
LINE
  5
246
100
AcDbEntity
  8
0
100
AcDbLine
 62
7
  6
BYLAYER
 10
42.8403529429
 20
62.9368687399
 11
41.0725933499
 21
61.9162583552
  0
LINE
  5
247
100
AcDbEntity
  8
0
100
AcDbLine
 62
7
  6
BYLAYER
 10
46.9132348933
 20
64.6677057255
 11
55.4783679007
 21
69.612758055
  0
LINE
  5
248
100
AcDbEntity
  8
0
100
AcDbLine
 62
7
  6
BYLAYER
 10
53.8025465586
 20
71.2288156487
 11
57.3251156073
 21
73.242897187
  0
LINE
  5
249
100
AcDbEntity
  8
0
100
AcDbLine
 62
7
  6
BYLAYER
 10
51.0321672949
 20
43.6326773761
 11
54.2141345624
 21
42.6528427294
  0
LINE
  5
24A
100
AcDbEntity
  8
0
100
AcDbLine
 62
7
  6
BYLAYER
 10
53.556522518
 20
43.0325066311
 11
51.4352110063
 21
43.6857297289
  0
LINE
  5
24B
100
AcDbEntity
  8
0
100
AcDbLine
 62
7
  6
BYLAYER
 10
54.7621393002
 20
43.0966977241
 11
52.0751447188
 21
43.9694720289
  0
LINE
  5
24C
100
AcDbEntity
  8
0
100
AcDbLine
 62
7
  6
BYLAYER
 10
54.2141345624
 20
39.4396422292
 11
54.7621393002
 21
39.1232587038
  0
LINE
  5
24D
100
AcDbEntity
  8
0
100
AcDbLine
 62
7
  6
BYLAYER
 10
35.4758198753
 20
33.8121652945
 11
35.4758198753
 21
29.8745795072
  0
LINE
  5
24E
100
AcDbEntity
  8
0
100
AcDbLine
 62
7
  6
BYLAYER
 10
60.26341966
 20
71.5465049287
 11
56.7749075652
 21
69.5127610437
  0
LINE
  5
24F
100
AcDbEntity
  8
0
100
AcDbLine
 62
7
  6
BYLAYER
 10
37.3139498079
 20
58.6973513524
 11
41.0725933499
 21
60.8673922598
  0
LINE
  5
250
100
AcDbEntity
  8
0
100
AcDbLine
 62
7
  6
BYLAYER
 10
42.8403676627
 20
60.8956564689
 11
44.6081272558
 21
61.9162668536
  0
LINE
  5
251
100
AcDbEntity
  8
0
100
AcDbLine
 62
7
  6
BYLAYER
 10
51.0321672949
 20
43.91842186
 11
51.4352110063
 21
43.6857297289
  0
LINE
  5
252
100
AcDbEntity
  8
0
100
AcDbLine
 62
7
  6
BYLAYER
 10
37.2435941882
 20
30.0916233901
 11
37.2435941882
 21
34.814445266
  0
LINE
  5
253
100
AcDbEntity
  8
0
100
AcDbLine
 62
7
  6
BYLAYER
 10
38.3925627053
 20
69.5870068175
 11
38.3925627053
 21
67.8724061025
  0
LINE
  5
254
100
AcDbEntity
  8
0
100
AcDbLine
 62
7
  6
BYLAYER
 10
52.8304588889
 20
75.7933130748
 11
50.894590432
 21
72.9186289984
  0
LINE
  5
255
100
AcDbEntity
  8
0
100
AcDbLine
 62
7
  6
BYLAYER
 10
53.9757597348
 20
70.4802696583
 11
49.4221704362
 21
66.11623169
  0
LINE
  5
256
100
AcDbEntity
  8
0
100
AcDbLine
 62
7
  6
BYLAYER
 10
46.9132348933
 20
63.7117350938
 11
46.4192419653
 21
63.2383055084
  0
LINE
  5
257
100
AcDbEntity
  8
0
100
AcDbLine
 62
7
  6
BYLAYER
 10
52.2721457136
 20
67.7616558618
 11
54.6828694599
 21
70.0720289038
  0
LINE
  5
258
100
AcDbEntity
  8
0
100
AcDbLine
 62
7
  6
BYLAYER
 10
54.7712581756
 20
70.0209988095
 11
52.6283926233
 21
67.9673338832
  0
LINE
  5
259
100
AcDbEntity
  8
0
100
AcDbLine
 62
7
  6
BYLAYER
 10
61.2452306648
 20
66.9485944062
 11
64.6809192598
 21
68.9515415945
  0
LINE
  5
25A
100
AcDbEntity
  8
0
100
AcDbLine
 62
7
  6
BYLAYER
 10
54.2141345624
 20
42.6528427294
 11
53.556522518
 21
43.0325066311
  0
LINE
  5
25B
100
AcDbEntity
  8
0
100
AcDbLine
 62
7
  6
BYLAYER
 10
52.0751447188
 20
43.9694720289
 11
51.3680349937
 21
44.3777127834
  0
LINE
  5
25C
100
AcDbEntity
  8
0
100
AcDbLine
 62
7
  6
BYLAYER
 10
39.8951708712
 20
67.0048944991
 11
39.8951708712
 21
68.7194952141
  0
LINE
  5
25D
100
AcDbEntity
  8
0
100
AcDbLine
 62
7
  6
BYLAYER
 10
40.5493333308
 20
53.0554765228
 11
40.5493333308
 21
36.8251348426
  0
LINE
  5
25E
100
AcDbEntity
  8
0
100
AcDbLine
 62
7
  6
BYLAYER
 10
41.0725933499
 20
61.9162583552
 11
41.0725933499
 21
35.0533288316
  0
LINE
  5
25F
100
AcDbEntity
  8
0
100
AcDbLine
 62
7
  6
BYLAYER
 10
41.4862172115
 20
32.5410883133
 11
41.4862172115
 21
32.836009741
  0
LINE
  5
260
100
AcDbEntity
  8
0
100
AcDbLine
 62
7
  6
BYLAYER
 10
60.9938237568
 20
66.4284801697
 11
52.4286907495
 21
61.4834278403
  0
LINE
  5
261
100
AcDbEntity
  8
0
100
AcDbLine
 62
7
  6
BYLAYER
 10
47.2845169577
 20
58.0031573075
 11
51.3857192135
 21
60.3709733999
  0
LINE
  5
262
100
AcDbEntity
  8
0
100
AcDbLine
 62
7
  6
BYLAYER
 10
61.700933482
 20
66.0202394152
 11
65.8486675381
 21
68.4149204947
  0
LINE
  5
263
100
AcDbEntity
  8
0
100
AcDbLine
 62
7
  6
BYLAYER
 10
41.0725933499
 20
53.3575790323
 11
40.5493333308
 21
53.0554765228
  0
LINE
  5
264
100
AcDbEntity
  8
0
100
AcDbLine
 62
7
  6
BYLAYER
 10
37.3139498079
 20
58.6973513524
 11
40.5493333308
 21
53.0554765228
  0
LINE
  5
265
100
AcDbEntity
  8
0
100
AcDbLine
 62
7
  6
BYLAYER
 10
42.8403676627
 20
34.685928879
 11
42.8403676627
 21
60.8956564689
  0
LINE
  5
266
100
AcDbEntity
  8
0
100
AcDbLine
 62
7
  6
BYLAYER
 10
52.4286907495
 20
58.4623688969
 11
53.065084203
 21
58.8297886354
  0
LINE
  5
267
100
AcDbEntity
  8
0
100
AcDbLine
 62
7
  6
BYLAYER
 10
53.7721939281
 20
58.4215478808
 11
52.0751447188
 21
57.4417619116
  0
LINE
  5
268
100
AcDbEntity
  8
0
100
AcDbLine
 62
7
  6
BYLAYER
 10
51.3857192135
 20
55.227008172
 11
52.0928230507
 21
55.6352523259
  0
LINE
  5
269
100
AcDbEntity
  8
0
100
AcDbLine
 62
7
  6
BYLAYER
 10
26.3187501123
 20
65.045289247
 11
37.3139498079
 21
58.6973513524
  0
LINE
  5
26A
100
AcDbEntity
  8
0
100
AcDbLine
 62
7
  6
BYLAYER
 10
25.6363733301
 20
72.8693662974
 11
28.1112367603
 21
70.2157087503
  0
LINE
  5
26B
100
AcDbEntity
  8
0
100
AcDbLine
 62
7
  6
BYLAYER
 10
45.3045891195
 20
34.8234393797
 11
45.3045891195
 21
34.0795459337
  0
LINE
  5
26C
100
AcDbEntity
  8
0
100
AcDbLine
 62
7
  6
BYLAYER
 10
45.4106267274
 20
65.5352173289
 11
45.4106267274
 21
63.8206166139
  0
LINE
  5
26D
100
AcDbEntity
  8
0
100
AcDbLine
 62
7
  6
BYLAYER
 10
46.9132348933
 20
62.9531050105
 11
46.9132348933
 21
64.6677057255
  0
LINE
  5
26E
100
AcDbEntity
  8
0
100
AcDbLine
 62
7
  6
BYLAYER
 10
47.082990686
 20
37.1353938023
 11
47.082990686
 21
59.2626093065
  0
LWPOLYLINE
  5
26F
100
AcDbEntity
  8
0
100
AcDbPolyline
 62
7
  6
BYLAYER
 90
3
 70
0
 10
38.7385764053
 20
39.031006243
 10
39.8585706849
 20
40.9207359627
 10
40.2488116976
 20
43.5306565003
  0
LINE
  5
270
100
AcDbEntity
  8
0
100
AcDbLine
 62
7
  6
BYLAYER
 10
60.9938237568
 20
66.4284801697
 11
53.065084203
 21
58.8297886354
  0
LINE
  5
271
100
AcDbEntity
  8
0
100
AcDbLine
 62
7
  6
BYLAYER
 10
53.7721939281
 20
58.4215478808
 11
61.700933482
 21
66.0202394152
  0
LINE
  5
272
100
AcDbEntity
  8
0
100
AcDbLine
 62
7
  6
BYLAYER
 10
28.1112367603
 20
69.0726053663
 11
30.702793903
 21
67.576403001
  0
LINE
  5
273
100
AcDbEntity
  8
0
100
AcDbLine
 62
7
  6
BYLAYER
 10
47.082990686
 20
58.1195059225
 11
47.2845169577
 21
58.0031573075
  0
LINE
  5
274
100
AcDbEntity
  8
0
100
AcDbLine
 62
7
  6
BYLAYER
 10
42.8403676627
 20
60.8956564689
 11
41.0725933499
 21
61.9162583552
  0
LINE
  5
275
100
AcDbEntity
  8
0
100
AcDbLine
 62
7
  6
BYLAYER
 10
23.868613737
 20
71.8487559127
 11
22.1008394242
 21
72.869357799
  0
LINE
  5
276
100
AcDbEntity
  8
0
100
AcDbLine
 62
7
  6
BYLAYER
 10
51.3857192135
 20
56.0434896811
 11
52.0928230507
 21
55.6352523259
  0
LINE
  5
277
100
AcDbEntity
  8
0
100
AcDbLine
 62
7
  6
BYLAYER
 10
47.2845169577
 20
35.2227398696
 11
47.2845169577
 21
58.0031573075
  0
LINE
  5
278
100
AcDbEntity
  8
0
100
AcDbLine
 62
7
  6
BYLAYER
 10
49.7593803879
 20
32.7323828059
 11
49.7593803879
 21
35.3601867399
  0
LINE
  5
279
100
AcDbEntity
  8
0
100
AcDbLine
 62
7
  6
BYLAYER
 10
58.3698923194
 20
68.5978816037
 11
60.26341966
 21
71.5465049287
  0
LINE
  5
27A
100
AcDbEntity
  8
0
100
AcDbLine
 62
7
  6
BYLAYER
 10
65.8486675381
 20
68.4149204947
 11
68.7627952771
 21
68.8726292606
  0
LINE
  5
27B
100
AcDbEntity
  8
0
100
AcDbLine
 62
7
  6
BYLAYER
 10
52.0751447188
 20
57.4417619116
 11
51.3857192135
 21
57.839792908
  0
LINE
  5
27C
100
AcDbEntity
  8
0
100
AcDbLine
 62
7
  6
BYLAYER
 10
23.8685990172
 20
73.8899681837
 11
25.6363733301
 21
72.8693662974
  0
LINE
  5
27D
100
AcDbEntity
  8
0
100
AcDbLine
 62
7
  6
BYLAYER
 10
42.8403529429
 20
62.9368687399
 11
44.6081272558
 21
61.9162668536
  0
LINE
  5
27E
100
AcDbEntity
  8
0
100
AcDbLine
 62
7
  6
BYLAYER
 10
51.3857192135
 20
59.0645151716
 11
52.4286907495
 21
58.4623688969
  0
LINE
  5
27F
100
AcDbEntity
  8
0
100
AcDbLine
 62
7
  6
BYLAYER
 10
44.6081272558
 20
61.9162668536
 11
47.082990686
 21
59.2626093065
  0
LINE
  5
280
100
AcDbEntity
  8
0
100
AcDbLine
 62
7
  6
BYLAYER
 10
51.0321672949
 20
49.2816972398
 11
51.0321672949
 21
43.6326773761
  0
LINE
  5
281
100
AcDbEntity
  8
0
100
AcDbLine
 62
7
  6
BYLAYER
 10
51.3680349937
 20
44.3777127834
 11
51.3680349937
 21
43.7245129405
  0
LINE
  5
282
100
AcDbEntity
  8
0
100
AcDbLine
 62
7
  6
BYLAYER
 10
51.3857192135
 20
60.3709733999
 11
51.3857192135
 21
55.227008172
  0
LINE
  5
283
100
AcDbEntity
  8
0
100
AcDbLine
 62
7
  6
BYLAYER
 10
52.0751447188
 20
43.9694720289
 11
52.0751447188
 21
50.4553138061
  0
LINE
  5
284
100
AcDbEntity
  8
0
100
AcDbLine
 62
7
  6
BYLAYER
 10
52.0751447188
 20
55.6454586847
 11
52.0751447188
 21
57.4417619116
  0
LINE
  5
285
100
AcDbEntity
  8
0
100
AcDbLine
 62
7
  6
BYLAYER
 10
52.0928230507
 20
55.6352523259
 11
52.0928230507
 21
50.4752064546
  0
LINE
  5
286
100
AcDbEntity
  8
0
100
AcDbLine
 62
7
  6
BYLAYER
 10
52.4286907495
 20
61.4834278403
 11
52.4286907495
 21
58.4623688969
  0
LINE
  5
287
100
AcDbEntity
  8
0
100
AcDbLine
 62
7
  6
BYLAYER
 10
52.0928230507
 20
50.4752064546
 11
51.0321672949
 21
49.2816972398
  0
LINE
  5
288
100
AcDbEntity
  8
0
100
AcDbLine
 62
7
  6
BYLAYER
 10
29.2787045027
 20
29.8894297172
 11
29.2717729983
 21
29.8834998283
  0
LINE
  5
289
100
AcDbEntity
  8
0
100
AcDbLine
 62
7
  6
BYLAYER
 10
37.9291554268
 20
38.4034579005
 11
38.7385764053
 21
39.031006243
  0
LINE
  5
28A
100
AcDbEntity
  8
0
100
AcDbLine
 62
7
  6
BYLAYER
 10
26.0852807755
 20
30.2593919385
 11
24.7621806725
 21
29.3769651907
  0
LINE
  5
28B
100
AcDbEntity
  8
0
100
AcDbLine
 62
7
  6
BYLAYER
 10
38.3661773486
 20
38.0855520221
 11
38.1790748461
 21
37.9705822107
  0
LINE
  5
28C
100
AcDbEntity
  8
0
100
AcDbLine
 62
7
  6
BYLAYER
 10
37.4276502086
 20
38.9221993646
 11
39.0139999589
 21
39.838073353
  0
LINE
  5
28D
100
AcDbEntity
  8
0
100
AcDbLine
 62
7
  6
BYLAYER
 10
53.065084203
 20
58.8297886354
 11
53.7721939281
 21
58.4215478808
  0
LINE
  5
28E
100
AcDbEntity
  8
0
100
AcDbLine
 62
7
  6
BYLAYER
 10
51.3857192135
 20
60.3709733999
 11
30.2431384316
 21
72.5773719601
  0
LINE
  5
28F
100
AcDbEntity
  8
0
100
AcDbLine
 62
7
  6
BYLAYER
 10
52.4286907495
 20
61.4834278403
 11
46.9132348933
 21
64.6677057255
  0
LINE
  5
290
100
AcDbEntity
  8
0
100
AcDbLine
 62
7
  6
BYLAYER
 10
45.4106267274
 20
65.5352173289
 11
39.8951708712
 21
68.7194952141
  0
LINE
  5
291
100
AcDbEntity
  8
0
100
AcDbLine
 62
7
  6
BYLAYER
 10
38.3925627053
 20
69.5870068175
 11
32.8771068492
 21
72.7712847027
  0
LINE
  5
292
100
AcDbEntity
  8
0
100
AcDbLine
 62
7
  6
BYLAYER
 10
54.0550295751
 20
42.7446999586
 11
54.0550295751
 21
43.3263770852
  0
LINE
  5
293
100
AcDbEntity
  8
0
100
AcDbLine
 62
7
  6
BYLAYER
 10
54.2141345624
 20
42.6528427294
 11
54.2141345624
 21
35.9411928606
  0
LINE
  5
294
100
AcDbEntity
  8
0
100
AcDbLine
 62
7
  6
BYLAYER
 10
54.7266672329
 20
76.9762082378
 11
54.7266672329
 21
76.9112953307
  0
LINE
  5
295
100
AcDbEntity
  8
0
100
AcDbLine
 62
7
  6
BYLAYER
 10
54.7621393002
 20
39.1232587038
 11
54.7621393002
 21
43.0966977241
  0
LINE
  5
296
100
AcDbEntity
  8
0
100
AcDbLine
 62
7
  6
BYLAYER
 10
37.1175553389
 20
37.0066446923
 11
38.6762356589
 21
37.906543823
  0
LINE
  5
297
100
AcDbEntity
  8
0
100
AcDbLine
 62
7
  6
BYLAYER
 10
39.7892209244
 20
37.2639760171
 11
38.1628368309
 21
36.3249883279
  0
LINE
  5
298
100
AcDbEntity
  8
0
100
AcDbLine
 62
7
  6
BYLAYER
 10
40.5493333308
 20
36.8251348426
 11
41.0725933499
 21
37.1272373521
  0
LINE
  5
299
100
AcDbEntity
  8
0
100
AcDbLine
 62
7
  6
BYLAYER
 10
26.0092893776
 20
28.0574593995
 11
29.2468557347
 21
29.9266580498
  0
LINE
  5
29A
100
AcDbEntity
  8
0
100
AcDbLine
 62
7
  6
BYLAYER
 10
29.2718458041
 20
29.8833737242
 11
34.2215824832
 21
32.7410657922
  0
LINE
  5
29B
100
AcDbEntity
  8
0
100
AcDbLine
 62
7
  6
BYLAYER
 10
61.8331199706
 20
72.8733886549
 11
58.9189922317
 21
72.415679889
  0
LINE
  5
29C
100
AcDbEntity
  8
0
100
AcDbLine
 62
7
  6
BYLAYER
 10
58.830603516
 20
72.4667099833
 11
61.744731255
 21
72.9244187492
  0
LINE
  5
29D
100
AcDbEntity
  8
0
100
AcDbLine
 62
7
  6
BYLAYER
 10
40.7190384873
 20
34.8491980003
 11
41.0725964046
 21
35.0533235406
  0
LINE
  5
29E
100
AcDbEntity
  8
0
100
AcDbLine
 62
7
  6
BYLAYER
 10
42.8403676627
 20
34.685928879
 11
47.082990686
 21
37.1353938023
  0
LINE
  5
29F
100
AcDbEntity
  8
0
100
AcDbLine
 62
7
  6
BYLAYER
 10
54.2141345624
 20
35.9411928606
 11
53.8957022216
 21
35.120475075
  0
LINE
  5
2A0
100
AcDbEntity
  8
0
100
AcDbLine
 62
7
  6
BYLAYER
 10
46.2959602532
 20
35.3958158322
 11
46.586873082
 21
35.625515637
  0
LINE
  5
2A1
100
AcDbEntity
  8
0
100
AcDbLine
 62
7
  6
BYLAYER
 10
35.1222650127
 20
29.6704486759
 11
35.4758229301
 21
29.8745742162
  0
LINE
  5
2A2
100
AcDbEntity
  8
0
100
AcDbLine
 62
7
  6
BYLAYER
 10
42.0533422011
 20
32.9463423009
 11
46.2959652244
 21
35.3958072241
  0
LINE
  5
2A3
100
AcDbEntity
  8
0
100
AcDbLine
 62
7
  6
BYLAYER
 10
37.2435941882
 20
30.0916233901
 11
41.4862172115
 21
32.5410883133
  0
LINE
  5
2A4
100
AcDbEntity
  8
0
100
AcDbLine
 62
7
  6
BYLAYER
 10
48.6987246321
 20
36.0392281773
 11
47.2845169577
 21
35.2227398696
  0
LINE
  5
2A5
100
AcDbEntity
  8
0
100
AcDbLine
 62
7
  6
BYLAYER
 10
46.3652720361
 20
34.6919278456
 11
45.3045891195
 21
34.0795459337
  0
LINE
  5
2A6
100
AcDbEntity
  8
0
100
AcDbLine
 62
7
  6
BYLAYER
 10
36.4565687266
 20
28.3520368119
 11
40.6991917498
 21
30.8015017351
  0
LINE
  5
2A7
100
AcDbEntity
  8
0
100
AcDbLine
 62
7
  6
BYLAYER
 10
54.8150559485
 20
76.9251781435
 11
51.9009282096
 21
76.4674693776
  0
LINE
  5
2A8
100
AcDbEntity
  8
0
100
AcDbLine
 62
7
  6
BYLAYER
 10
51.812539494
 20
76.5184994719
 11
54.7266672329
 21
76.9762082378
  0
LINE
  5
2A9
100
AcDbEntity
  8
0
100
AcDbLine
 62
7
  6
BYLAYER
 10
61.700933482
 20
66.0202394152
 11
60.9938237568
 21
66.4284801697
  0
LINE
  5
2AA
100
AcDbEntity
  8
0
100
AcDbLine
 62
7
  6
BYLAYER
 10
55.4783679007
 20
69.612758055
 11
54.7712581756
 21
70.0209988095
  0
LINE
  5
2AB
100
AcDbEntity
  8
0
100
AcDbLine
 62
7
  6
BYLAYER
 10
54.6828694599
 20
70.0720289038
 11
53.9757597348
 21
70.4802696583
  0
LINE
  5
2AC
100
AcDbEntity
  8
0
100
AcDbLine
 62
7
  6
BYLAYER
 10
48.4603038786
 20
73.6645475436
 11
47.7531941535
 21
74.0727882981
  0
LINE
  5
2AD
100
AcDbEntity
  8
0
100
AcDbLine
 62
7
  6
BYLAYER
 10
47.6648054378
 20
74.1238183924
 11
46.9576957127
 21
74.532059147
  0
LINE
  5
2AE
100
AcDbEntity
  8
0
100
AcDbLine
 62
7
  6
BYLAYER
 10
41.4422398565
 20
77.7163370322
 11
40.7351301314
 21
78.1245777867
  0
LINE
  5
2AF
100
AcDbEntity
  8
0
100
AcDbLine
 62
7
  6
BYLAYER
 10
61.744731255
 20
72.9244187492
 11
61.744731255
 21
72.8595058421
  0
LINE
  5
2B0
100
AcDbEntity
  8
0
100
AcDbLine
 62
7
  6
BYLAYER
 10
65.8486675381
 20
42.2868431466
 11
61.700933482
 21
39.8921620671
  0
LINE
  5
2B1
100
AcDbEntity
  8
0
100
AcDbLine
 62
7
  6
BYLAYER
 10
53.8957022216
 20
35.120475075
 11
49.7593803879
 21
32.7323828059
  0
LINE
  5
2B2
100
AcDbEntity
  8
0
100
AcDbLine
 62
7
  6
BYLAYER
 10
56.7749075652
 20
69.5127610437
 11
61.2452306648
 21
66.9485944062
  0
LINE
  5
2B3
100
AcDbEntity
  8
0
100
AcDbLine
 62
7
  6
BYLAYER
 10
42.3431097686
 20
77.8614869208
 11
46.7844825365
 21
75.2806051373
  0
LINE
  5
2B4
100
AcDbEntity
  8
0
100
AcDbLine
 62
7
  6
BYLAYER
 10
49.3611737907
 20
73.8096974322
 11
53.8025465586
 21
71.2288156487
  0
LINE
  5
2B5
100
AcDbEntity
  8
0
100
AcDbLine
 62
7
  6
BYLAYER
 10
47.7969919264
 20
80.9769676321
 11
44.8828641875
 21
80.5192588662
  0
LINE
  5
2B6
100
AcDbEntity
  8
0
100
AcDbLine
 62
7
  6
BYLAYER
 10
57.3251156073
 20
73.242897187
 11
52.8304588888
 21
75.7933130748
  0
LINE
  5
2B7
100
AcDbEntity
  8
0
100
AcDbLine
 62
7
  6
BYLAYER
 10
50.3070515852
 20
77.2946866756
 11
45.8123948668
 21
79.8451025634
  0
LINE
  5
2B8
100
AcDbEntity
  8
0
100
AcDbLine
 62
7
  6
BYLAYER
 10
44.8828641875
 20
80.5192588662
 11
51.812539494
 21
76.5184994719
  0
LINE
  5
2B9
100
AcDbEntity
  8
0
100
AcDbLine
 62
7
  6
BYLAYER
 10
51.9009282096
 20
76.4674693776
 11
58.830603516
 21
72.4667099833
  0
LINE
  5
2BA
100
AcDbEntity
  8
0
100
AcDbLine
 62
7
  6
BYLAYER
 10
58.9189922317
 20
72.415679889
 11
65.8486675381
 21
68.4149204947
  0
LINE
  5
2BB
100
AcDbEntity
  8
0
100
AcDbLine
 62
7
  6
BYLAYER
 10
64.6809192598
 20
68.9515415945
 11
60.26341966
 21
71.5465049287
  0
LINE
  5
2BC
100
AcDbEntity
  8
0
100
AcDbLine
 62
7
  6
BYLAYER
 10
68.7627952771
 20
45.1940591638
 11
65.8486675381
 21
42.2868431466
  0
LINE
  5
2BD
100
AcDbEntity
  8
0
100
AcDbLine
 62
7
  6
BYLAYER
 10
68.7627952771
 20
68.8726292606
 11
61.8331199706
 21
72.8733886549
  0
LINE
  5
2BE
100
AcDbEntity
  8
0
100
AcDbLine
 62
7
  6
BYLAYER
 10
61.744731255
 20
72.9244187492
 11
54.8150559485
 21
76.9251781435
  0
LINE
  5
2BF
100
AcDbEntity
  8
0
100
AcDbLine
 62
7
  6
BYLAYER
 10
54.7266672329
 20
76.9762082378
 11
47.7969919264
 21
80.9769676321
  0
LINE
  5
2C0
100
AcDbEntity
  8
0
100
AcDbLine
 62
7
  6
BYLAYER
 10
68.7627952771
 20
68.8726292606
 11
68.7627952771
 21
45.1940591638
  0
ARC
  5
2C1
100
AcDbEntity
  8
0
100
AcDbCircle
 62
7
  6
BYLAYER
 10
21.2590576796
 20
45.1842600894
 40
11.4512048384
100
AcDbArc
 50
178.8697214435
 51
180.0014751284
  0
ARC
  5
2C2
100
AcDbEntity
  8
0
100
AcDbCircle
 62
7
  6
BYLAYER
 10
26.8875361778
 20
34.0136212857
 40
4.769054132
100
AcDbArc
 50
292.4858337846
 51
299.9969835787
  0
ARC
  5
2C3
100
AcDbEntity
  8
0
100
AcDbCircle
 62
7
  6
BYLAYER
 10
17.4016644619
 20
50.4434250881
 40
4.7593434283
100
AcDbArc
 50
120.1088573832
 51
123.2344263494
  0
ARC
  5
2C4
100
AcDbEntity
  8
0
100
AcDbCircle
 62
7
  6
BYLAYER
 10
36.1976149618
 20
41.4100876732
 40
3.9695804684
100
AcDbArc
 50
286.1887920554
 51
299.9457560833
  0
ARC
  5
2C5
100
AcDbEntity
  8
0
100
AcDbCircle
 62
7
  6
BYLAYER
 10
36.0416598882
 20
41.6775909839
 40
3.779230626
100
AcDbArc
 50
290.0699982194
 51
299.9628948576
  0
ARC
  5
2C6
100
AcDbEntity
  8
0
100
AcDbCircle
 62
7
  6
BYLAYER
 10
28.6067208239
 20
54.5515070389
 40
3.7541524811
100
AcDbArc
 50
120.0076535722
 51
129.0959054936
  0
ARC
  5
2C7
100
AcDbEntity
  8
0
100
AcDbCircle
 62
7
  6
BYLAYER
 10
30.2758542609
 20
54.9708151535
 40
3.5255839071
100
AcDbArc
 50
112.3196445628
 51
119.9814809176
  0
ARC
  5
2C8
100
AcDbEntity
  8
0
100
AcDbCircle
 62
7
  6
BYLAYER
 10
37.2570298215
 20
42.880623313
 40
3.5134060398
100
AcDbArc
 50
300.0049867886
 51
307.7299049823
  0
SPLINE
  5
2C9
100
AcDbEntity
  8
0
100
AcDbSpline
 62
7
  6
BYLAYER
 70
0
 71
3
 72
15
 73
11
 74
0
 42
0.0000001
 43
0.0000001
 44
0.0000000001
 40
0.0
 40
0.0
 40
0.0
 40
0.0
 40
0.1485846647
 40
0.2895068885
 40
0.4227214545
 40
0.5486407511
 40
0.6680001328
 40
0.7819379016
 40
0.8919871991
 40
1.0
 40
1.0
 40
1.0
 40
1.0
 10
8.868363066
 20
46.1520571988
 30
0.0
 10
8.868363066
 20
46.5218707999
 30
0.0
 10
8.8981853711
 20
47.2429232944
 30
0.0
 10
9.040109051
 20
48.2870933864
 30
0.0
 10
9.2772175624
 20
49.2562658643
 30
0.0
 10
9.6076171198
 20
50.1410443764
 30
0.0
 10
10.0287951986
 20
50.9329079262
 30
0.0
 10
10.537459307
 20
51.6237685442
 30
0.0
 10
11.1289125994
 20
52.205850559
 30
0.0
 10
11.5765431337
 20
52.5181880909
 30
0.0
 10
11.8093605436
 20
52.6526044154
 30
0.0
  0
SPLINE
  5
2CA
100
AcDbEntity
  8
0
100
AcDbSpline
 62
7
  6
BYLAYER
 70
0
 71
3
 72
27
 73
23
 74
0
 42
0.0000001
 43
0.0000001
 44
0.0000000001
 40
0.0
 40
0.0
 40
0.0
 40
0.0
 40
0.062377306
 40
0.1287082048
 40
0.1982935598
 40
0.2702618511
 40
0.3436309843
 40
0.4173543976
 40
0.4903705427
 40
0.5616490326
 40
0.6302387171
 40
0.6953193144
 40
0.7562604854
 40
0.8126919489
 40
0.8392148719
 40
0.8646350849
 40
0.8890195645
 40
0.9124664301
 40
0.935108932
 40
0.9571118884
 40
0.9786701849
 40
1.0
 40
1.0
 40
1.0
 40
1.0
 10
37.1729279643
 20
39.2645154603
 30
0.0
 10
37.1729279643
 20
39.8557019199
 30
0.0
 10
37.0928420461
 20
41.076360374
 30
0.0
 10
36.7632667501
 20
42.9297634246
 30
0.0
 10
36.2274715663
 20
44.8288984176
 30
0.0
 10
35.4968769962
 20
46.7331583314
 30
0.0
 10
34.5870618984
 20
48.6021756583
 30
0.0
 10
33.5174172194
 20
50.3960713385
 30
0.0
 10
32.3107689426
 20
52.0765835764
 30
0.0
 10
30.9928096613
 20
53.6079015512
 30
0.0
 10
29.5915320447
 20
54.9574603603
 30
0.0
 10
28.1363156729
 20
56.0966965001
 30
0.0
 10
26.6577517557
 20
57.0013179502
 30
0.0
 10
25.4054337413
 20
57.5547585953
 30
0.0
 10
24.4220006213
 20
57.8548033751
 30
0.0
 10
23.7135793788
 20
58.0060306784
 30
0.0
 10
23.0230038437
 20
58.0872688312
 30
0.0
 10
22.3539285905
 20
58.0977700899
 30
0.0
 10
21.7100302093
 20
58.0374239257
 30
0.0
 10
21.0949026294
 20
57.9061694463
 30
0.0
 10
20.5121851898
 20
57.7047893764
 30
0.0
 10
20.1467282364
 20
57.5238862165
 30
0.0
 10
19.9716561786
 20
57.4228094809
 30
0.0
  0
SPLINE
  5
2CB
100
AcDbEntity
  8
0
100
AcDbSpline
 62
7
  6
BYLAYER
 70
0
 71
3
 72
26
 73
22
 74
0
 42
0.0000001
 43
0.0000001
 44
0.0000000001
 40
0.0
 40
0.0
 40
0.0
 40
0.0
 40
0.0213310825
 40
0.0428907094
 40
0.0648953812
 40
0.0875395163
 40
0.1353135451
 40
0.1607362323
 40
0.1872611881
 40
0.2436976262
 40
0.3046441663
 40
0.3697304841
 40
0.4383262613
 40
0.5096108635
 40
0.5826322679
 40
0.6563594795
 40
0.7297311209
 40
0.8017012369
 40
0.8712877438
 40
0.9376210129
 40
1.0
 40
1.0
 40
1.0
 40
1.0
 10
24.7156243898
 20
29.4467725006
 30
0.0
 10
24.5638923871
 20
29.359178206
 30
0.0
 10
24.2471600319
 20
29.2024006391
 30
0.0
 10
23.742150816
 20
29.0278502795
 30
0.0
 10
23.2089920959
 20
28.9141254318
 30
0.0
 10
22.4518002398
 20
28.843071408
 30
0.0
 10
21.6602743078
 20
28.9011487097
 30
0.0
 10
20.8586850857
 20
29.072405567
 30
0.0
 10
20.0062131289
 20
29.3324308705
 30
0.0
 10
18.9209238093
 20
29.8121164091
 30
0.0
 10
17.6394487851
 20
30.5961516804
 30
0.0
 10
16.3782463913
 20
31.583533149
 30
0.0
 10
15.1637862603
 20
32.753196922
 30
0.0
 10
14.0215499485
 20
34.0803831905
 30
0.0
 10
12.9757996809
 20
35.5368545965
 30
0.0
 10
12.0488050258
 20
37.0915645948
 30
0.0
 10
11.2603365523
 20
38.7113503155
 30
0.0
 10
10.6271982127
 20
40.3616582143
 30
0.0
 10
10.1628663679
 20
42.0075192773
 30
0.0
 10
9.8772594036
 20
43.6137487184
 30
0.0
 10
9.807852845
 20
44.6716211023
 30
0.0
 10
9.807852845
 20
45.1839652685
 30
0.0
  0
SPLINE
  5
2CC
100
AcDbEntity
  8
0
100
AcDbSpline
 62
7
  6
BYLAYER
 70
0
 71
3
 72
23
 73
19
 74
0
 42
0.0000001
 43
0.0000001
 44
0.0000000001
 40
0.0
 40
0.0
 40
0.0
 40
0.0
 40
0.0594217233
 40
0.1221989615
 40
0.1878460096
 40
0.2557756186
 40
0.325308517
 40
0.3957133368
 40
0.4662278853
 40
0.536087001
 40
0.6045471899
 40
0.6709128172
 40
0.7345637874
 40
0.7949863827
 40
0.8518087651
 40
0.904842515
 40
0.954130829
 40
1.0
 40
1.0
 40
1.0
 40
1.0
 10
37.5795086964
 20
40.0503831619
 30
0.0
 10
37.5795086964
 20
40.5372256629
 30
0.0
 10
37.5226004932
 20
41.5389506754
 30
0.0
 10
37.2855953611
 20
43.061679986
 30
0.0
 10
36.8982955961
 20
44.6251245586
 30
0.0
 10
36.3670682368
 20
46.203956433
 30
0.0
 10
35.7004128003
 20
47.7728835706
 30
0.0
 10
34.9091201705
 20
49.3065888731
 30
0.0
 10
34.0059461752
 20
50.7803206597
 30
0.0
 10
33.0054788728
 20
52.170284038
 30
0.0
 10
31.9238501941
 20
53.4540561047
 30
0.0
 10
30.7784580598
 20
54.6109584611
 30
0.0
 10
29.5876471374
 20
55.6223928296
 30
0.0
 10
28.3703278477
 20
56.4721195148
 30
0.0
 10
27.145677971
 20
57.1464513829
 30
0.0
 10
25.9324685796
 20
57.634291607
 30
0.0
 10
24.7498024179
 20
57.9270659356
 30
0.0
 10
23.9679238767
 20
57.9898113324
 30
0.0
 10
23.5921670351
 20
57.983710431
 30
0.0
  0
SPLINE
  5
2CD
100
AcDbEntity
  8
0
100
AcDbSpline
 62
7
  6
BYLAYER
 70
0
 71
3
 72
23
 73
19
 74
0
 42
0.0000001
 43
0.0000001
 44
0.0000000001
 40
0.0
 40
0.0
 40
0.0
 40
0.0
 40
0.0572794181
 40
0.1174597246
 40
0.1801775436
 40
0.2450314025
 40
0.3115358301
 40
0.3791670244
 40
0.4473707248
 40
0.5155766878
 40
0.5832153765
 40
0.6497320068
 40
0.714600858
 40
0.7773409434
 40
0.8375338663
 40
0.8948429555
 40
0.9490340193
 40
1.0
 40
1.0
 40
1.0
 40
1.0
 10
37.7562687582
 20
42.3569534531
 30
0.0
 10
37.7562687582
 20
42.6977914687
 30
0.0
 10
37.7214965566
 20
43.3970424298
 30
0.0
 10
37.5753593136
 20
44.4603257823
 30
0.0
 10
37.3356075987
 20
45.552641795
 30
0.0
 10
37.0053858428
 20
46.6602793978
 30
0.0
 10
36.5887048627
 20
47.7695946874
 30
0.0
 10
36.0907870842
 20
48.8667748396
 30
0.0
 10
35.5178405272
 20
49.9381803916
 30
0.0
 10
34.8769864887
 20
50.970455851
 30
0.0
 10
34.1761989929
 20
51.9507314128
 30
0.0
 10
33.4242155667
 20
52.8668133766
 30
0.0
 10
32.6303900565
 20
53.707314651
 30
0.0
 10
31.8045486688
 20
54.4617907865
 30
0.0
 10
30.9568884906
 20
55.1208694174
 30
0.0
 10
30.0977485579
 20
55.6764086847
 30
0.0
 10
29.2377712036
 20
56.1214300249
 30
0.0
 10
28.6525565656
 20
56.3476572208
 30
0.0
 10
28.3633046847
 20
56.4387955604
 30
0.0
  0
SPLINE
  5
2CE
100
AcDbEntity
  8
0
100
AcDbSpline
 62
7
  6
BYLAYER
 70
0
 71
3
 72
9
 73
5
 74
0
 42
0.0000001
 43
0.0000001
 44
0.0000000001
 40
0.0
 40
0.0
 40
0.0
 40
0.0
 40
0.4855018433
 40
1.0
 40
1.0
 40
1.0
 40
1.0
 10
37.5811888395
 20
40.5740553164
 30
0.0
 10
37.6411066939
 20
40.8581152017
 30
0.0
 10
37.7294157123
 20
41.4509295853
 30
0.0
 10
37.7562687582
 20
42.0493043625
 30
0.0
 10
37.7562687582
 20
42.3569534531
 30
0.0
  0
SPLINE
  5
2CF
100
AcDbEntity
  8
0
100
AcDbSpline
 62
7
  6
BYLAYER
 70
0
 71
3
 72
15
 73
11
 74
0
 42
0.0000001
 43
0.0000001
 44
0.0000000001
 40
0.0
 40
0.0
 40
0.0
 40
0.0
 40
0.1478879535
 40
0.2882352296
 40
0.4210885815
 40
0.5468933245
 40
0.6663939263
 40
0.7807096964
 40
0.8913217887
 40
1.0
 40
1.0
 40
1.0
 40
1.0
 10
9.8100809316
 20
45.410144298
 30
0.0
 10
9.8162003121
 20
45.7190749127
 30
0.0
 10
9.8528506664
 20
46.3211052682
 30
0.0
 10
9.9879866749
 20
47.191850795
 30
0.0
 10
10.2009625253
 20
47.9995917809
 30
0.0
 10
10.4901856495
 20
48.7369825962
 30
0.0
 10
10.8535387429
 20
49.3972948989
 30
0.0
 10
11.2882865224
 20
49.9741567259
 30
0.0
 10
11.7906327683
 20
50.4614147632
 30
0.0
 10
12.1690402969
 20
50.7240854191
 30
0.0
 10
12.3656915115
 20
50.8376113999
 30
0.0
  0
SPLINE
  5
2D0
100
AcDbEntity
  8
0
100
AcDbSpline
 62
7
  6
BYLAYER
 70
0
 71
3
 72
11
 73
7
 74
0
 42
0.0000001
 43
0.0000001
 44
0.0000000001
 40
0.0
 40
0.0
 40
0.0
 40
0.0
 40
0.2471451271
 40
0.500000371
 40
0.7528554118
 40
1.0
 40
1.0
 40
1.0
 40
1.0
 10
26.9013699646
 20
39.6193019396
 30
0.0
 10
26.6718378719
 20
40.3532271014
 30
0.0
 10
26.1189599663
 20
41.8115524575
 30
0.0
 10
25.0547349164
 20
43.9030759816
 30
0.0
 10
23.7755405521
 20
45.8704885868
 30
0.0
 10
22.7890229258
 20
47.0784426681
 30
0.0
 10
22.2682171032
 20
47.6442074963
 30
0.0
  0
SPLINE
  5
2D1
100
AcDbEntity
  8
0
100
AcDbSpline
 62
7
  6
BYLAYER
 70
0
 71
3
 72
27
 73
23
 74
0
 42
0.0000001
 43
0.0000001
 44
0.0000000001
 40
0.0
 40
0.0
 40
0.0
 40
0.0
 40
0.0213298631
 40
0.0428882104
 40
0.0648912163
 40
0.0875337703
 40
0.1109806819
 40
0.135365196
 40
0.1607854269
 40
0.1873083479
 40
0.2437397772
 40
0.3046808722
 40
0.3697613657
 40
0.4383510363
 40
0.5096296298
 40
0.5826458431
 40
0.6563692194
 40
0.7297382671
 40
0.801706788
 40
0.8712920473
 40
0.9376227561
 40
1.0
 40
1.0
 40
1.0
 40
1.0
 10
26.0092817829
 20
28.057472554
 30
0.0
 10
25.8348237866
 20
27.9567498346
 30
0.0
 10
25.4706482078
 20
27.7764808374
 30
0.0
 10
24.8899739764
 20
27.5758066028
 30
0.0
 10
24.2770031111
 20
27.4450123852
 30
0.0
 10
23.6353624129
 20
27.3848779916
 30
0.0
 10
22.9686333323
 20
27.395342781
 30
0.0
 10
22.2804797749
 20
27.4762964228
 30
0.0
 10
21.5745436583
 20
27.6269938169
 30
0.0
 10
20.5945612114
 20
27.92598639
 30
0.0
 10
19.3466382427
 20
28.4774856933
 30
0.0
 10
17.8732639203
 20
29.3789328344
 30
0.0
 10
16.4231548644
 20
30.5141712469
 30
0.0
 10
15.0267940058
 20
31.8589954328
 30
0.0
 10
13.7134582676
 20
33.3849424081
 30
0.0
 10
12.5110433451
 20
35.059560119
 30
0.0
 10
11.4451526413
 20
36.8471620742
 30
0.0
 10
10.5385296987
 20
38.7096231925
 30
0.0
 10
9.8104993957
 20
40.6072029809
 30
0.0
 10
9.2765852377
 20
42.4996747025
 30
0.0
 10
8.9481676424
 20
44.3465720477
 30
0.0
 10
8.868363066
 20
45.5629454825
 30
0.0
 10
8.868363066
 20
46.1520571988
 30
0.0
  0
SPLINE
  5
2D2
100
AcDbEntity
  8
0
100
AcDbSpline
 62
7
  6
BYLAYER
 70
0
 71
3
 72
10
 73
6
 74
0
 42
0.0000001
 43
0.0000001
 44
0.0000000001
 40
0.0
 40
0.0
 40
0.0
 40
0.0
 40
0.4722023715
 40
0.7291981493
 40
1.0
 40
1.0
 40
1.0
 40
1.0
 10
36.8640782278
 20
36.2645596394
 30
0.0
 10
37.1124193808
 20
36.8218009394
 30
0.0
 10
37.3795395968
 20
37.7367958741
 30
0.0
 10
37.5515123424
 20
39.0179119775
 30
0.0
 10
37.5795086964
 20
39.7005133179
 30
0.0
 10
37.5795086964
 20
40.0503831619
 30
0.0
  0
SPLINE
  5
2D3
100
AcDbEntity
  8
0
100
AcDbSpline
 62
7
  6
BYLAYER
 70
0
 71
3
 72
15
 73
11
 74
0
 42
0.0000001
 43
0.0000001
 44
0.0000000001
 40
0.0
 40
0.0
 40
0.0
 40
0.0
 40
0.1080124046
 40
0.2180613467
 40
0.3319985098
 40
0.4513576671
 40
0.5772771829
 40
0.7104923352
 40
0.8514153094
 40
1.0
 40
1.0
 40
1.0
 40
1.0
 10
34.2215725831
 20
32.7410829433
 30
0.0
 10
34.4552091372
 20
32.8759715172
 30
0.0
 10
34.9044135877
 20
33.1894084588
 30
0.0
 10
35.4979487627
 20
33.7735352516
 30
0.0
 10
36.0084041128
 20
34.4668245622
 30
0.0
 10
36.4310639721
 20
35.2614748814
 30
0.0
 10
36.7626313949
 20
36.1493683169
 30
0.0
 10
37.0005760391
 20
37.1219569157
 30
0.0
 10
37.1430001215
 20
38.169806629
 30
0.0
 10
37.1729279643
 20
38.8933997498
 30
0.0
 10
37.1729279643
 20
39.2645154603
 30
0.0
  0
SPLINE
  5
2D4
100
AcDbEntity
  8
0
100
AcDbSpline
 62
7
  6
BYLAYER
 70
0
 71
3
 72
15
 73
11
 74
0
 42
0.0000001
 43
0.0000001
 44
0.0000000001
 40
0.0
 40
0.0
 40
0.0
 40
0.0
 40
0.1080126549
 40
0.2180609538
 40
0.3319981846
 40
0.4513586007
 40
0.577275604
 40
0.7104911698
 40
0.8514207462
 40
1.0
 40
1.0
 40
1.0
 40
1.0
 10
24.9277547716
 20
29.5692470961
 30
0.0
 10
25.1302453143
 20
29.686141873
 30
0.0
 10
25.5195317706
 20
29.9578211739
 30
0.0
 10
26.033950503
 20
30.4640358151
 30
0.0
 10
26.4763456332
 20
31.0648920546
 30
0.0
 10
26.8426300868
 20
31.7535951015
 30
0.0
 10
27.130009898
 20
32.5230918377
 30
0.0
 10
27.3362264445
 20
33.3660136756
 30
0.0
 10
27.4596473044
 20
34.2741543818
 30
0.0
 10
27.4855942075
 20
34.9012701413
 30
0.0
 10
27.4855942075
 20
35.2228918781
 30
0.0
  0
SPLINE
  5
2D5
100
AcDbEntity
  8
0
100
AcDbSpline
 62
7
  6
BYLAYER
 70
0
 71
3
 72
11
 73
7
 74
0
 42
0.0000001
 43
0.0000001
 44
0.0000000001
 40
0.0
 40
0.0
 40
0.0
 40
0.0
 40
0.2372001525
 40
0.4804437417
 40
0.7336682753
 40
1.0
 40
1.0
 40
1.0
 40
1.0
 10
24.8149955985
 20
29.2812754986
 30
0.0
 10
24.5985535716
 20
29.172455445
 30
0.0
 10
24.1400395395
 20
28.9899116816
 30
0.0
 10
23.4042188068
 20
28.8324568569
 30
0.0
 10
22.6234548648
 20
28.7900424113
 30
0.0
 10
22.0930186325
 20
28.8369399534
 30
0.0
 10
21.8240733
 20
28.8776618896
 30
0.0
  0
SPLINE
  5
2D6
100
AcDbEntity
  8
0
100
AcDbSpline
 62
7
  6
BYLAYER
 70
0
 71
3
 72
26
 73
22
 74
0
 42
0.0000001
 43
0.0000001
 44
0.0000000001
 40
0.0
 40
0.0
 40
0.0
 40
0.0
 40
0.0213310825
 40
0.0428907094
 40
0.0648953812
 40
0.0875395163
 40
0.1353135451
 40
0.1607362323
 40
0.1872611881
 40
0.2436976262
 40
0.3046441663
 40
0.3697304841
 40
0.4383262613
 40
0.5096108635
 40
0.5826322679
 40
0.6563594795
 40
0.7297311209
 40
0.8017012369
 40
0.8712877438
 40
0.9376210129
 40
1.0
 40
1.0
 40
1.0
 40
1.0
 10
12.3656915115
 20
50.8376113999
 30
0.0
 10
12.5174235143
 20
50.9252056944
 30
0.0
 10
12.8341558694
 20
51.0819832613
 30
0.0
 10
13.3391650854
 20
51.2565336209
 30
0.0
 10
13.8723238055
 20
51.3702584686
 30
0.0
 10
14.6295156616
 20
51.4413124924
 30
0.0
 10
15.4210415935
 20
51.3832351907
 30
0.0
 10
16.2226308156
 20
51.2119783334
 30
0.0
 10
17.0751027725
 20
50.9519530299
 30
0.0
 10
18.160392092
 20
50.4722674913
 30
0.0
 10
19.4418671162
 20
49.68823222
 30
0.0
 10
20.7030695101
 20
48.7008507514
 30
0.0
 10
21.9175296411
 20
47.5311869785
 30
0.0
 10
23.0597659528
 20
46.20400071
 30
0.0
 10
24.1055162204
 20
44.7475293039
 30
0.0
 10
25.0325108756
 20
43.1928193056
 30
0.0
 10
25.820979349
 20
41.5730335849
 30
0.0
 10
26.4541176886
 20
39.9227256861
 30
0.0
 10
26.9184495335
 20
38.2768646231
 30
0.0
 10
27.2040564978
 20
36.670635182
 30
0.0
 10
27.2734630564
 20
35.6127627981
 30
0.0
 10
27.2734630564
 20
35.100418632
 30
0.0
  0
SPLINE
  5
2D7
100
AcDbEntity
  8
0
100
AcDbSpline
 62
7
  6
BYLAYER
 70
0
 71
3
 72
15
 73
11
 74
0
 42
0.0000001
 43
0.0000001
 44
0.0000000001
 40
0.0
 40
0.0
 40
0.0
 40
0.0
 40
0.111032468
 40
0.2290638532
 40
0.352864975
 40
0.4809153912
 40
0.6114944017
 40
0.7427686962
 40
0.8728746777
 40
1.0
 40
1.0
 40
1.0
 40
1.0
 10
27.4855942075
 20
35.2228918781
 30
0.0
 10
27.4855942075
 20
35.7313727312
 30
0.0
 10
27.4172348456
 20
36.7810798676
 30
0.0
 10
27.13575479
 20
38.3750494369
 30
0.0
 10
26.6779873297
 20
40.0085959123
 30
0.0
 10
26.0535890456
 20
41.6472898531
 30
0.0
 10
25.275662991
 20
43.2568896294
 30
0.0
 10
24.3605272342
 20
44.8035858868
 30
0.0
 10
23.3275700322
 20
46.2547114707
 30
0.0
 10
22.5622896319
 20
47.1527678021
 30
0.0
 10
22.1642581456
 20
47.5776248906
 30
0.0
  0
SPLINE
  5
2D8
100
AcDbEntity
  8
0
100
AcDbSpline
 62
7
  6
BYLAYER
 70
0
 71
3
 72
18
 73
14
 74
0
 42
0.0000001
 43
0.0000001
 44
0.0000000001
 40
0.0
 40
0.0
 40
0.0
 40
0.0
 40
0.1565623958
 40
0.3051636343
 40
0.4443233838
 40
0.5731585899
 40
0.6336904062
 40
0.6916885064
 40
0.8006147103
 40
0.852212932
 40
0.9023360435
 40
0.9514317139
 40
1.0
 40
1.0
 40
1.0
 40
1.0
 10
22.1642581456
 20
47.5776248906
 30
0.0
 10
21.7752906233
 20
47.9928071432
 30
0.0
 10
20.9792358513
 20
48.7677742502
 30
0.0
 10
19.7106294959
 20
49.7715502184
 30
0.0
 10
18.4201530735
 20
50.5700007604
 30
0.0
 10
17.3263235075
 20
51.0597536818
 30
0.0
 10
16.4667269687
 20
51.326205276
 30
0.0
 10
15.6585598556
 20
51.5024826165
 30
0.0
 10
14.8602713665
 20
51.5641290308
 30
0.0
 10
14.0965221161
 20
51.4946978209
 30
0.0
 10
13.5589257012
 20
51.3812900005
 30
0.0
 10
13.0498504595
 20
51.2061071935
 30
0.0
 10
12.7306717953
 20
51.0483203821
 30
0.0
 10
12.577823432
 20
50.9600832966
 30
0.0
  0
SPLINE
  5
2D9
100
AcDbEntity
  8
0
100
AcDbSpline
 62
7
  6
BYLAYER
 70
0
 71
3
 72
11
 73
7
 74
0
 42
0.0000001
 43
0.0000001
 44
0.0000000001
 40
0.0
 40
0.0
 40
0.0
 40
0.0
 40
0.2346152052
 40
0.4803541447
 40
0.7359304088
 40
1.0
 40
1.0
 40
1.0
 40
1.0
 10
27.6703731985
 20
34.9589602498
 30
0.0
 10
27.6703731985
 20
35.329656594
 30
0.0
 10
27.6354676466
 20
36.0889240398
 30
0.0
 10
27.4880575967
 20
37.2434316474
 30
0.0
 10
27.2457904155
 20
38.4292780836
 30
0.0
 10
27.0259098862
 20
39.2210875502
 30
0.0
 10
26.9013699646
 20
39.6193019396
 30
0.0
  0
SPLINE
  5
2DA
100
AcDbEntity
  8
0
100
AcDbSpline
 62
7
  6
BYLAYER
 70
0
 71
3
 72
40
 73
36
 74
0
 42
0.0000001
 43
0.0000001
 44
0.0000000001
 40
0.0
 40
0.0
 40
0.0
 40
0.0
 40
0.0325439939
 40
0.0665589465
 40
0.101883808
 40
0.1383565798
 40
0.1757774019
 40
0.2139253958
 40
0.2525668165
 40
0.2914572748
 40
0.3689574919
 40
0.4071055033
 40
0.4445258127
 40
0.4809986308
 40
0.5163252966
 40
0.550332905
 40
0.5828815442
 40
0.6138725725
 40
0.64325538
 40
0.6710382077
 40
0.6843570717
 40
0.6973111038
 40
0.7222027218
 40
0.7459639223
 40
0.7689143489
 40
0.7914400946
 40
0.8139658734
 40
0.8369162368
 40
0.8606777105
 40
0.8855700552
 40
0.8985242871
 40
0.9118423951
 40
0.939624001
 40
0.969014256
 40
1.0
 40
1.0
 40
1.0
 40
1.0
 10
9.5628329321
 20
45.4131169919
 30
0.0
 10
9.5628329321
 20
45.0629094797
 30
0.0
 10
9.593970119
 20
44.3464055815
 30
0.0
 10
9.7258743323
 20
43.2570546095
 30
0.0
 10
9.9429472695
 20
42.1383536656
 30
0.0
 10
10.243001833
 20
41.001164349
 30
0.0
 10
10.6231483256
 20
39.8561805783
 30
0.0
 10
11.0797825836
 20
38.7143870282
 30
0.0
 10
11.608577604
 20
37.5866373252
 30
0.0
 10
12.4018939841
 20
36.1182893515
 30
0.0
 10
13.3151957415
 20
34.7233261143
 30
0.0
 10
14.334288944
 20
33.4283134151
 30
0.0
 10
15.1358150134
 20
32.5265723352
 30
0.0
 10
15.9706621668
 20
31.6981481991
 30
0.0
 10
16.8308938491
 20
30.9508622326
 30
0.0
 10
17.7083669722
 20
30.2918813813
 30
0.0
 10
18.5947943025
 20
29.7275049836
 30
0.0
 10
19.4818550063
 20
29.2630878426
 30
0.0
 10
20.3612104773
 20
28.9032074862
 30
0.0
 10
21.0910554302
 20
28.690469288
 30
0.0
 10
21.6621408699
 20
28.5780877202
 30
0.0
 10
22.2082128833
 20
28.5055496841
 30
0.0
 10
22.8730293177
 20
28.4824322025
 30
0.0
 10
23.6417313313
 20
28.5681883472
 30
0.0
 10
24.3630732137
 20
28.7676749086
 30
0.0
 10
25.0290086781
 20
29.0794921715
 30
0.0
 10
25.6319861481
 20
29.5003363481
 30
0.0
 10
26.1654497252
 20
30.0252649121
 30
0.0
 10
26.6240337638
 20
30.6481442178
 30
0.0
 10
26.9364036824
 20
31.235472872
 30
0.0
 10
27.1466116356
 20
31.7446592856
 30
0.0
 10
27.334859297
 20
32.2953922142
 30
0.0
 10
27.5155322203
 20
33.0339064938
 30
0.0
 10
27.6434702579
 20
33.975350377
 30
0.0
 10
27.6703731985
 20
34.6255211413
 30
0.0
 10
27.6703731985
 20
34.9589602498
 30
0.0
  0
SPLINE
  5
2DB
100
AcDbEntity
  8
0
100
AcDbSpline
 62
7
  6
BYLAYER
 70
0
 71
3
 72
15
 73
11
 74
0
 42
0.0000001
 43
0.0000001
 44
0.0000000001
 40
0.0
 40
0.0
 40
0.0
 40
0.0
 40
0.1485811914
 40
0.2895082274
 40
0.4227222261
 40
0.5486389595
 40
0.6679981499
 40
0.7819355114
 40
0.8919852145
 40
1.0
 40
1.0
 40
1.0
 40
1.0
 10
27.2734630564
 20
35.100418632
 30
0.0
 10
27.2734630564
 20
34.7787925563
 30
0.0
 10
27.2475186979
 20
34.1516776887
 30
0.0
 10
27.124095344
 20
33.2435414055
 30
0.0
 10
26.9178797629
 20
32.4006293113
 30
0.0
 10
26.6305129998
 20
31.6311340533
 30
0.0
 10
26.2642237185
 20
30.942436296
 30
0.0
 10
25.8218351295
 20
30.341575259
 30
0.0
 10
25.3074169978
 20
29.83534634
 30
0.0
 10
24.9181180542
 20
29.5636713048
 30
0.0
 10
24.7156243898
 20
29.4467725006
 30
0.0
  0
SPLINE
  5
2DC
100
AcDbEntity
  8
0
100
AcDbSpline
 62
7
  6
BYLAYER
 70
0
 71
3
 72
37
 73
33
 74
0
 42
0.0000001
 43
0.0000001
 44
0.0000000001
 40
0.0
 40
0.0
 40
0.0
 40
0.0
 40
0.032546957
 40
0.0665645483
 40
0.1018923243
 40
0.1383682234
 40
0.2139086758
 40
0.2914170804
 40
0.3689261499
 40
0.4444692095
 40
0.4809462986
 40
0.5162770892
 40
0.5502886494
 40
0.582841047
 40
0.6138356908
 40
0.6432218887
 40
0.6710078385
 40
0.6843281001
 40
0.6972834896
 40
0.7221774623
 40
0.7459409514
 40
0.7688936229
 40
0.7914215278
 40
0.8139494328
 40
0.8369018778
 40
0.8606653093
 40
0.8855597088
 40
0.8985150956
 40
0.9118344034
 40
0.9396184375
 40
0.9690112632
 40
1.0
 40
1.0
 40
1.0
 40
1.0
 10
10.8272553968
 20
44.1670176241
 30
0.0
 10
10.8272553968
 20
43.8830106309
 30
0.0
 10
10.8525049693
 20
43.301951796
 30
0.0
 10
10.959475635
 20
42.4185357471
 30
0.0
 10
11.1355091628
 20
41.5112908876
 30
0.0
 10
11.4637639654
 20
40.2673698905
 30
0.0
 10
12.036272838
 20
38.7111574726
 30
0.0
 10
12.9448567724
 20
36.9114771903
 30
0.0
 10
14.0491527235
 20
35.2247684125
 30
0.0
 10
15.1106040013
 20
33.9507936388
 30
0.0
 10
16.023818685
 20
33.0445383575
 30
0.0
 10
16.7214751914
 20
32.4384894856
 30
0.0
 10
17.4330904916
 20
31.9040655491
 30
0.0
 10
18.1519746868
 20
31.4463642311
 30
0.0
 10
18.8713703019
 20
31.0697281373
 30
0.0
 10
19.5845194155
 20
30.7778777519
 30
0.0
 10
20.1764133541
 20
30.6053517586
 30
0.0
 10
20.6395552764
 20
30.5142221779
 30
0.0
 10
21.082405968
 20
30.4553954146
 30
0.0
 10
21.6215548711
 20
30.4366627802
 30
0.0
 10
22.2449493967
 20
30.5062152172
 30
0.0
 10
22.829935591
 20
30.6680028635
 30
0.0
 10
23.3699838362
 20
30.920891304
 30
0.0
 10
23.8589776618
 20
31.2621866817
 30
0.0
 10
24.2915925819
 20
31.6878923094
 30
0.0
 10
24.6634827437
 20
32.1930271033
 30
0.0
 10
24.916803253
 20
32.6693281067
 30
0.0
 10
25.0872716027
 20
33.0822609736
 30
0.0
 10
25.2399340053
 20
33.5288864125
 30
0.0
 10
25.3864530912
 20
34.1277959004
 30
0.0
 10
25.4902073943
 20
34.8912760982
 30
0.0
 10
25.5120243981
 20
35.4185442317
 30
0.0
 10
25.5120243981
 20
35.6889540878
 30
0.0
  0
SPLINE
  5
2DD
100
AcDbEntity
  8
0
100
AcDbSpline
 62
7
  6
BYLAYER
 70
0
 71
3
 72
28
 73
24
 74
0
 42
0.0000001
 43
0.0000001
 44
0.0000000001
 40
0.0
 40
0.0
 40
0.0
 40
0.0
 40
0.0641924913
 40
0.132740936
 40
0.2047648561
 40
0.2791664112
 40
0.3547210371
 40
0.4301389057
 40
0.5041389645
 40
0.5755154133
 40
0.6432102379
 40
0.7063947744
 40
0.7645667658
 40
0.7917610595
 40
0.8177267779
 40
0.8425482678
 40
0.8663548091
 40
0.8893191532
 40
0.911657416
 40
0.9336197452
 40
0.9554796771
 40
0.9775170146
 40
1.0
 40
1.0
 40
1.0
 40
1.0
 10
25.5120243981
 20
35.6889540878
 30
0.0
 10
25.5120243981
 20
36.1597296447
 30
0.0
 10
25.4422497565
 20
37.1339533686
 30
0.0
 10
25.1575028881
 20
38.6113391073
 30
0.0
 10
24.696301925
 20
40.1218489706
 30
0.0
 10
24.0702429425
 20
41.6272536803
 30
0.0
 10
23.2951416628
 20
43.0897578673
 30
0.0
 10
22.3905492875
 20
44.4723967761
 30
0.0
 10
21.3793014482
 20
45.7402688749
 30
0.0
 10
20.2868607856
 20
46.861422655
 30
0.0
 10
19.1403685175
 20
47.8077738374
 30
0.0
 10
17.9683489848
 20
48.5554651802
 30
0.0
 10
16.971483732
 20
49.0072453071
 30
0.0
 10
16.1892778759
 20
49.2448342524
 30
0.0
 10
15.6279704115
 20
49.3591959613
 30
0.0
 10
15.0824895397
 20
49.4127972453
 30
0.0
 10
14.5562953117
 20
49.4051733866
 30
0.0
 10
14.0528442928
 20
49.3360277177
 30
0.0
 10
13.575536604
 20
49.2057123734
 30
0.0
 10
13.1277850858
 20
49.0148017671
 30
0.0
 10
12.7127408863
 20
48.7646712542
 30
0.0
 10
12.3335150439
 20
48.4570772164
 30
0.0
 10
12.1091299101
 20
48.2183733659
 30
0.0
 10
12.0040094677
 20
48.0913416005
 30
0.0
  0
SPLINE
  5
2DE
100
AcDbEntity
  8
0
100
AcDbSpline
 62
7
  6
BYLAYER
 70
0
 71
3
 72
13
 73
9
 74
0
 42
0.0000001
 43
0.0000001
 44
0.0000000001
 40
0.0
 40
0.0
 40
0.0
 40
0.0
 40
0.1089966558
 40
0.221675149
 40
0.3386730637
 40
0.4604614107
 40
0.7194593899
 40
1.0
 40
1.0
 40
1.0
 40
1.0
 10
12.0040094677
 20
48.0913416005
 30
0.0
 10
11.9072976007
 20
47.9744710953
 30
0.0
 10
11.7242616384
 20
47.7251762314
 30
0.0
 10
11.4873307357
 20
47.3167820508
 30
0.0
 10
11.2850966842
 20
46.8705350294
 30
0.0
 10
11.0583117037
 20
46.2150211947
 30
0.0
 10
10.8718951985
 20
45.3094595237
 30
0.0
 10
10.8272553968
 20
44.5574616705
 30
0.0
 10
10.8272553968
 20
44.1670176241
 30
0.0
  0
SPLINE
  5
2DF
100
AcDbEntity
  8
0
100
AcDbSpline
 62
7
  6
BYLAYER
 70
0
 71
3
 72
34
 73
30
 74
0
 42
0.0000001
 43
0.0000001
 44
0.0000000001
 40
0.0
 40
0.0
 40
0.0
 40
0.0
 40
0.0309875893
 40
0.0603856451
 40
0.0881724939
 40
0.1144351435
 40
0.1393318869
 40
0.1630969443
 40
0.1860509615
 40
0.2085807718
 40
0.2311105605
 40
0.2540649581
 40
0.2778306781
 40
0.302726485
 40
0.3289913168
 40
0.3567790777
 40
0.3861667664
 40
0.4171631605
 40
0.4497171215
 40
0.4837305425
 40
0.5555019108
 40
0.6310483117
 40
0.7085613867
 40
0.7860736503
 40
0.8616203363
 40
0.8980976673
 40
0.9334296355
 40
0.9674534122
 40
1.0
 40
1.0
 40
1.0
 40
1.0
 10
12.7018414866
 20
42.9460842553
 30
0.0
 10
12.7018414866
 20
43.1430128323
 30
0.0
 10
12.717745157
 20
43.5270312792
 30
0.0
 10
12.79329648
 20
44.0831467268
 30
0.0
 10
12.9195803542
 20
44.5993359355
 30
0.0
 10
13.0955702743
 20
45.0705375706
 30
0.0
 10
13.3198429774
 20
45.4922905436
 30
0.0
 10
13.5907495913
 20
45.8602010961
 30
0.0
 10
13.905814944
 20
46.1702745826
 30
0.0
 10
14.2619828446
 20
46.4188459348
 30
0.0
 10
14.6553348763
 20
46.6030089136
 30
0.0
 10
15.0813930387
 20
46.720884253
 30
0.0
 10
15.5354721043
 20
46.7714890613
 30
0.0
 10
16.0128700395
 20
46.7549212546
 30
0.0
 10
16.5089497314
 20
46.6716801926
 30
0.0
 10
17.0190670214
 20
46.522966776
 30
0.0
 10
17.5385133189
 20
46.3104017694
 30
0.0
 10
18.0624447517
 20
46.0360773708
 30
0.0
 10
18.5860508868
 20
45.70272816
 30
0.0
 10
19.2895708967
 20
45.1742987548
 30
0.0
 10
20.1338619745
 20
44.3844386677
 30
0.0
 10
21.0505603228
 20
43.2842994032
 30
0.0
 10
21.8549328101
 20
42.055692544
 30
0.0
 10
22.5166591547
 20
40.7449676489
 30
0.0
 10
22.9336446946
 20
39.6115228973
 30
0.0
 10
23.1727387279
 20
38.7055237094
 30
0.0
 10
23.3009657964
 20
38.0447165783
 30
0.0
 10
23.378852994
 20
37.4012706202
 30
0.0
 10
23.3972599291
 20
36.9780573684
 30
0.0
 10
23.3972599291
 20
36.7712212324
 30
0.0
  0
SPLINE
  5
2E0
100
AcDbEntity
  8
0
100
AcDbSpline
 62
7
  6
BYLAYER
 70
0
 71
3
 72
34
 73
30
 74
0
 42
0.0000001
 43
0.0000001
 44
0.0000000001
 40
0.0
 40
0.0
 40
0.0
 40
0.0
 40
0.0309875907
 40
0.0603856471
 40
0.0881724954
 40
0.1144351437
 40
0.1393318854
 40
0.1630969417
 40
0.1860509564
 40
0.2085807615
 40
0.2311105437
 40
0.254064935
 40
0.2778306491
 40
0.3027264514
 40
0.3289912801
 40
0.3567790397
 40
0.3861667288
 40
0.4171631248
 40
0.4497170886
 40
0.4837305131
 40
0.5555018887
 40
0.6310482959
 40
0.708561376
 40
0.7860736435
 40
0.8616203326
 40
0.8980976644
 40
0.9334296333
 40
0.9674534108
 40
1.0
 40
1.0
 40
1.0
 40
1.0
 10
23.3972599291
 20
36.7712212324
 30
0.0
 10
23.3972599291
 20
36.5742926575
 30
0.0
 10
23.3813562656
 20
36.1902742197
 30
0.0
 10
23.3058049723
 20
35.63415879
 30
0.0
 10
23.1795211453
 20
35.117969609
 30
0.0
 10
23.0035312882
 20
34.6467680044
 30
0.0
 10
22.7792586445
 20
34.2250150592
 30
0.0
 10
22.5083520782
 20
33.8571045447
 30
0.0
 10
22.1932867991
 20
33.5470310998
 30
0.0
 10
21.8371190006
 20
33.2984597999
 30
0.0
 10
21.4437670882
 20
33.1142968912
 30
0.0
 10
21.0177090525
 20
32.9964216272
 30
0.0
 10
20.5636301116
 20
32.9458168956
 30
0.0
 10
20.0862322921
 20
32.9623847739
 30
0.0
 10
19.5901526977
 20
33.0456258947
 30
0.0
 10
19.0800354777
 20
33.1943393517
 30
0.0
 10
18.5605892167
 20
33.4069043773
 30
0.0
 10
18.0366577844
 20
33.6812287724
 30
0.0
 10
17.5130516154
 20
34.0145779598
 30
0.0
 10
16.8095315187
 20
34.5430073099
 30
0.0
 10
15.965240284
 20
35.3328672917
 30
0.0
 10
15.0485417298
 20
36.4330064356
 30
0.0
 10
14.2441690332
 20
37.6616131775
 30
0.0
 10
13.5824425572
 20
38.9723380057
 30
0.0
 10
13.1654569612
 20
40.1057827162
 30
0.0
 10
12.9263628152
 20
41.0117818507
 30
0.0
 10
12.7981356822
 20
41.6725889469
 30
0.0
 10
12.7202484354
 20
42.3160348809
 30
0.0
 10
12.7018414866
 20
42.7392481226
 30
0.0
 10
12.7018414866
 20
42.9460842553
 30
0.0
  0
SPLINE
  5
2E1
100
AcDbEntity
  8
0
100
AcDbSpline
 62
7
  6
BYLAYER
 70
0
 71
3
 72
11
 73
7
 74
0
 42
0.0000001
 43
0.0000001
 44
0.0000000001
 40
0.0
 40
0.0
 40
0.0
 40
0.0
 40
0.2639121489
 40
0.5193970938
 40
0.7651743865
 40
1.0
 40
1.0
 40
1.0
 40
1.0
 10
26.9014957702
 20
39.6180816447
 30
0.0
 10
27.0190619144
 20
39.2354006097
 30
0.0
 10
27.2265965503
 20
38.4746455479
 30
0.0
 10
27.455140319
 20
37.3356948334
 30
0.0
 10
27.5941387717
 20
36.226768525
 30
0.0
 10
27.6270161526
 20
35.4974549166
 30
0.0
 10
27.6270161526
 20
35.1412437272
 30
0.0
  0
SPLINE
  5
2E2
100
AcDbEntity
  8
0
100
AcDbSpline
 62
7
  6
BYLAYER
 70
0
 71
3
 72
28
 73
24
 74
0
 42
0.0000001
 43
0.0000001
 44
0.0000000001
 40
0.0
 40
0.0
 40
0.0
 40
0.0
 40
0.0819765235
 40
0.1606876237
 40
0.2355339882
 40
0.3060756714
 40
0.3720774699
 40
0.4335620503
 40
0.4908665333
 40
0.5181837966
 40
0.5447501418
 40
0.5707121948
 40
0.5962352567
 40
0.6215008003
 40
0.6466996143
 40
0.6720252056
 40
0.6976658628
 40
0.723798771
 40
0.7505840228
 40
0.8065921916
 40
0.8665777359
 40
0.9310125096
 40
1.0
 40
1.0
 40
1.0
 40
1.0
 10
22.2682171032
 20
47.6442074963
 30
0.0
 10
21.9312994195
 20
48.0102098857
 30
0.0
 10
21.2428925821
 20
48.7025818856
 30
0.0
 10
20.1524454069
 20
49.629327586
 30
0.0
 10
19.038086878
 20
50.4125313391
 30
0.0
 10
17.9164700843
 20
51.0402153824
 30
0.0
 10
16.8039066394
 20
51.5026709597
 30
0.0
 10
15.7167863156
 20
51.7923554095
 30
0.0
 10
14.8305670525
 20
51.8863859829
 30
0.0
 10
14.1552753401
 20
51.8665526693
 30
0.0
 10
13.67367448
 20
51.8066802638
 30
0.0
 10
13.2109549969
 20
51.7018165377
 30
0.0
 10
12.7689620702
 20
51.5522545889
 30
0.0
 10
12.3495354738
 20
51.3585329248
 30
0.0
 10
11.954358505
 20
51.1214992219
 30
0.0
 10
11.5851333779
 20
50.8420109096
 30
0.0
 10
11.2432575506
 20
50.5213768081
 30
0.0
 10
10.9301392799
 20
50.1608190028
 30
0.0
 10
10.5469375591
 20
49.6211190789
 30
0.0
 10
10.1473463431
 20
48.8468271083
 30
0.0
 10
9.8080064591
 20
47.8016265363
 30
0.0
 10
9.6047985881
 20
46.6423608294
 30
0.0
 10
9.5628329321
 20
45.8317594271
 30
0.0
 10
9.5628329321
 20
45.4131169919
 30
0.0
  0
SPLINE
  5
2E3
100
AcDbEntity
  8
0
100
AcDbSpline
 62
7
  6
BYLAYER
 70
0
 71
3
 72
27
 73
23
 74
0
 42
0.0000001
 43
0.0000001
 44
0.0000000001
 40
0.0
 40
0.0
 40
0.0
 40
0.0
 40
0.0213298631
 40
0.0428882104
 40
0.0648912163
 40
0.0875337703
 40
0.1109806819
 40
0.135365196
 40
0.1607854269
 40
0.1873083479
 40
0.2437397772
 40
0.3046808722
 40
0.3697613657
 40
0.4383510363
 40
0.5096296298
 40
0.5826458431
 40
0.6563692194
 40
0.7297382671
 40
0.801706788
 40
0.8712920473
 40
0.9376227561
 40
1.0
 40
1.0
 40
1.0
 40
1.0
 10
11.8093605436
 20
52.6526044154
 30
0.0
 10
11.9838185399
 20
52.7533271348
 30
0.0
 10
12.3479941187
 20
52.933596132
 30
0.0
 10
12.9286683501
 20
53.1342703667
 30
0.0
 10
13.5416392154
 20
53.2650645842
 30
0.0
 10
14.1832799136
 20
53.3251989778
 30
0.0
 10
14.8500089942
 20
53.3147341884
 30
0.0
 10
15.5381625515
 20
53.2337805466
 30
0.0
 10
16.2440986681
 20
53.0830831525
 30
0.0
 10
17.2240811151
 20
52.7840905794
 30
0.0
 10
18.4720040838
 20
52.2325912761
 30
0.0
 10
19.9453784062
 20
51.331144135
 30
0.0
 10
21.3954874621
 20
50.1959057225
 30
0.0
 10
22.7918483207
 20
48.8510815366
 30
0.0
 10
24.1051840589
 20
47.3251345613
 30
0.0
 10
25.3075989814
 20
45.6505168504
 30
0.0
 10
26.3734896851
 20
43.8629148952
 30
0.0
 10
27.2801126277
 20
42.0004537769
 30
0.0
 10
28.0081429308
 20
40.1028739885
 30
0.0
 10
28.5420570887
 20
38.2104022669
 30
0.0
 10
28.8704746841
 20
36.3635049217
 30
0.0
 10
28.9502792605
 20
35.147131487
 30
0.0
 10
28.9502792605
 20
34.5580197706
 30
0.0
  0
SPLINE
  5
2E4
100
AcDbEntity
  8
0
100
AcDbSpline
 62
7
  6
BYLAYER
 70
0
 71
3
 72
15
 73
11
 74
0
 42
0.0000001
 43
0.0000001
 44
0.0000000001
 40
0.0
 40
0.0
 40
0.0
 40
0.0
 40
0.1485611419
 40
0.2894725025
 40
0.4226877687
 40
0.5486167635
 40
0.6679906095
 40
0.7819419148
 40
0.8919971324
 40
1.0
 40
1.0
 40
1.0
 40
1.0
 10
32.2232011039
 20
36.4068063832
 30
0.0
 10
32.2232011039
 20
36.036192353
 30
0.0
 10
32.1933530407
 20
35.3135521823
 30
0.0
 10
32.0513192533
 20
34.267016937
 30
0.0
 10
31.8140269391
 20
33.2955118382
 30
0.0
 10
31.4833655618
 20
32.4084328914
 30
0.0
 10
31.0618507979
 20
31.6142952122
 30
0.0
 10
30.552762735
 20
30.9211838613
 30
0.0
 10
29.9607882117
 20
30.3368703124
 30
0.0
 10
29.5126912821
 20
30.0230214321
 30
0.0
 10
29.279608916
 20
29.8878654893
 30
0.0
  0
SPLINE
  5
2E5
100
AcDbEntity
  8
0
100
AcDbSpline
 62
7
  6
BYLAYER
 70
0
 71
3
 72
15
 73
11
 74
0
 42
0.0000001
 43
0.0000001
 44
0.0000000001
 40
0.0
 40
0.0
 40
0.0
 40
0.0
 40
0.1080123976
 40
0.2180613342
 40
0.3319984968
 40
0.4513576595
 40
0.577277183
 40
0.7104923415
 40
0.8514153143
 40
1.0
 40
1.0
 40
1.0
 40
1.0
 10
29.2468458686
 20
29.9266751421
 30
0.0
 10
29.4796626317
 20
30.0610904111
 30
0.0
 10
29.9272908925
 20
30.3734275666
 30
0.0
 10
30.5187434854
 20
30.9555047454
 30
0.0
 10
31.0274077697
 20
31.6463614581
 30
0.0
 10
31.4485846269
 20
32.4382235567
 30
0.0
 10
31.7789886909
 20
33.3230016149
 30
0.0
 10
32.0160984377
 20
34.2921776553
 30
0.0
 10
32.1580227913
 20
35.3363507011
 30
0.0
 10
32.1878456177
 20
36.0574048831
 30
0.0
 10
32.1878456177
 20
36.4272184209
 30
0.0
  0
SPLINE
  5
2E6
100
AcDbEntity
  8
0
100
AcDbSpline
 62
7
  6
BYLAYER
 70
0
 71
3
 72
27
 73
23
 74
0
 42
0.0000001
 43
0.0000001
 44
0.0000000001
 40
0.0
 40
0.0
 40
0.0
 40
0.0
 40
0.0213298575
 40
0.0428881857
 40
0.0648911576
 40
0.0875336618
 40
0.1109805271
 40
0.135365007
 40
0.1607852313
 40
0.1873081673
 40
0.2437396505
 40
0.304680776
 40
0.3697612665
 40
0.4383508467
 40
0.5096292476
 40
0.5826452346
 40
0.6563684015
 40
0.7297373732
 40
0.8017057439
 40
0.8712913185
 40
0.9376225248
 40
1.0
 40
1.0
 40
1.0
 40
1.0
 10
15.0219292367
 20
54.5651005458
 30
0.0
 10
15.1970015163
 20
54.6661777025
 30
0.0
 10
15.5624592804
 20
54.8470808751
 30
0.0
 10
16.1451775427
 20
55.0484611498
 30
0.0
 10
16.7603056947
 20
55.1797151998
 30
0.0
 10
17.4042042435
 20
55.2400614567
 30
0.0
 10
18.0732795071
 20
55.2295594124
 30
0.0
 10
18.7638551763
 20
55.1483214931
 30
0.0
 10
19.4722764962
 20
54.997093374
 30
0.0
 10
20.4557100458
 20
54.6970486245
 30
0.0
 10
21.7080276951
 20
54.1436073413
 30
0.0
 10
23.1865903814
 20
53.2389863531
 30
0.0
 10
24.641804768
 20
52.0997516161
 30
0.0
 10
26.0430804578
 20
50.7501949161
 30
0.0
 10
27.3610378677
 20
49.2188797246
 30
0.0
 10
28.567684004
 20
47.5383717141
 30
0.0
 10
29.6373269136
 20
45.7444812442
 30
0.0
 10
30.5471422115
 20
43.8754674774
 30
0.0
 10
31.2777387448
 20
41.9712069213
 30
0.0
 10
31.8135373991
 20
40.0720668967
 30
0.0
 10
32.1431144648
 20
38.2186574104
 30
0.0
 10
32.2232011039
 20
36.9979944492
 30
0.0
 10
32.2232011039
 20
36.4068063832
 30
0.0
  0
SPLINE
  5
2E7
100
AcDbEntity
  8
0
100
AcDbSpline
 62
7
  6
BYLAYER
 70
0
 71
3
 72
15
 73
11
 74
0
 42
0.0000001
 43
0.0000001
 44
0.0000000001
 40
0.0
 40
0.0
 40
0.0
 40
0.0
 40
0.1485846647
 40
0.2895068885
 40
0.4227214545
 40
0.5486407511
 40
0.6680001328
 40
0.7819379016
 40
0.8919871991
 40
1.0
 40
1.0
 40
1.0
 40
1.0
 10
28.9502792605
 20
34.5580197706
 30
0.0
 10
28.9502792605
 20
34.1882061695
 30
0.0
 10
28.9204569554
 20
33.467153675
 30
0.0
 10
28.7785332755
 20
32.422983583
 30
0.0
 10
28.5414247641
 20
31.4538111052
 30
0.0
 10
28.2110252066
 20
30.569032593
 30
0.0
 10
27.7898471278
 20
29.7771690432
 30
0.0
 10
27.2811830195
 20
29.0863084252
 30
0.0
 10
26.6897297271
 20
28.5042264104
 30
0.0
 10
26.2420991928
 20
28.1918888785
 30
0.0
 10
26.0092817829
 20
28.057472554
 30
0.0
  0
SPLINE
  5
2E8
100
AcDbEntity
  8
0
100
AcDbSpline
 62
7
  6
BYLAYER
 70
0
 71
3
 72
27
 73
23
 74
0
 42
0.0000001
 43
0.0000001
 44
0.0000000001
 40
0.0
 40
0.0
 40
0.0
 40
0.0
 40
0.0623773053
 40
0.1287082073
 40
0.1982935682
 40
0.2702618618
 40
0.343630993
 40
0.4173544027
 40
0.4903705431
 40
0.5616490293
 40
0.6302387119
 40
0.695319311
 40
0.756260486
 40
0.8126919529
 40
0.8392148768
 40
0.8646350901
 40
0.8890195694
 40
0.9124664344
 40
0.9351089355
 40
0.9571118908
 40
0.978670186
 40
1.0
 40
1.0
 40
1.0
 40
1.0
 10
32.1878456177
 20
36.4272184209
 30
0.0
 10
32.1878456177
 20
37.0163305353
 30
0.0
 10
32.1080407027
 20
38.2327060014
 30
0.0
 10
31.7796217933
 20
40.0796059616
 30
0.0
 10
31.2457065479
 20
41.9720774222
 30
0.0
 10
30.5176754261
 20
43.8696557684
 30
0.0
 10
29.6110526539
 20
45.7321151004
 30
0.0
 10
28.5451611515
 20
47.5197163193
 30
0.0
 10
27.3427467874
 20
49.1943319256
 30
0.0
 10
26.0294119923
 20
50.7202767842
 30
0.0
 10
24.6330511705
 20
52.0651002807
 30
0.0
 10
23.1829408
 20
53.2003391334
 30
0.0
 10
21.7095647541
 20
54.1017865232
 30
0.0
 10
20.4616407636
 20
54.6532852981
 30
0.0
 10
19.4816582411
 20
54.9522772885
 30
0.0
 10
18.7757226776
 20
55.1029739619
 30
0.0
 10
18.0875702181
 20
55.1839270515
 30
0.0
 10
17.4208426122
 20
55.1943914513
 30
0.0
 10
16.7792035485
 20
55.1342570146
 30
0.0
 10
16.1662343422
 20
55.0034630796
 30
0.0
 10
15.5855615609
 20
54.8027896051
 30
0.0
 10
15.2213869345
 20
54.6225212011
 30
0.0
 10
15.0469291722
 20
54.5217991279
 30
0.0
  0
SPLINE
  5
2E9
100
AcDbEntity
  8
0
100
AcDbSpline
 62
7
  6
BYLAYER
 70
0
 71
3
 72
25
 73
21
 74
0
 42
0.0000001
 43
0.0000001
 44
0.0000000001
 40
0.0
 40
0.0
 40
0.0
 40
0.0
 40
0.0623822244
 40
0.1287225854
 40
0.1983143457
 40
0.2702904334
 40
0.3436678223
 40
0.4174003595
 40
0.4904252258
 40
0.5617120228
 40
0.6303092909
 40
0.6953967588
 40
0.756344231
 40
0.8127814883
 40
0.8646821229
 40
0.9124571473
 40
0.9351017524
 40
0.9571072827
 40
0.9786677517
 40
1.0
 40
1.0
 40
1.0
 40
1.0
 10
40.2488116976
 20
43.5306565003
 30
0.0
 10
40.2488116976
 20
43.9952940573
 30
0.0
 10
40.1858583851
 20
44.9546896888
 30
0.0
 10
39.9268462033
 20
46.4113967466
 30
0.0
 10
39.5057078954
 20
47.9040511418
 30
0.0
 10
38.9315033411
 20
49.4007300038
 30
0.0
 10
38.2164082624
 20
50.8697164081
 30
0.0
 10
37.3757007618
 20
52.279669578
 30
0.0
 10
36.4273033067
 20
53.6005053403
 30
0.0
 10
35.3914296559
 20
54.8040717984
 30
0.0
 10
34.2900577502
 20
55.8647835673
 30
0.0
 10
33.1463558668
 20
56.7601568215
 30
0.0
 10
31.9841094072
 20
57.4712265963
 30
0.0
 10
30.8267949807
 20
57.9826591602
 30
0.0
 10
29.6978797357
 20
58.2827091217
 30
0.0
 10
28.7822596236
 20
58.3499455011
 30
0.0
 10
28.0955415638
 20
58.2854591684
 30
0.0
 10
27.6120346518
 20
58.1823783696
 30
0.0
 10
27.1540717242
 20
58.024021853
 30
0.0
 10
26.8668111991
 20
57.8818912077
 30
0.0
 10
26.7292103059
 20
57.8024476883
 30
0.0
  0
SPLINE
  5
2EA
100
AcDbEntity
  8
0
100
AcDbSpline
 62
7
  6
BYLAYER
 70
0
 71
3
 72
11
 73
7
 74
0
 42
0.0000001
 43
0.0000001
 44
0.0000000001
 40
0.0
 40
0.0
 40
0.0
 40
0.0
 40
0.217745073
 40
0.4508830113
 40
0.7104597664
 40
1.0
 40
1.0
 40
1.0
 40
1.0
 10
40.9690233797
 20
34.8244600891
 30
0.0
 10
40.985513452
 20
34.8339805878
 30
0.0
 10
41.0163975843
 20
34.8598852587
 30
0.0
 10
41.0492507896
 20
34.9136258676
 30
0.0
 10
41.0687273551
 20
34.9798312657
 30
0.0
 10
41.0725933499
 20
35.0280095165
 30
0.0
 10
41.0725933499
 20
35.0533288316
 30
0.0
  0
SPLINE
  5
2EB
100
AcDbEntity
  8
0
100
AcDbSpline
 62
7
  6
BYLAYER
 70
0
 71
3
 72
11
 73
7
 74
0
 42
0.0000001
 43
0.0000001
 44
0.0000000001
 40
0.0
 40
0.0
 40
0.0
 40
0.0
 40
0.217745073
 40
0.4508830113
 40
0.7104597664
 40
1.0
 40
1.0
 40
1.0
 40
1.0
 10
35.3722499052
 20
29.6457107647
 30
0.0
 10
35.3887399775
 20
29.6552312634
 30
0.0
 10
35.4196241097
 20
29.6811359343
 30
0.0
 10
35.4524773151
 20
29.7348765432
 30
0.0
 10
35.4719538806
 20
29.8010819413
 30
0.0
 10
35.4758198753
 20
29.8492601921
 30
0.0
 10
35.4758198753
 20
29.8745795072
 30
0.0
  0
SPLINE
  5
2EC
100
AcDbEntity
  8
0
100
AcDbSpline
 62
7
  6
BYLAYER
 70
0
 71
3
 72
14
 73
10
 74
0
 42
0.0000001
 43
0.0000001
 44
0.0000000001
 40
0.0
 40
0.0
 40
0.0
 40
0.0
 40
0.1080466357
 40
0.2181307812
 40
0.3321113461
 40
0.4515001674
 40
0.5774437985
 40
0.7107269735
 40
1.0
 40
1.0
 40
1.0
 40
1.0
 10
40.6991885062
 20
30.8015073534
 30
0.0
 10
40.761491026
 20
30.8374775077
 30
0.0
 10
40.8812603455
 20
30.9210831032
 30
0.0
 10
41.0395675149
 20
31.0768233498
 30
0.0
 10
41.1756504024
 20
31.2617288938
 30
0.0
 10
41.2883911221
 20
31.4735951308
 30
0.0
 10
41.376805676
 20
31.71039468
 30
0.0
 10
41.463730374
 20
32.0657472049
 30
0.0
 10
41.4862172115
 20
32.3484817863
 30
0.0
 10
41.4862172115
 20
32.5410883133
 30
0.0
  0
SPLINE
  5
2ED
100
AcDbEntity
  8
0
100
AcDbSpline
 62
7
  6
BYLAYER
 70
0
 71
3
 72
14
 73
10
 74
0
 42
0.0000001
 43
0.0000001
 44
0.0000000001
 40
0.0
 40
0.0
 40
0.0
 40
0.0
 40
0.1080471438
 40
0.2181317193
 40
0.3321125724
 40
0.4515014986
 40
0.5774450424
 40
0.710727948
 40
1.0
 40
1.0
 40
1.0
 40
1.0
 10
36.4565654829
 20
28.3520424301
 30
0.0
 10
36.3942643423
 20
28.3160730646
 30
0.0
 10
36.261977924
 20
28.2541544194
 30
0.0
 10
36.0479543286
 20
28.1949278186
 30
0.0
 10
35.8197856696
 20
28.1695292064
 30
0.0
 10
35.5799399613
 20
28.1778244181
 30
0.0
 10
35.330664812
 20
28.219651977
 30
0.0
 10
34.9794675621
 20
28.3220433042
 30
0.0
 10
34.723375291
 20
28.4439303468
 30
0.0
 10
34.5565772326
 20
28.5402290721
 30
0.0
  0
SPLINE
  5
2EE
100
AcDbEntity
  8
0
100
AcDbSpline
 62
7
  6
BYLAYER
 70
0
 71
3
 72
14
 73
10
 74
0
 42
0.0000001
 43
0.0000001
 44
0.0000000001
 40
0.0
 40
0.0
 40
0.0
 40
0.0
 40
0.1080471438
 40
0.2181317193
 40
0.3321125724
 40
0.4515014986
 40
0.5774450424
 40
0.710727948
 40
1.0
 40
1.0
 40
1.0
 40
1.0
 10
42.0533389574
 20
32.9463479191
 30
0.0
 10
41.9910378169
 20
32.9103785536
 30
0.0
 10
41.8587513985
 20
32.8484599084
 30
0.0
 10
41.6447278031
 20
32.7892333076
 30
0.0
 10
41.4165591441
 20
32.7638346954
 30
0.0
 10
41.1767134358
 20
32.7721299071
 30
0.0
 10
40.9274382865
 20
32.813957466
 30
0.0
 10
40.5762410366
 20
32.9163487932
 30
0.0
 10
40.3201487655
 20
33.0382358358
 30
0.0
 10
40.1533507072
 20
33.1345345611
 30
0.0
  0
SPLINE
  5
2EF
100
AcDbEntity
  8
0
100
AcDbSpline
 62
7
  6
BYLAYER
 70
0
 71
3
 72
14
 73
10
 74
0
 42
0.0000001
 43
0.0000001
 44
0.0000000001
 40
0.0
 40
0.0
 40
0.0
 40
0.0
 40
0.2892730352
 40
0.4225562199
 40
0.5484998506
 40
0.6678886669
 40
0.7818692291
 40
0.8919533702
 40
1.0
 40
1.0
 40
1.0
 40
1.0
 10
42.8403676627
 20
34.685928879
 30
0.0
 10
42.8403676627
 20
34.4933223464
 30
0.0
 10
42.8178808191
 20
34.2105877534
 30
0.0
 10
42.7309561181
 20
33.8552352173
 30
0.0
 10
42.6425415608
 20
33.6184356662
 30
0.0
 10
42.5298008342
 20
33.4065694392
 30
0.0
 10
42.3937179507
 20
33.2216639034
 30
0.0
 10
42.235410789
 20
33.0659236603
 30
0.0
 10
42.1156414705
 20
32.9823180771
 30
0.0
 10
42.0533389574
 20
32.9463479191
 30
0.0
  0
SPLINE
  5
2F0
100
AcDbEntity
  8
0
100
AcDbSpline
 62
7
  6
BYLAYER
 70
0
 71
3
 72
14
 73
10
 74
0
 42
0.0000001
 43
0.0000001
 44
0.0000000001
 40
0.0
 40
0.0
 40
0.0
 40
0.0
 40
0.2892730352
 40
0.4225562199
 40
0.5484998506
 40
0.6678886669
 40
0.7818692291
 40
0.8919533702
 40
1.0
 40
1.0
 40
1.0
 40
1.0
 10
37.2435941882
 20
30.0916233901
 30
0.0
 10
37.2435941882
 20
29.8990168574
 30
0.0
 10
37.2211073446
 20
29.6162822644
 30
0.0
 10
37.1341826435
 20
29.2609297283
 30
0.0
 10
37.0457680862
 20
29.0241301772
 30
0.0
 10
36.9330273597
 20
28.8122639502
 30
0.0
 10
36.7969444762
 20
28.6273584144
 30
0.0
 10
36.6386373145
 20
28.4716181713
 30
0.0
 10
36.518867996
 20
28.3880125881
 30
0.0
 10
36.4565654829
 20
28.3520424301
 30
0.0
  0
SPLINE
  5
2F1
100
AcDbEntity
  8
0
100
AcDbSpline
 62
7
  6
BYLAYER
 70
0
 71
3
 72
11
 73
7
 74
0
 42
0.0000001
 43
0.0000001
 44
0.0000000001
 40
0.0
 40
0.0
 40
0.0
 40
0.0
 40
0.2895391946
 40
0.5491157945
 40
0.7822541179
 40
1.0
 40
1.0
 40
1.0
 40
1.0
 10
35.1222650127
 20
29.6704486759
 30
0.0
 10
35.1441916416
 20
29.6577896172
 30
0.0
 10
35.1878471707
 20
29.6370495877
 30
0.0
 10
35.2549192635
 20
29.6208150541
 30
0.0
 10
35.3178849691
 20
29.6223967815
 30
0.0
 10
35.3557602127
 20
29.6361904852
 30
0.0
 10
35.3722499052
 20
29.6457107647
 30
0.0
  0
SPLINE
  5
2F2
100
AcDbEntity
  8
0
100
AcDbSpline
 62
7
  6
BYLAYER
 70
0
 71
3
 72
11
 73
7
 74
0
 42
0.0000001
 43
0.0000001
 44
0.0000000001
 40
0.0
 40
0.0
 40
0.0
 40
0.0
 40
0.2200625142
 40
0.4576836033
 40
0.7171949095
 40
1.0
 40
1.0
 40
1.0
 40
1.0
 10
46.586873082
 20
35.625515637
 30
0.0
 10
46.6691339257
 20
35.7117989456
 30
0.0
 10
46.8169526699
 20
35.9143757498
 30
0.0
 10
46.9717350497
 20
36.2735000258
 30
0.0
 10
47.0642160918
 20
36.687849708
 30
0.0
 10
47.082990686
 20
36.9821921351
 30
0.0
 10
47.082990686
 20
37.1353938023
 30
0.0
  0
SPLINE
  5
2F3
100
AcDbEntity
  8
0
100
AcDbSpline
 62
7
  6
BYLAYER
 70
0
 71
3
 72
11
 73
7
 74
0
 42
0.0000001
 43
0.0000001
 44
0.0000000001
 40
0.0
 40
0.0
 40
0.0
 40
0.0
 40
0.2895391946
 40
0.5491157945
 40
0.7822541179
 40
1.0
 40
1.0
 40
1.0
 40
1.0
 10
40.7190384873
 20
34.8491980003
 30
0.0
 10
40.7409651162
 20
34.8365389416
 30
0.0
 10
40.7846206453
 20
34.8157989122
 30
0.0
 10
40.851692738
 20
34.7995643785
 30
0.0
 10
40.9146584437
 20
34.8011461059
 30
0.0
 10
40.9525336872
 20
34.8149398097
 30
0.0
 10
40.9690233797
 20
34.8244600891
 30
0.0
  0
SPLINE
  5
2F4
100
AcDbEntity
  8
0
100
AcDbSpline
 62
7
  6
BYLAYER
 70
0
 71
3
 72
11
 73
7
 74
0
 42
0.0000001
 43
0.0000001
 44
0.0000000001
 40
0.0
 40
0.0
 40
0.0
 40
0.0
 40
0.2251066647
 40
0.4659068912
 40
0.7241849642
 40
1.0
 40
1.0
 40
1.0
 40
1.0
 10
36.913530947
 20
36.6904829647
 30
0.0
 10
37.012313356
 20
36.6933558518
 30
0.0
 10
37.2175945417
 20
36.6805193958
 30
0.0
 10
37.5289418938
 20
36.6111695072
 30
0.0
 10
37.8487524099
 20
36.4925984191
 30
0.0
 10
38.0579729623
 20
36.385530141
 30
0.0
 10
38.1628368309
 20
36.3249883279
 30
0.0
  0
ENDSEC
  0
SECTION
  2
OBJECTS
  0
DICTIONARY
  5
C
100
AcDbDictionary
280
0
281
1
  3
ACAD_GROUP
350
D
  3
ACAD_MLINESTYLE
350
17
  3
ACAD_LAYOUT
350
1A
  3
ACAD_PLOTSETTINGS
350
19
  3
ACAD_PLOTSTYLENAME
350
E
  0
DICTIONARY
  5
D
102
{ACAD_REACTORS
330
C
102
}
100
AcDbDictionary
280
0
281
1
  0
ACDBDICTIONARYWDFLT
  5
E
102
{ACAD_REACTORS
330
C
102
}
100
AcDbDictionary
281
1
  3
Normal
350
F
100
AcDbDictionaryWithDefault
340
F
  0
DICTIONARY
  5
17
102
{ACAD_REACTORS
330
C
102
}
100
AcDbDictionary
280
0
281
1
  3
Standard
350
18
  0
DICTIONARY
  5
19
102
{ACAD_REACTORS
330
C
102
}
100
AcDbDictionary
281
1
  0
DICTIONARY
  5
1A
102
{ACAD_REACTORS
330
C
102
}
100
AcDbDictionary
281
1
  3
Model
350
2F5
  3
Layout1
350
2F6
  0
ACDBPLACEHOLDER
  5
F
102
{ACAD_REACTORS
330
E
102
}
  0
MLINESTYLE
  5
18
102
{ACAD_REACTORS
330
17
102
}
100
AcDbMlineStyle
  2
STANDARD
 70
0
  3

 62
256
 51
90.0
 52
90.0
 71
2
 49
0.5
 62
256
  6
BYLAYER
 49
-0.5
 62
256
  6
BYLAYER
  0
LAYOUT
  5
2F5
102
{ACAD_REACTORS
330
1A
102
}
100
AcDbPlotSettings
  1

  2
none_device
  4

  6

 40
0.0
 41
0.0
 42
0.0
 43
0.0
 44
210.0
 45
297.0
 46
0.0
 47
0.0
 48
0.0
 49
0.0
140
0.0
141
0.0
142
1.0
143
1.0
 70
1024
 72
1
 73
0
 74
0
  7

 75
0
147
1.0
148
0.0
149
0.0
100
AcDbLayout
  1
Model
 70
0
 71
0
 10
0.0
 20
0.0
 11
210.0
 21
297.0
 12
0.0
 22
0.0
 32
0.0
 14
0.0
 24
0.0
 34
0.0
 15
0.0
 25
0.0
 35
0.0
146
0.0
 13
0.0
 23
0.0
 33
0.0
 16
1.0
 26
0.0
 36
0.0
 17
0.0
 27
1.0
 37
0.0
 76
0
330
210
345
0
346
0
  0
LAYOUT
  5
2F6
102
{ACAD_REACTORS
330
1A
102
}
100
AcDbPlotSettings
  1

  2
none_device
  4

  6

 40
0.0
 41
0.0
 42
0.0
 43
0.0
 44
210.0
 45
297.0
 46
0.0
 47
0.0
 48
0.0
 49
0.0
140
0.0
141
0.0
142
1.0
143
1.0
 70
0
 72
1
 73
0
 74
0
  7

 75
0
147
1.0
148
0.0
149
0.0
100
AcDbLayout
  1
Layout1
 70
0
 71
1
 10
0.0
 20
0.0
 11
210.0
 21
297.0
 12
0.0
 22
0.0
 32
0.0
 14
0.0
 24
0.0
 34
0.0
 15
0.0
 25
0.0
 35
0.0
146
0.0
 13
0.0
 23
0.0
 33
0.0
 16
1.0
 26
0.0
 36
0.0
 17
0.0
 27
1.0
 37
0.0
 76
0
330
211
345
0
346
0
  0
ENDSEC
  0
EOF
