999
DXF file: C:\Users\sesa63760\Dev\_Creo\CAD\MCADID0000495_3D-CAD\drw0001_4.dxf
999
Pro/ENGINEER 2019471 by Parametric Technology Corporation
  0
SECTION
  2
HEADER
  9
$ACADVER
  1
AC1024
  9
$DWGCODEPAGE
  3
ANSI_1252
  9
$EXTMAX
 10
234.1292622834
 20
331.1256709437
 30
0.0
  9
$EXTMIN
 10
0.0
 20
0.0
 30
0.0
  9
$LIMMIN
 10
0.0
 20
0.0
  9
$LIMMAX
 10
234.1292622834
 20
331.1256709437
  9
$VIEWCTR
 10
117.0646311417
 20
165.5628354718
  9
$VIEWSIZE
 40
331.1256709437
  9
$CLAYER
  8
0
  9
$LTSCALE
 40
21.58448818
  9
$CELTYPE
  6
BYLAYER
  9
$DIMSCALE
 40
1.0
  9
$DIMASZ
 40
2.7872531224
  9
$DIMEXO
 40
1.0
  9
$DIMDLI
 40
14.9129191062
  9
$DIMEXE
 40
1.0
  9
$DIMCEN
 40
3.5320071567
  9
$DIMLFAC
 40
1.0
  9
$DIMBLK
  1
_FILLED
  9
$DIMALT
 70
0
  9
$DIMALTF
 40
0.0393700787
  9
$DIMTXT
 40
3.9021543714
  9
$DIMTOL
 70
1
  9
$DIMLIM
 70
0
  9
$DIMTFAC
 40
1.0
  9
$DIMTP
 40
0.01
  9
$DIMTM
 40
0.01
  9
$DIMGAP
 40
0.625
  9
$DIMDSEP
 70
46
  9
$AUNITS
 70
0
  9
$PDMODE
 70
3
  9
$PDSIZE
 40
0.3125
  9
$HANDSEED
  5
345
  9
$TILEMODE
 70
1
  9
$MEASUREMENT
 70
1
  9
$INSUNITS
 70
4
  0
ENDSEC
  0
SECTION
  2
CLASSES
  0
CLASS
  1
ACDBDICTIONARYWDFLT
  2
AcDbDictionaryWithDefault
  3
AutoCAD 2000
 90
0
 91
1
280
0
281
0
  0
CLASS
  1
ACDBPLACEHOLDER
  2
AcDbPlaceHolder
  3
AutoCAD 2000
 90
0
 91
1
280
0
281
0
  0
CLASS
  1
LAYOUT
  2
AcDbLayout
  3
AutoCAD 2000
 90
0
 91
0
280
0
281
0
  0
ENDSEC
  0
SECTION
  2
TABLES
  0
TABLE
  2
VPORT
  5
8
100
AcDbSymbolTable
 70
2
  0
VPORT
  5
1F4
100
AcDbSymbolTableRecord
100
AcDbViewportTableRecord
  2
*ACTIVE
 70
0
 10
0.0
 20
0.0
 11
1.0
 21
1.0
 12
117.0646311417
 22
165.5628354718
 13
0.0
 23
0.0
 14
1.0
 24
1.0
 15
0.0
 25
0.0
 16
0.0
 26
0.0
 36
1.0
 17
0.0
 27
0.0
 37
0.0
 40
331.1256709437
 41
0.7070707071
 42
50.0
 43
0.0
 44
0.0
 50
0.0
 51
0.0
 71
0
 72
100
 73
1
 74
1
 75
0
 76
0
 77
0
 78
0
  0
ENDTAB
  0
TABLE
  2
LTYPE
  5
5
100
AcDbSymbolTable
 70
6
  0
LTYPE
  5
14
100
AcDbSymbolTableRecord
100
AcDbLinetypeTableRecord
  2
BYBLOCK
 70
0
  3

 72
65
 73
0
 40
0.0
  0
LTYPE
  5
15
100
AcDbSymbolTableRecord
100
AcDbLinetypeTableRecord
  2
BYLAYER
 70
0
  3

 72
65
 73
0
 40
0.0
  0
LTYPE
  5
16
100
AcDbSymbolTableRecord
100
AcDbLinetypeTableRecord
  2
CONTINUOUS
 70
64
  3
Solid line
 72
65
 73
0
 40
0.0
  0
LTYPE
  5
1F5
100
AcDbSymbolTableRecord
100
AcDbLinetypeTableRecord
  2
CENTER
 70
64
  3
____ _ ____ _ ____ _ ____ _ ____ _ ____ _ ____
 72
65
 73
4
 40
0.6
 49
0.375
 74
0
 49
-0.075
 74
0
 49
0.075
 74
0
 49
-0.075
 74
0
  0
LTYPE
  5
1F6
100
AcDbSymbolTableRecord
100
AcDbLinetypeTableRecord
  2
HIDDEN
 70
64
  3
- - - - - - - - - - - - - - - - - - - -
 72
65
 73
2
 40
0.2
 49
0.1
 74
0
 49
-0.1
 74
0
  0
LTYPE
  5
1F7
100
AcDbSymbolTableRecord
100
AcDbLinetypeTableRecord
  2
PHANTOM
 70
64
  3
_____ _ _ _____ _ _ _____ _ _ _____
 72
65
 73
6
 40
0.8
 49
0.45
 74
0
 49
-0.05
 74
0
 49
0.1
 74
0
 49
-0.05
 74
0
 49
0.1
 74
0
 49
-0.05
 74
0
  0
LTYPE
  5
1F8
100
AcDbSymbolTableRecord
100
AcDbLinetypeTableRecord
  2
DOT
 70
64
  3
. . . . . . . . . . . . . . . . . . . .
 72
65
 73
2
 40
0.2
 49
0.1
 74
0
 49
-0.1
 74
0
  0
LTYPE
  5
1F9
100
AcDbSymbolTableRecord
100
AcDbLinetypeTableRecord
  2
DASHED
 70
64
  3
- - - - - - - - - - - - - - - - - - - -
 72
65
 73
2
 40
0.2
 49
0.1
 74
0
 49
-0.1
 74
0
  0
ENDTAB
  0
TABLE
  2
LAYER
  5
2
100
AcDbSymbolTable
 70
36
  0
LAYER
  5
10
100
AcDbSymbolTableRecord
100
AcDbLayerTableRecord
  2
0
 70
0
 62
7
  6
CONTINUOUS
370
-3
390
F
  0
LAYER
  5
1FA
100
AcDbSymbolTableRecord
100
AcDbLayerTableRecord
  2
DEFAULT_1
 70
0
 62
7
  6
CENTER
370
-3
390
F
  0
LAYER
  5
1FB
100
AcDbSymbolTableRecord
100
AcDbLayerTableRecord
  2
DEFAULT_2
 70
0
 62
8
  6
HIDDEN
370
-3
390
F
  0
LAYER
  5
1FC
100
AcDbSymbolTableRecord
100
AcDbLayerTableRecord
  2
DEFAULT_3
 70
0
 62
7
  6
PHANTOM
370
-3
390
F
  0
LAYER
  5
1FD
100
AcDbSymbolTableRecord
100
AcDbLayerTableRecord
  2
00_COMPONENTS
 70
0
 62
7
  6
CONTINUOUS
370
-3
390
F
  0
LAYER
  5
1FE
100
AcDbSymbolTableRecord
100
AcDbLayerTableRecord
  2
01_1_DEFAULT_DATUMS
 70
0
 62
7
  6
CONTINUOUS
370
-3
390
F
  0
LAYER
  5
1FF
100
AcDbSymbolTableRecord
100
AcDbLayerTableRecord
  2
01_PLANES
 70
0
 62
7
  6
CONTINUOUS
370
-3
390
F
  0
LAYER
  5
200
100
AcDbSymbolTableRecord
100
AcDbLayerTableRecord
  2
02_COORD_SYS
 70
0
 62
7
  6
CONTINUOUS
370
-3
390
F
  0
LAYER
  5
201
100
AcDbSymbolTableRecord
100
AcDbLayerTableRecord
  2
03_AXES
 70
0
 62
7
  6
CONTINUOUS
370
-3
390
F
  0
LAYER
  5
202
100
AcDbSymbolTableRecord
100
AcDbLayerTableRecord
  2
04_POINTS
 70
0
 62
7
  6
CONTINUOUS
370
-3
390
F
  0
LAYER
  5
203
100
AcDbSymbolTableRecord
100
AcDbLayerTableRecord
  2
05_CURVES
 70
0
 62
7
  6
CONTINUOUS
370
-3
390
F
  0
LAYER
  5
204
100
AcDbSymbolTableRecord
100
AcDbLayerTableRecord
  2
06_SURFS
 70
0
 62
7
  6
CONTINUOUS
370
-3
390
F
  0
LAYER
  5
205
100
AcDbSymbolTableRecord
100
AcDbLayerTableRecord
  2
07_COSMETICS
 70
0
 62
7
  6
CONTINUOUS
370
-3
390
F
  0
LAYER
  5
206
100
AcDbSymbolTableRecord
100
AcDbLayerTableRecord
  2
10_NOTES
 70
0
 62
7
  6
CONTINUOUS
370
-3
390
F
  0
LAYER
  5
207
100
AcDbSymbolTableRecord
100
AcDbLayerTableRecord
  2
11_NOTES_PUB
 70
0
 62
7
  6
CONTINUOUS
370
-3
390
F
  0
LAYER
  5
208
100
AcDbSymbolTableRecord
100
AcDbLayerTableRecord
  2
13_REF_GTOL
 70
0
 62
7
  6
CONTINUOUS
370
-3
390
F
  0
LAYER
  5
209
100
AcDbSymbolTableRecord
100
AcDbLayerTableRecord
  2
16_MISC
 70
0
 62
7
  6
CONTINUOUS
370
-3
390
F
  0
LAYER
  5
20A
100
AcDbSymbolTableRecord
100
AcDbLayerTableRecord
  2
17_NO_PRINT
 70
0
 62
7
  6
CONTINUOUS
370
-3
390
F
  0
LAYER
  5
20B
100
AcDbSymbolTableRecord
100
AcDbLayerTableRecord
  2
18_DATUM_CAMS_JOINTS
 70
0
 62
7
  6
CONTINUOUS
370
-3
390
F
  0
LAYER
  5
20C
100
AcDbSymbolTableRecord
100
AcDbLayerTableRecord
  2
19_DATUM_FUNCTIONAL
 70
0
 62
7
  6
CONTINUOUS
370
-3
390
F
  0
LAYER
  5
20D
100
AcDbSymbolTableRecord
100
AcDbLayerTableRecord
  2
20_DATUM_KINEMATIC_SCHEME
 70
0
 62
7
  6
CONTINUOUS
370
-3
390
F
  0
ENDTAB
  0
TABLE
  2
STYLE
  5
3
100
AcDbSymbolTable
 70
1
  0
STYLE
  5
11
100
AcDbSymbolTableRecord
100
AcDbTextStyleTableRecord
  2
STANDARD
 70
0
 40
0.0
 41
0.8
 50
0.0
 71
0
 42
0.2
  3
txt
  4

  0
STYLE
  5
20E
100
AcDbSymbolTableRecord
100
AcDbTextStyleTableRecord
  2
TEXTSTYLE_1
 70
0
 40
0.0
 41
0.8
 50
0.0
 71
0
 42
0.2
  3
gdt
  4

  0
ENDTAB
  0
TABLE
  2
VIEW
  5
6
100
AcDbSymbolTable
 70
0
  0
ENDTAB
  0
TABLE
  2
UCS
  5
7
100
AcDbSymbolTable
 70
0
  0
ENDTAB
  0
TABLE
  2
APPID
  5
9
100
AcDbSymbolTable
 70
1
  0
APPID
  5
20F
100
AcDbSymbolTableRecord
100
AcDbRegAppTableRecord
  2
ACAD
 70
0
  0
ENDTAB
  0
TABLE
  2
BLOCK_RECORD
  5
1
100
AcDbSymbolTable
 70
0
  0
BLOCK_RECORD
  5
210
100
AcDbSymbolTableRecord
100
AcDbBlockTableRecord
  2
*Model_Space
  0
BLOCK_RECORD
  5
211
100
AcDbSymbolTableRecord
100
AcDbBlockTableRecord
  2
*Paper_Space
  0
BLOCK_RECORD
  5
212
100
AcDbSymbolTableRecord
100
AcDbBlockTableRecord
  2
_FILLED
  0
ENDTAB
  0
TABLE
  2
DIMSTYLE
  5
A
100
AcDbSymbolTable
 70
1
100
AcDbDimStyleTable
 71
0
  0
DIMSTYLE
105
213
100
AcDbSymbolTableRecord
100
AcDbDimStyleTableRecord
  2
STANDARD
 70
0
  3

  4

 40
1.0
 41
2.7872531224
 42
1.0
 43
0.38
 44
1.0
 45
0.0
 46
0.0
 47
0.01
 48
0.01
140
3.9021543714
141
0.09
142
0.0
143
25.4
144
1.0
145
0.0
146
1.0
147
0.625
 71
1
 72
0
 73
0
 74
0
 75
0
 76
0
 77
1
 78
8
 79
2
170
0
171
1
172
0
173
0
174
0
175
0
176
0
177
0
178
0
270
2
179
2
271
2
272
2
273
2
274
2
275
0
280
0
281
0
282
0
283
1
284
8
285
0
286
0
287
3
288
0
340
11
278
46
341
212
342
212
343
212
344
212
  0
ENDTAB
  0
ENDSEC
  0
SECTION
  2
BLOCKS
  0
BLOCK
  5
20
100
AcDbEntity
  8
0
100
AcDbBlockBegin
  2
*Model_Space
 70
0
 10
0.0
 20
0.0
 30
0.0
  3
*Model_Space
  1

  0
ENDBLK
  5
21
100
AcDbEntity
  8
0
100
AcDbBlockEnd
  0
BLOCK
  5
1C
100
AcDbEntity
  8
0
100
AcDbBlockBegin
  2
*Paper_Space
 70
0
 10
0.0
 20
0.0
 30
0.0
  3
*Paper_Space
  1

  0
ENDBLK
  5
1D
100
AcDbEntity
  8
0
100
AcDbBlockEnd
  0
BLOCK
  5
214
100
AcDbEntity
  8
0
100
AcDbBlockBegin
  2
_FILLED
 70
64
 10
0.0
 20
0.0
  3
_FILLED
  1

  0
SOLID
  5
215
100
AcDbEntity
  8
0
  6
BYBLOCK
 62
0
100
AcDbTrace
 10
0.0
 20
0.0
 11
-1.0
 21
0.25
 12
-1.0
 22
-0.25
 13
-1.0
 23
-0.25
  0
ENDBLK
  5
216
100
AcDbEntity
  8
0
  6
BYBLOCK
 62
0
100
AcDbBlockEnd
  0
ENDSEC
  0
SECTION
  2
ENTITIES
  0
LINE
  5
217
100
AcDbEntity
  8
0
100
AcDbLine
 62
7
  6
CONTINUOUS
 10
26.6944460795
 20
169.0495989815
 11
26.6769856948
 21
169.549598981
  0
LINE
  5
218
100
AcDbEntity
  8
0
100
AcDbLine
 62
7
  6
CONTINUOUS
 10
26.6506474155
 20
152.9230371876
 11
26.1326827831
 21
168.5561515457
  0
LINE
  5
219
100
AcDbEntity
  8
0
100
AcDbLine
 62
7
  6
CONTINUOUS
 10
26.6944460795
 20
168.5561515456
 11
26.6944460795
 21
169.0495989814
  0
LINE
  5
21A
100
AcDbEntity
  8
0
100
AcDbLine
 62
7
  6
CONTINUOUS
 10
26.5955568797
 20
186.0810120426
 11
26.0759981835
 21
169.549598981
  0
LINE
  5
21B
100
AcDbEntity
  8
0
100
AcDbLine
 62
7
  6
CONTINUOUS
 10
46.6389043854
 20
168.3495989816
 11
46.9923914741
 21
156.6138300262
  0
LINE
  5
21C
100
AcDbEntity
  8
0
100
AcDbLine
 62
7
  6
CONTINUOUS
 10
46.0759981839
 20
151.9561515461
 11
46.0759981835
 21
187.0495989798
  0
LINE
  5
21D
100
AcDbEntity
  8
0
100
AcDbLine
 62
7
  6
CONTINUOUS
 10
46.7326827831
 20
151.9561515461
 11
46.7326827831
 21
156.6060074736
  0
LINE
  5
21E
100
AcDbEntity
  8
0
100
AcDbLine
 62
7
  6
CONTINUOUS
 10
46.575998332
 20
169.549598981
 11
47.0955568732
 21
187.0495989798
  0
LINE
  5
21F
100
AcDbEntity
  8
0
100
AcDbLine
 62
7
  6
CONTINUOUS
 10
46.0759981835
 20
184.1239278898
 11
46.1785986288
 21
187.0495989798
  0
LINE
  5
220
100
AcDbEntity
  8
0
100
AcDbLine
 62
7
  6
CONTINUOUS
 10
50.9776650543
 20
151.9735940037
 11
50.9537965775
 21
152.6574626402
  0
LINE
  5
221
100
AcDbEntity
  8
0
100
AcDbLine
 62
7
  6
CONTINUOUS
 10
50.4651343988
 20
168.3495989816
 11
50.4651343988
 21
156.6060074736
  0
LINE
  5
222
100
AcDbEntity
  8
0
100
AcDbLine
 62
7
  6
CONTINUOUS
 10
50.9537965775
 20
168.3495989816
 11
50.9537965775
 21
152.6574626402
  0
LINE
  5
223
100
AcDbEntity
  8
0
100
AcDbLine
 62
7
  6
CONTINUOUS
 10
52.9478979265
 20
153.5350640561
 11
52.9478979265
 21
168.3495989816
  0
LINE
  5
224
100
AcDbEntity
  8
0
100
AcDbLine
 62
7
  6
CONTINUOUS
 10
58.4456597651
 20
156.6040427875
 11
58.1326827831
 21
168.5561515457
  0
LINE
  5
225
100
AcDbEntity
  8
0
100
AcDbLine
 62
7
  6
CONTINUOUS
 10
58.0629052227
 20
168.5561515462
 11
58.0629052227
 21
169.0495989822
  0
LINE
  5
226
100
AcDbEntity
  8
0
100
AcDbLine
 62
7
  6
CONTINUOUS
 10
60.7759981835
 20
167.4445989816
 11
60.7759981835
 21
184.0495989816
  0
LINE
  5
227
100
AcDbEntity
  8
0
100
AcDbLine
 62
7
  6
CONTINUOUS
 10
61.2259981835
 20
168.7795989807
 11
61.2259981835
 21
182.1995989816
  0
LINE
  5
228
100
AcDbEntity
  8
0
100
AcDbLine
 62
7
  6
CONTINUOUS
 10
61.5259981842
 20
168.8795989823
 11
61.5259981829
 21
173.7895989816
  0
LINE
  5
229
100
AcDbEntity
  8
0
100
AcDbLine
 62
7
  6
CONTINUOUS
 10
61.5259981841
 20
177.1895989816
 11
61.5259981835
 21
182.0995989817
  0
LINE
  5
22A
100
AcDbEntity
  8
0
100
AcDbLine
 62
7
  6
CONTINUOUS
 10
62.2759981839
 20
171.2395989814
 11
62.2759981839
 21
172.4895989816
  0
LINE
  5
22B
100
AcDbEntity
  8
0
100
AcDbLine
 62
7
  6
CONTINUOUS
 10
62.2759981839
 20
179.7395989814
 11
62.2759981839
 21
180.9895989816
  0
LINE
  5
22C
100
AcDbEntity
  8
0
100
AcDbLine
 62
7
  6
CONTINUOUS
 10
62.775998183
 20
146.0561515461
 11
62.775998183
 21
146.9561515461
  0
LINE
  5
22D
100
AcDbEntity
  8
0
100
AcDbLine
 62
7
  6
CONTINUOUS
 10
58.0629052227
 20
169.0495989823
 11
58.4308790603
 21
183.1019528785
  0
LINE
  5
22E
100
AcDbEntity
  8
0
100
AcDbLine
 62
7
  6
CONTINUOUS
 10
68.0759981835
 20
146.9561515461
 11
68.0759981835
 21
151.9561515462
  0
LINE
  5
22F
100
AcDbEntity
  8
0
100
AcDbLine
 62
7
  6
CONTINUOUS
 10
73.2759981831
 20
180.9895989816
 11
73.2759981831
 21
179.7395989814
  0
LINE
  5
230
100
AcDbEntity
  8
0
100
AcDbLine
 62
7
  6
CONTINUOUS
 10
73.2759981831
 20
172.4895989816
 11
73.2759981831
 21
171.2395989814
  0
LINE
  5
231
100
AcDbEntity
  8
0
100
AcDbLine
 62
7
  6
CONTINUOUS
 10
74.0259981842
 20
182.0995989817
 11
74.025998184
 21
177.1895989816
  0
LINE
  5
232
100
AcDbEntity
  8
0
100
AcDbLine
 62
7
  6
CONTINUOUS
 10
74.0259981829
 20
173.7895989816
 11
74.0259981842
 21
168.8795989818
  0
LINE
  5
233
100
AcDbEntity
  8
0
100
AcDbLine
 62
7
  6
CONTINUOUS
 10
74.3259981835
 20
182.1995966369
 11
74.3259981835
 21
168.7795989816
  0
LINE
  5
234
100
AcDbEntity
  8
0
100
AcDbLine
 62
7
  6
CONTINUOUS
 10
74.7759981835
 20
184.0495989816
 11
74.7759981835
 21
167.4445989816
  0
LINE
  5
235
100
AcDbEntity
  8
0
100
AcDbLine
 62
7
  6
CONTINUOUS
 10
76.0759981835
 20
145.0560934857
 11
76.0759981835
 21
151.9561515462
  0
LINE
  5
236
100
AcDbEntity
  8
0
100
AcDbLine
 62
7
  6
CONTINUOUS
 10
80.8759981835
 20
163.0995989816
 11
80.8759981835
 21
174.3995989816
  0
LINE
  5
237
100
AcDbEntity
  8
0
100
AcDbLine
 62
7
  6
CONTINUOUS
 10
81.3959981835
 20
163.6795989816
 11
81.3959981835
 21
174.2295989816
  0
LINE
  5
238
100
AcDbEntity
  8
0
100
AcDbLine
 62
7
  6
CONTINUOUS
 10
83.8559981835
 20
171.4895989817
 11
83.8559981835
 21
164.9795989816
  0
LINE
  5
239
100
AcDbEntity
  8
0
100
AcDbLine
 62
7
  6
CONTINUOUS
 10
86.6659981835
 20
173.4395989816
 11
86.6659981835
 21
171.7395989809
  0
LINE
  5
23A
100
AcDbEntity
  8
0
100
AcDbLine
 62
7
  6
CONTINUOUS
 10
87.7459981835
 20
174.5495989823
 11
87.7459981835
 21
173.439598981
  0
LINE
  5
23B
100
AcDbEntity
  8
0
100
AcDbLine
 62
7
  6
CONTINUOUS
 10
91.8059981835
 20
173.4395989816
 11
91.8059981835
 21
174.5495989813
  0
LINE
  5
23C
100
AcDbEntity
  8
0
100
AcDbLine
 62
7
  6
CONTINUOUS
 10
92.8859981835
 20
171.7395989816
 11
92.8859981835
 21
173.4395989814
  0
LINE
  5
23D
100
AcDbEntity
  8
0
100
AcDbLine
 62
7
  6
CONTINUOUS
 10
95.6959981835
 20
164.9795989816
 11
95.6959981835
 21
171.4895989816
  0
LINE
  5
23E
100
AcDbEntity
  8
0
100
AcDbLine
 62
7
  6
CONTINUOUS
 10
98.1559981835
 20
174.2295989816
 11
98.1559981835
 21
163.6795989816
  0
LINE
  5
23F
100
AcDbEntity
  8
0
100
AcDbLine
 62
7
  6
CONTINUOUS
 10
98.6759981835
 20
174.3995989816
 11
98.6759981835
 21
163.0995989816
  0
LINE
  5
240
100
AcDbEntity
  8
0
100
AcDbLine
 62
7
  6
CONTINUOUS
 10
209.239924313
 20
151.9561515462
 11
209.3937072879
 21
151.9753518038
  0
LINE
  5
241
100
AcDbEntity
  8
0
100
AcDbLine
 62
7
  6
CONTINUOUS
 10
172.7937299816
 20
142.0495989816
 11
168.0759981835
 21
142.0495989816
  0
LINE
  5
242
100
AcDbEntity
  8
0
100
AcDbLine
 62
7
  6
CONTINUOUS
 10
66.7767257485
 20
142.0561515461
 11
73.0753712461
 21
142.0561515461
  0
LINE
  5
243
100
AcDbEntity
  8
0
100
AcDbLine
 62
7
  6
CONTINUOUS
 10
50.9776650543
 20
151.9735940037
 11
51.1196820426
 21
151.9561515462
  0
LINE
  5
244
100
AcDbEntity
  8
0
100
AcDbLine
 62
7
  6
CONTINUOUS
 10
104.8759981835
 20
163.0995989816
 11
104.8759981835
 21
174.3995989816
  0
LINE
  5
245
100
AcDbEntity
  8
0
100
AcDbLine
 62
7
  6
CONTINUOUS
 10
105.3959981835
 20
163.6795989816
 11
105.3959981835
 21
174.2295989816
  0
LINE
  5
246
100
AcDbEntity
  8
0
100
AcDbLine
 62
7
  6
CONTINUOUS
 10
107.8559981835
 20
171.4895989817
 11
107.8559981835
 21
164.9795989816
  0
LINE
  5
247
100
AcDbEntity
  8
0
100
AcDbLine
 62
7
  6
CONTINUOUS
 10
145.7596444249
 20
146.1561515461
 11
147.7326827828
 21
146.1561515461
  0
LINE
  5
248
100
AcDbEntity
  8
0
100
AcDbLine
 62
7
  6
CONTINUOUS
 10
156.5326827835
 20
146.1561515461
 11
158.5057211413
 21
146.1561515461
  0
LINE
  5
249
100
AcDbEntity
  8
0
100
AcDbLine
 62
7
  6
CONTINUOUS
 10
62.7759981829
 20
146.9561515461
 11
68.0759981835
 21
146.9561515461
  0
LINE
  5
24A
100
AcDbEntity
  8
0
100
AcDbLine
 62
7
  6
CONTINUOUS
 10
176.8759981842
 20
147.0495989816
 11
173.0759981867
 21
147.0495989816
  0
LINE
  5
24B
100
AcDbEntity
  8
0
100
AcDbLine
 62
7
  6
CONTINUOUS
 10
148.1759981835
 20
147.5561515461
 11
155.9759981839
 21
147.5561515461
  0
LINE
  5
24C
100
AcDbEntity
  8
0
100
AcDbLine
 62
7
  6
CONTINUOUS
 10
27.6500989847
 20
151.9561515461
 11
213.6326827831
 21
151.9561515461
  0
LINE
  5
24D
100
AcDbEntity
  8
0
100
AcDbLine
 62
7
  6
CONTINUOUS
 10
213.6326827612
 20
152.0202541109
 11
209.3985452777
 21
152.0202541109
  0
LINE
  5
24E
100
AcDbEntity
  8
0
100
AcDbLine
 62
7
  6
CONTINUOUS
 10
46.7326827831
 20
152.0202541776
 11
50.9776650543
 21
152.0202541776
  0
LINE
  5
24F
100
AcDbEntity
  8
0
100
AcDbLine
 62
7
  6
CONTINUOUS
 10
208.6528370964
 20
152.356161176
 11
193.1759981835
 21
152.356161176
  0
LINE
  5
250
100
AcDbEntity
  8
0
100
AcDbLine
 62
7
  6
CONTINUOUS
 10
166.9896212443
 20
148.9632220426
 11
165.4759981839
 21
148.9650655975
  0
LINE
  5
251
100
AcDbEntity
  8
0
100
AcDbLine
 62
7
  6
CONTINUOUS
 10
110.6659981835
 20
173.4395989816
 11
110.6659981835
 21
171.7395989809
  0
LINE
  5
252
100
AcDbEntity
  8
0
100
AcDbLine
 62
7
  6
CONTINUOUS
 10
111.7459981835
 20
174.5495989823
 11
111.7459981835
 21
173.439598981
  0
LINE
  5
253
100
AcDbEntity
  8
0
100
AcDbLine
 62
7
  6
CONTINUOUS
 10
193.1759981835
 20
152.5580680361
 11
208.6493640274
 21
152.5580680361
  0
LINE
  5
254
100
AcDbEntity
  8
0
100
AcDbLine
 62
7
  6
CONTINUOUS
 10
51.632631238
 20
152.8465227487
 11
193.1759981835
 21
152.8465227487
  0
LINE
  5
255
100
AcDbEntity
  8
0
100
AcDbLine
 62
7
  6
CONTINUOUS
 10
46.0759981839
 20
152.9260446313
 11
26.6505477713
 21
152.9260446313
  0
LINE
  5
256
100
AcDbEntity
  8
0
100
AcDbLine
 62
7
  6
CONTINUOUS
 10
207.4043242143
 20
153.0391348795
 11
193.1759981835
 21
153.0391348795
  0
LINE
  5
257
100
AcDbEntity
  8
0
100
AcDbLine
 62
7
  6
CONTINUOUS
 10
193.1759981835
 20
153.3326895432
 11
52.7870252712
 21
153.3326895432
  0
LINE
  5
258
100
AcDbEntity
  8
0
100
AcDbLine
 62
7
  6
CONTINUOUS
 10
213.6326827831
 20
153.4633312225
 11
209.3985452777
 21
153.4633312225
  0
LINE
  5
259
100
AcDbEntity
  8
0
100
AcDbLine
 62
7
  6
CONTINUOUS
 10
46.7326827831
 20
153.4633310984
 11
50.9537965775
 21
153.4633310984
  0
LINE
  5
25A
100
AcDbEntity
  8
0
100
AcDbLine
 62
7
  6
CONTINUOUS
 10
60.4449808351
 20
154.6561515453
 11
193.7945416018
 21
154.6561515467
  0
LINE
  5
25B
100
AcDbEntity
  8
0
100
AcDbLine
 62
7
  6
CONTINUOUS
 10
213.6326827831
 20
154.8489718697
 11
209.3985452777
 21
154.8489718697
  0
LINE
  5
25C
100
AcDbEntity
  8
0
100
AcDbLine
 62
7
  6
CONTINUOUS
 10
46.7326827831
 20
154.8489719595
 11
50.9537965775
 21
154.8489719595
  0
LINE
  5
25D
100
AcDbEntity
  8
0
100
AcDbLine
 62
7
  6
CONTINUOUS
 10
46.7326827831
 20
156.6060074736
 11
50.9537965775
 21
156.6060074736
  0
LINE
  5
25E
100
AcDbEntity
  8
0
100
AcDbLine
 62
7
  6
CONTINUOUS
 10
213.6326827831
 20
156.6060085679
 11
209.3985452777
 21
156.6060085679
  0
LINE
  5
25F
100
AcDbEntity
  8
0
100
AcDbLine
 62
7
  6
CONTINUOUS
 10
116.8859981835
 20
171.7395989816
 11
116.8859981835
 21
173.4395989814
  0
LINE
  5
260
100
AcDbEntity
  8
0
100
AcDbLine
 62
7
  6
CONTINUOUS
 10
119.6959981835
 20
164.9795989816
 11
119.6959981835
 21
171.4895989816
  0
LINE
  5
261
100
AcDbEntity
  8
0
100
AcDbLine
 62
7
  6
CONTINUOUS
 10
115.8003732533
 20
173.4696128569
 11
115.805923184
 21
174.5795989816
  0
LINE
  5
262
100
AcDbEntity
  8
0
100
AcDbLine
 62
7
  6
CONTINUOUS
 10
122.1759981835
 20
162.5995989816
 11
105.3759981835
 21
162.5995989816
  0
LINE
  5
263
100
AcDbEntity
  8
0
100
AcDbLine
 62
7
  6
CONTINUOUS
 10
98.1759981835
 20
162.5995989816
 11
81.3759981835
 21
162.5995989816
  0
LINE
  5
264
100
AcDbEntity
  8
0
100
AcDbLine
 62
7
  6
CONTINUOUS
 10
121.7559981835
 20
163.2795989816
 11
105.7959981835
 21
163.2795989816
  0
LINE
  5
265
100
AcDbEntity
  8
0
100
AcDbLine
 62
7
  6
CONTINUOUS
 10
97.7559981835
 20
163.2795989816
 11
81.7959981835
 21
163.2795989816
  0
LINE
  5
266
100
AcDbEntity
  8
0
100
AcDbLine
 62
7
  6
CONTINUOUS
 10
83.8559981837
 20
164.9795989816
 11
95.6959981835
 21
164.9795989816
  0
LINE
  5
267
100
AcDbEntity
  8
0
100
AcDbLine
 62
7
  6
CONTINUOUS
 10
107.8559981837
 20
164.9795989816
 11
119.6959981835
 21
164.9795989816
  0
LINE
  5
268
100
AcDbEntity
  8
0
100
AcDbLine
 62
7
  6
CONTINUOUS
 10
115.8059981834
 20
173.4395989816
 11
115.8003732533
 21
173.4696128569
  0
LINE
  5
269
100
AcDbEntity
  8
0
100
AcDbLine
 62
7
  6
CONTINUOUS
 10
122.1559981835
 20
174.2295989816
 11
122.1559981835
 21
163.6795989816
  0
LINE
  5
26A
100
AcDbEntity
  8
0
100
AcDbLine
 62
7
  6
CONTINUOUS
 10
122.6759981835
 20
174.3995989816
 11
122.6759981835
 21
163.0995989816
  0
LINE
  5
26B
100
AcDbEntity
  8
0
100
AcDbLine
 62
7
  6
CONTINUOUS
 10
74.2759981835
 20
166.9445989816
 11
61.2759981835
 21
166.9445989816
  0
LINE
  5
26C
100
AcDbEntity
  8
0
100
AcDbLine
 62
7
  6
CONTINUOUS
 10
46.0759981837
 20
168.3495989816
 11
52.9478979265
 21
168.3495989816
  0
LINE
  5
26D
100
AcDbEntity
  8
0
100
AcDbLine
 62
7
  6
CONTINUOUS
 10
73.9259981835
 20
168.3795989816
 11
61.6259981839
 21
168.3795989822
  0
LINE
  5
26E
100
AcDbEntity
  8
0
100
AcDbLine
 62
7
  6
CONTINUOUS
 10
214.1326827792
 20
168.5561515456
 11
213.4575502875
 21
168.5561515456
  0
LINE
  5
26F
100
AcDbEntity
  8
0
100
AcDbLine
 62
7
  6
CONTINUOUS
 10
58.1326827831
 20
168.5561515457
 11
26.1326827831
 21
168.5561515457
  0
LINE
  5
270
100
AcDbEntity
  8
0
100
AcDbLine
 62
7
  6
CONTINUOUS
 10
195.1326827824
 20
168.5561515456
 11
208.0238856722
 21
168.5561515456
  0
LINE
  5
271
100
AcDbEntity
  8
0
100
AcDbLine
 62
7
  6
CONTINUOUS
 10
73.8259981828
 20
168.6795989811
 11
61.7259981834
 21
168.6795989811
  0
LINE
  5
272
100
AcDbEntity
  8
0
100
AcDbLine
 62
7
  6
CONTINUOUS
 10
58.0629052227
 20
169.0495989822
 11
26.6944460795
 21
169.0495989827
  0
LINE
  5
273
100
AcDbEntity
  8
0
100
AcDbLine
 62
7
  6
CONTINUOUS
 10
195.1045274229
 20
169.049598981
 11
208.0238856722
 21
169.049598981
  0
LINE
  5
274
100
AcDbEntity
  8
0
100
AcDbLine
 62
7
  6
CONTINUOUS
 10
58.0759981835
 20
169.549598981
 11
26.0759981835
 21
169.549598981
  0
LINE
  5
275
100
AcDbEntity
  8
0
100
AcDbLine
 62
7
  6
CONTINUOUS
 10
195.0759981838
 20
169.549598981
 11
214.0759981835
 21
169.549598981
  0
LINE
  5
276
100
AcDbEntity
  8
0
100
AcDbLine
 62
7
  6
CONTINUOUS
 10
184.3738324892
 20
170.149598982
 11
171.7781638778
 21
170.149598982
  0
LINE
  5
277
100
AcDbEntity
  8
0
100
AcDbLine
 62
7
  6
CONTINUOUS
 10
183.3409981841
 20
170.8345989825
 11
172.8109981829
 21
170.8345989825
  0
LINE
  5
278
100
AcDbEntity
  8
0
100
AcDbLine
 62
7
  6
CONTINUOUS
 10
73.2759981839
 20
171.2395989814
 11
62.2759981839
 21
171.2395989814
  0
LINE
  5
279
100
AcDbEntity
  8
0
100
AcDbLine
 62
7
  6
CONTINUOUS
 10
183.3409981846
 20
171.3345989825
 11
172.8109981824
 21
171.3345989825
  0
LINE
  5
27A
100
AcDbEntity
  8
0
100
AcDbLine
 62
7
  6
CONTINUOUS
 10
119.4459981834
 20
171.7395989816
 11
116.8859981826
 21
171.7395989816
  0
LINE
  5
27B
100
AcDbEntity
  8
0
100
AcDbLine
 62
7
  6
CONTINUOUS
 10
110.6659981835
 20
171.7395989816
 11
108.1059981831
 21
171.7395989816
  0
LINE
  5
27C
100
AcDbEntity
  8
0
100
AcDbLine
 62
7
  6
CONTINUOUS
 10
95.4459981835
 20
171.7395989816
 11
92.8859981826
 21
171.7395989816
  0
LINE
  5
27D
100
AcDbEntity
  8
0
100
AcDbLine
 62
7
  6
CONTINUOUS
 10
86.6659981835
 20
171.7395989816
 11
84.1059981831
 21
171.7395989816
  0
LINE
  5
27E
100
AcDbEntity
  8
0
100
AcDbLine
 62
7
  6
CONTINUOUS
 10
165.4909981826
 20
178.0476751922
 11
163.2409981826
 21
176.7486370875
  0
LINE
  5
27F
100
AcDbEntity
  8
0
100
AcDbLine
 62
7
  6
CONTINUOUS
 10
91.8059981835
 20
174.5495989813
 11
97.8059981835
 21
174.5795989816
  0
LINE
  5
280
100
AcDbEntity
  8
0
100
AcDbLine
 62
7
  6
CONTINUOUS
 10
158.7759981835
 20
171.9495989816
 11
143.3759981835
 21
171.9495989816
  0
LINE
  5
281
100
AcDbEntity
  8
0
100
AcDbLine
 62
7
  6
CONTINUOUS
 10
158.5759981827
 20
172.2495989812
 11
143.5759980971
 21
172.2495989812
  0
LINE
  5
282
100
AcDbEntity
  8
0
100
AcDbLine
 62
7
  6
CONTINUOUS
 10
62.7759981839
 20
172.9895989816
 11
72.7759981835
 21
172.9895989816
  0
LINE
  5
283
100
AcDbEntity
  8
0
100
AcDbLine
 62
7
  6
CONTINUOUS
 10
116.8859981835
 20
173.4395989816
 11
115.8059981834
 21
173.4395989816
  0
LINE
  5
284
100
AcDbEntity
  8
0
100
AcDbLine
 62
7
  6
CONTINUOUS
 10
111.7459981835
 20
173.4395989816
 11
110.6659981828
 21
173.4395989816
  0
LINE
  5
285
100
AcDbEntity
  8
0
100
AcDbLine
 62
7
  6
CONTINUOUS
 10
92.8859981835
 20
173.4395989816
 11
91.8059981834
 21
173.4395989816
  0
LINE
  5
286
100
AcDbEntity
  8
0
100
AcDbLine
 62
7
  6
CONTINUOUS
 10
87.7459981835
 20
173.4395989816
 11
86.6659981828
 21
173.4395989816
  0
LINE
  5
287
100
AcDbEntity
  8
0
100
AcDbLine
 62
7
  6
CONTINUOUS
 10
61.5259981829
 20
173.7895989816
 11
74.0259981829
 21
173.7895989816
  0
LINE
  5
288
100
AcDbEntity
  8
0
100
AcDbLine
 62
7
  6
CONTINUOUS
 10
145.1259981842
 20
173.9995989816
 11
157.0259981846
 21
173.9995989816
  0
LINE
  5
289
100
AcDbEntity
  8
0
100
AcDbLine
 62
7
  6
CONTINUOUS
 10
115.805923184
 20
174.5795989816
 11
121.8059981835
 21
174.5795989816
  0
LINE
  5
28A
100
AcDbEntity
  8
0
100
AcDbLine
 62
7
  6
CONTINUOUS
 10
81.3759981835
 20
174.8995989816
 11
98.1759981835
 21
174.8995989816
  0
LINE
  5
28B
100
AcDbEntity
  8
0
100
AcDbLine
 62
7
  6
CONTINUOUS
 10
105.3759981835
 20
174.8995989816
 11
122.1759981835
 21
174.8995989816
  0
LINE
  5
28C
100
AcDbEntity
  8
0
100
AcDbLine
 62
7
  6
CONTINUOUS
 10
74.025998184
 20
177.1895989816
 11
61.5259981841
 21
177.1895989816
  0
LINE
  5
28D
100
AcDbEntity
  8
0
100
AcDbLine
 62
7
  6
CONTINUOUS
 10
81.7477484169
 20
174.5795946055
 11
87.7459981835
 21
174.5495989823
  0
LINE
  5
28E
100
AcDbEntity
  8
0
100
AcDbLine
 62
7
  6
CONTINUOUS
 10
105.7459981835
 20
174.5795989816
 11
111.7459981835
 21
174.5495989823
  0
LINE
  5
28F
100
AcDbEntity
  8
0
100
AcDbLine
 62
7
  6
CONTINUOUS
 10
165.4909981826
 20
172.8515227697
 11
167.7409981826
 21
174.1505608762
  0
LINE
  5
290
100
AcDbEntity
  8
0
100
AcDbLine
 62
7
  6
CONTINUOUS
 10
172.2709981823
 20
179.5645989811
 11
183.8809981847
 21
179.5645989811
  0
LINE
  5
291
100
AcDbEntity
  8
0
100
AcDbLine
 62
7
  6
CONTINUOUS
 10
73.2759981831
 20
179.7395989814
 11
62.2759981839
 21
179.7395989814
  0
LINE
  5
292
100
AcDbEntity
  8
0
100
AcDbLine
 62
7
  6
CONTINUOUS
 10
172.2709981838
 20
180.0645989811
 11
183.8809981832
 21
180.0645989811
  0
LINE
  5
293
100
AcDbEntity
  8
0
100
AcDbLine
 62
7
  6
CONTINUOUS
 10
157.0259981835
 20
180.7495989816
 11
155.2759981835
 21
180.7495989816
  0
LINE
  5
294
100
AcDbEntity
  8
0
100
AcDbLine
 62
7
  6
CONTINUOUS
 10
146.8759981843
 20
180.7495989816
 11
145.1259981842
 21
180.7495989816
  0
LINE
  5
295
100
AcDbEntity
  8
0
100
AcDbLine
 62
7
  6
CONTINUOUS
 10
155.2759981835
 20
181.2495989806
 11
154.2259981835
 21
181.2495989806
  0
LINE
  5
296
100
AcDbEntity
  8
0
100
AcDbLine
 62
7
  6
CONTINUOUS
 10
147.9259981835
 20
181.2495989806
 11
146.8759981828
 21
181.2495989806
  0
LINE
  5
297
100
AcDbEntity
  8
0
100
AcDbLine
 62
7
  6
CONTINUOUS
 10
62.7759981839
 20
181.4895989816
 11
72.7759981831
 21
181.4895989816
  0
LINE
  5
298
100
AcDbEntity
  8
0
100
AcDbLine
 62
7
  6
CONTINUOUS
 10
170.8259981868
 20
181.5495989823
 11
185.3259981802
 21
181.5495989823
  0
LINE
  5
299
100
AcDbEntity
  8
0
100
AcDbLine
 62
7
  6
CONTINUOUS
 10
61.7259981836
 20
182.2995989817
 11
73.825998183
 21
182.2995989822
  0
LINE
  5
29A
100
AcDbEntity
  8
0
100
AcDbLine
 62
7
  6
CONTINUOUS
 10
154.2259981835
 20
182.4995989816
 11
153.0759981835
 21
182.4995989816
  0
LINE
  5
29B
100
AcDbEntity
  8
0
100
AcDbLine
 62
7
  6
CONTINUOUS
 10
149.0759981835
 20
182.4995989816
 11
147.9259981831
 21
182.4995989816
  0
LINE
  5
29C
100
AcDbEntity
  8
0
100
AcDbLine
 62
7
  6
CONTINUOUS
 10
61.6259981835
 20
182.5995989816
 11
73.9259981828
 21
182.5995989816
  0
LINE
  5
29D
100
AcDbEntity
  8
0
100
AcDbLine
 62
7
  6
CONTINUOUS
 10
144.0259981838
 20
183.7495989825
 11
149.0759981835
 21
183.7495990217
  0
LINE
  5
29E
100
AcDbEntity
  8
0
100
AcDbLine
 62
7
  6
CONTINUOUS
 10
153.0759981835
 20
183.7495990526
 11
158.1259981834
 21
183.7495990917
  0
LINE
  5
29F
100
AcDbEntity
  8
0
100
AcDbLine
 62
7
  6
CONTINUOUS
 10
60.7759981835
 20
184.0495989816
 11
74.7759981835
 21
184.0495989816
  0
LINE
  5
2A0
100
AcDbEntity
  8
0
100
AcDbLine
 62
7
  6
CONTINUOUS
 10
143.3759981835
 20
184.4495989809
 11
158.7759981835
 21
184.4495989809
  0
LINE
  5
2A1
100
AcDbEntity
  8
0
100
AcDbLine
 62
7
  6
CONTINUOUS
 10
161.0832766643
 20
150.4355774624
 11
159.5627025805
 21
151.9561515462
  0
LINE
  5
2A2
100
AcDbEntity
  8
0
100
AcDbLine
 62
7
  6
CONTINUOUS
 10
143.3759981835
 20
171.9495989816
 11
143.3759981835
 21
184.4495989809
  0
LINE
  5
2A3
100
AcDbEntity
  8
0
100
AcDbLine
 62
7
  6
CONTINUOUS
 10
143.5759980971
 20
172.2495989812
 11
143.5759981827
 21
183.2995989814
  0
LINE
  5
2A4
100
AcDbEntity
  8
0
100
AcDbLine
 62
7
  6
CONTINUOUS
 10
145.1259981842
 20
180.7495989816
 11
145.1259981842
 21
173.9995989816
  0
LINE
  5
2A5
100
AcDbEntity
  8
0
100
AcDbLine
 62
7
  6
CONTINUOUS
 10
145.7596444249
 20
146.1561515461
 11
145.7596444249
 21
151.9561515461
  0
LINE
  5
2A6
100
AcDbEntity
  8
0
100
AcDbLine
 62
7
  6
CONTINUOUS
 10
190.6609981844
 20
178.0476751922
 11
188.4109981844
 21
176.7486370875
  0
LINE
  5
2A7
100
AcDbEntity
  8
0
100
AcDbLine
 62
7
  6
CONTINUOUS
 10
60.4300476217
 20
185.04959898
 11
193.6960168074
 21
185.0495989814
  0
LINE
  5
2A8
100
AcDbEntity
  8
0
100
AcDbLine
 62
7
  6
CONTINUOUS
 10
26.5955568797
 20
186.0810120426
 11
46.0759981835
 21
186.0810120426
  0
LINE
  5
2A9
100
AcDbEntity
  8
0
100
AcDbLine
 62
7
  6
CONTINUOUS
 10
193.1759981835
 20
186.0810120436
 11
208.5589070472
 21
186.0810120436
  0
LINE
  5
2AA
100
AcDbEntity
  8
0
100
AcDbLine
 62
7
  6
CONTINUOUS
 10
47.081193047
 20
186.5657902113
 11
193.1759981835
 21
186.5657902113
  0
LINE
  5
2AB
100
AcDbEntity
  8
0
100
AcDbLine
 62
7
  6
CONTINUOUS
 10
27.5950633676
 20
187.0495989816
 11
212.5569329993
 21
187.0495989816
  0
LINE
  5
2AC
100
AcDbEntity
  8
0
100
AcDbLine
 62
7
  6
CONTINUOUS
 10
146.8759981843
 20
181.2495989809
 11
146.8759981843
 21
180.7495989816
  0
LINE
  5
2AD
100
AcDbEntity
  8
0
100
AcDbLine
 62
7
  6
CONTINUOUS
 10
147.7326827828
 20
146.1561515461
 11
147.7326827828
 21
151.9561515461
  0
LINE
  5
2AE
100
AcDbEntity
  8
0
100
AcDbLine
 62
7
  6
CONTINUOUS
 10
147.9259981835
 20
182.4995989816
 11
147.9259981835
 21
181.2495989816
  0
LINE
  5
2AF
100
AcDbEntity
  8
0
100
AcDbLine
 62
7
  6
CONTINUOUS
 10
148.1759981835
 20
147.5561515461
 11
148.1759981835
 21
151.9561515462
  0
LINE
  5
2B0
100
AcDbEntity
  8
0
100
AcDbLine
 62
7
  6
CONTINUOUS
 10
148.8259981835
 20
147.5561515461
 11
148.8259981835
 21
151.9561515462
  0
LINE
  5
2B1
100
AcDbEntity
  8
0
100
AcDbLine
 62
7
  6
CONTINUOUS
 10
149.0759981835
 20
183.7495990216
 11
149.0759981835
 21
182.4995989816
  0
LINE
  5
2B2
100
AcDbEntity
  8
0
100
AcDbLine
 62
7
  6
CONTINUOUS
 10
149.5259981828
 20
147.5561515461
 11
149.5259981828
 21
151.9561515462
  0
LINE
  5
2B3
100
AcDbEntity
  8
0
100
AcDbLine
 62
7
  6
CONTINUOUS
 10
149.9259981831
 20
147.5561515461
 11
149.9259981831
 21
151.9561515462
  0
LINE
  5
2B4
100
AcDbEntity
  8
0
100
AcDbLine
 62
7
  6
CONTINUOUS
 10
150.1259981842
 20
147.5561515461
 11
150.1259981842
 21
151.9561515462
  0
LINE
  5
2B5
100
AcDbEntity
  8
0
100
AcDbLine
 62
7
  6
CONTINUOUS
 10
153.0759981835
 20
182.4995989816
 11
153.0759981835
 21
183.7495990068
  0
LINE
  5
2B6
100
AcDbEntity
  8
0
100
AcDbLine
 62
7
  6
CONTINUOUS
 10
190.6609981844
 20
172.8515227697
 11
192.9109981844
 21
174.1505608762
  0
LINE
  5
2B7
100
AcDbEntity
  8
0
100
AcDbLine
 62
7
  6
CONTINUOUS
 10
163.2409981826
 20
174.1505608762
 11
165.4909981826
 21
172.8515227697
  0
LINE
  5
2B8
100
AcDbEntity
  8
0
100
AcDbLine
 62
7
  6
CONTINUOUS
 10
154.0259981828
 20
147.5561515461
 11
154.0259981828
 21
151.9561515462
  0
LINE
  5
2B9
100
AcDbEntity
  8
0
100
AcDbLine
 62
7
  6
CONTINUOUS
 10
154.2259981839
 20
147.5561515461
 11
154.2259981839
 21
151.9561515462
  0
LINE
  5
2BA
100
AcDbEntity
  8
0
100
AcDbLine
 62
7
  6
CONTINUOUS
 10
154.2259981835
 20
181.249598981
 11
154.2259981835
 21
182.4995989816
  0
LINE
  5
2BB
100
AcDbEntity
  8
0
100
AcDbLine
 62
7
  6
CONTINUOUS
 10
154.6259981842
 20
147.5561515461
 11
154.6259981842
 21
151.9561515462
  0
LINE
  5
2BC
100
AcDbEntity
  8
0
100
AcDbLine
 62
7
  6
CONTINUOUS
 10
155.2759981835
 20
180.7495989816
 11
155.2759981835
 21
181.2495989816
  0
LINE
  5
2BD
100
AcDbEntity
  8
0
100
AcDbLine
 62
7
  6
CONTINUOUS
 10
155.3259981835
 20
147.5561515461
 11
155.3259981835
 21
151.9561515462
  0
LINE
  5
2BE
100
AcDbEntity
  8
0
100
AcDbLine
 62
7
  6
CONTINUOUS
 10
155.9759981839
 20
147.5561515461
 11
155.9759981839
 21
151.9561515462
  0
LINE
  5
2BF
100
AcDbEntity
  8
0
100
AcDbLine
 62
7
  6
CONTINUOUS
 10
156.5326827831
 20
146.1561515461
 11
156.5326827831
 21
151.9561515461
  0
LINE
  5
2C0
100
AcDbEntity
  8
0
100
AcDbLine
 62
7
  6
CONTINUOUS
 10
157.0259981835
 20
173.9995989816
 11
157.0259981835
 21
180.7495989816
  0
LINE
  5
2C1
100
AcDbEntity
  8
0
100
AcDbLine
 62
7
  6
CONTINUOUS
 10
158.5057211413
 20
146.1561515461
 11
158.5057211413
 21
151.9561515461
  0
LINE
  5
2C2
100
AcDbEntity
  8
0
100
AcDbLine
 62
7
  6
CONTINUOUS
 10
158.5759981827
 20
183.2995989814
 11
158.5759981827
 21
172.2495989812
  0
LINE
  5
2C3
100
AcDbEntity
  8
0
100
AcDbLine
 62
7
  6
CONTINUOUS
 10
158.7759981835
 20
184.4495989809
 11
158.7759981835
 21
171.9495989816
  0
LINE
  5
2C4
100
AcDbEntity
  8
0
100
AcDbLine
 62
7
  6
CONTINUOUS
 10
167.7409981826
 20
176.7486370875
 11
165.4909981826
 21
178.0476751922
  0
LINE
  5
2C5
100
AcDbEntity
  8
0
100
AcDbLine
 62
7
  6
CONTINUOUS
 10
163.2409981826
 20
174.1505608761
 11
163.2409981826
 21
176.7486370874
  0
LINE
  5
2C6
100
AcDbEntity
  8
0
100
AcDbLine
 62
7
  6
CONTINUOUS
 10
164.0759981835
 20
146.0495989816
 11
164.0759981835
 21
151.9561515462
  0
LINE
  5
2C7
100
AcDbEntity
  8
0
100
AcDbLine
 62
7
  6
CONTINUOUS
 10
165.4759981839
 20
146.6495989811
 11
165.4759981839
 21
150.5495989818
  0
LINE
  5
2C8
100
AcDbEntity
  8
0
100
AcDbLine
 62
7
  6
CONTINUOUS
 10
188.4109981844
 20
174.1505608762
 11
190.6609981844
 21
172.8515227697
  0
LINE
  5
2C9
100
AcDbEntity
  8
0
100
AcDbLine
 62
7
  6
CONTINUOUS
 10
167.7409981826
 20
176.7486370874
 11
167.7409981826
 21
174.1505608761
  0
LINE
  5
2CA
100
AcDbEntity
  8
0
100
AcDbLine
 62
7
  6
CONTINUOUS
 10
168.4714643314
 20
151.2450651296
 11
168.4714643314
 21
151.1058670807
  0
LINE
  5
2CB
100
AcDbEntity
  8
0
100
AcDbLine
 62
7
  6
CONTINUOUS
 10
168.6759981831
 20
150.5495989818
 11
168.6759981831
 21
146.6495989811
  0
LINE
  5
2CC
100
AcDbEntity
  8
0
100
AcDbLine
 62
7
  6
CONTINUOUS
 10
172.0759981835
 20
151.9561515462
 11
172.0759981835
 21
148.0495989816
  0
LINE
  5
2CD
100
AcDbEntity
  8
0
100
AcDbLine
 62
7
  6
CONTINUOUS
 10
192.9109981844
 20
176.7486370875
 11
190.6609981844
 21
178.0476751922
  0
LINE
  5
2CE
100
AcDbEntity
  8
0
100
AcDbLine
 62
7
  6
CONTINUOUS
 10
169.228318755
 20
176.4358950819
 11
169.7683187539
 21
173.3858950823
  0
LINE
  5
2CF
100
AcDbEntity
  8
0
100
AcDbLine
 62
7
  6
CONTINUOUS
 10
170.2606617045
 20
173.4730639981
 11
169.7206617036
 21
176.5230639985
  0
LINE
  5
2D0
100
AcDbEntity
  8
0
100
AcDbLine
 62
7
  6
CONTINUOUS
 10
168.8237406202
 20
172.6286544486
 11
167.8715749236
 21
178.0286544483
  0
LINE
  5
2D1
100
AcDbEntity
  8
0
100
AcDbLine
 62
7
  6
CONTINUOUS
 10
176.0703381583
 20
143.7552932365
 11
176.7804112505
 21
144.769382708
  0
LINE
  5
2D2
100
AcDbEntity
  8
0
100
AcDbLine
 62
7
  6
CONTINUOUS
 10
188.2804214434
 20
178.0286544483
 11
187.3282557468
 21
172.6286544486
  0
LINE
  5
2D3
100
AcDbEntity
  8
0
100
AcDbLine
 62
7
  6
CONTINUOUS
 10
186.4313346634
 20
176.5230639985
 11
185.8913346625
 21
173.4730639981
  0
LINE
  5
2D4
100
AcDbEntity
  8
0
100
AcDbLine
 62
7
  6
CONTINUOUS
 10
186.3836776131
 20
173.3858950823
 11
186.9236776122
 21
176.4358950831
  0
LINE
  5
2D5
100
AcDbEntity
  8
0
100
AcDbLine
 62
7
  6
CONTINUOUS
 10
177.06854442
 20
145.3790976837
 11
177.3576074971
 21
146.4152395063
  0
LINE
  5
2D6
100
AcDbEntity
  8
0
100
AcDbLine
 62
7
  6
CONTINUOUS
 10
188.4109981844
 20
174.1505608761
 11
188.4109981844
 21
176.7486370874
  0
LINE
  5
2D7
100
AcDbEntity
  8
0
100
AcDbLine
 62
7
  6
CONTINUOUS
 10
195.1326827824
 20
168.5561515456
 11
195.0759981839
 21
169.549598981
  0
LINE
  5
2D8
100
AcDbEntity
  8
0
100
AcDbLine
 62
7
  6
CONTINUOUS
 10
194.6956191673
 20
184.0756875516
 11
195.0759981838
 21
169.549598981
  0
LINE
  5
2D9
100
AcDbEntity
  8
0
100
AcDbLine
 62
7
  6
CONTINUOUS
 10
192.9109981844
 20
176.7486370874
 11
192.9109981844
 21
174.1505608761
  0
LINE
  5
2DA
100
AcDbEntity
  8
0
100
AcDbLine
 62
7
  6
CONTINUOUS
 10
193.1759981835
 20
187.0495989814
 11
193.1759981835
 21
185.0495989814
  0
LINE
  5
2DB
100
AcDbEntity
  8
0
100
AcDbLine
 62
7
  6
CONTINUOUS
 10
193.1759981835
 20
153.3269879599
 11
193.1759981835
 21
152.356161176
  0
LINE
  5
2DC
100
AcDbEntity
  8
0
100
AcDbLine
 62
7
  6
CONTINUOUS
 10
193.1759981835
 20
153.3326895432
 11
193.1759981835
 21
154.6561515467
  0
LINE
  5
2DD
100
AcDbEntity
  8
0
100
AcDbLine
 62
7
  6
CONTINUOUS
 10
194.7941989273
 20
155.6299745977
 11
195.1326827824
 21
168.5561515467
  0
LINE
  5
2DE
100
AcDbEntity
  8
0
100
AcDbLine
 62
7
  6
CONTINUOUS
 10
209.0784657434
 20
169.549598981
 11
208.5589070472
 21
186.0810120436
  0
LINE
  5
2DF
100
AcDbEntity
  8
0
100
AcDbLine
 62
7
  6
CONTINUOUS
 10
213.5564394873
 20
186.0810120432
 11
214.0759981835
 21
169.549598981
  0
LINE
  5
2E0
100
AcDbEntity
  8
0
100
AcDbLine
 62
7
  6
CONTINUOUS
 10
208.6527759497
 20
152.356161176
 11
208.6493640274
 21
152.5580680361
  0
LINE
  5
2E1
100
AcDbEntity
  8
0
100
AcDbLine
 62
7
  6
CONTINUOUS
 10
207.4043242143
 20
168.5561515456
 11
207.4043242143
 21
153.0391330182
  0
LINE
  5
2E2
100
AcDbEntity
  8
0
100
AcDbLine
 62
7
  6
CONTINUOUS
 10
208.0238856721
 20
169.049598981
 11
208.0238856721
 21
168.5561515456
  0
LINE
  5
2E3
100
AcDbEntity
  8
0
100
AcDbLine
 62
7
  6
CONTINUOUS
 10
209.3985452777
 20
152.1601071792
 11
209.3985452777
 21
169.549598981
  0
LINE
  5
2E4
100
AcDbEntity
  8
0
100
AcDbLine
 62
7
  6
CONTINUOUS
 10
209.8874179648
 20
156.6060085679
 11
209.8874179648
 21
169.549598981
  0
LINE
  5
2E5
100
AcDbEntity
  8
0
100
AcDbLine
 62
7
  6
CONTINUOUS
 10
212.6152665821
 20
169.549598981
 11
212.6152665821
 21
156.6060085679
  0
LINE
  5
2E6
100
AcDbEntity
  8
0
100
AcDbLine
 62
7
  6
CONTINUOUS
 10
213.1148219303
 20
156.6060085679
 11
213.1148219303
 21
169.549598981
  0
LINE
  5
2E7
100
AcDbEntity
  8
0
100
AcDbLine
 62
7
  6
CONTINUOUS
 10
213.4575502875
 20
169.049598981
 11
213.4575502875
 21
168.5561515456
  0
LINE
  5
2E8
100
AcDbEntity
  8
0
100
AcDbLine
 62
7
  6
CONTINUOUS
 10
213.6326827831
 20
151.9561515461
 11
213.6326827831
 21
156.6059787222
  0
LINE
  5
2E9
100
AcDbEntity
  8
0
100
AcDbLine
 62
7
  6
CONTINUOUS
 10
209.3985452777
 20
152.1601071792
 11
209.3937072879
 21
151.9753518038
  0
LINE
  5
2EA
100
AcDbEntity
  8
0
100
AcDbLine
 62
7
  6
CONTINUOUS
 10
213.6326195287
 20
153.4633333183
 11
214.1326827792
 21
168.5561515456
  0
LINE
  5
2EB
100
AcDbEntity
  8
0
100
AcDbLine
 62
7
  6
CONTINUOUS
 10
213.4575502875
 20
169.0495989831
 11
213.4750106722
 21
169.549598981
  0
ARC
  5
2EC
100
AcDbEntity
  8
0
100
AcDbCircle
 62
7
  6
CONTINUOUS
 10
66.7763571328
 20
146.0565105143
 40
4.0003589852
100
AcDbArc
 50
180.0076051449
 51
270.0052795566
  0
ARC
  5
2ED
100
AcDbEntity
  8
0
100
AcDbCircle
 62
7
  6
CONTINUOUS
 10
60.4449808351
 20
156.6561515462
 40
2.0000000009
100
AcDbArc
 50
181.5000000056
 51
270.0
  0
ARC
  5
2EE
100
AcDbEntity
  8
0
100
AcDbCircle
 62
7
  6
CONTINUOUS
 10
27.6500989847
 20
152.9561515461
 40
1.0
100
AcDbArc
 50
181.8986161007
 51
270.0
  0
ARC
  5
2EF
100
AcDbEntity
  8
0
100
AcDbCircle
 62
7
  6
CONTINUOUS
 10
105.3759981835
 20
163.0995989816
 40
0.5
100
AcDbArc
 50
180.0
 51
270.0
  0
ARC
  5
2F0
100
AcDbEntity
  8
0
100
AcDbCircle
 62
7
  6
CONTINUOUS
 10
81.3759981835
 20
163.0995989816
 40
0.5
100
AcDbArc
 50
180.0
 51
270.0
  0
ARC
  5
2F1
100
AcDbEntity
  8
0
100
AcDbCircle
 62
7
  6
CONTINUOUS
 10
98.1759981835
 20
163.0995989816
 40
0.5
100
AcDbArc
 50
270.0
 51
360.0
  0
ARC
  5
2F2
100
AcDbEntity
  8
0
100
AcDbCircle
 62
7
  6
CONTINUOUS
 10
105.7961638827
 20
163.6797646808
 40
0.4001657335
100
AcDbArc
 50
180.0237248569
 51
269.9762751431
  0
ARC
  5
2F3
100
AcDbEntity
  8
0
100
AcDbCircle
 62
7
  6
CONTINUOUS
 10
81.7961638827
 20
163.6797646808
 40
0.4001657335
100
AcDbArc
 50
180.0237248569
 51
269.9762751431
  0
ARC
  5
2F4
100
AcDbEntity
  8
0
100
AcDbCircle
 62
7
  6
CONTINUOUS
 10
97.7558324843
 20
163.6797646808
 40
0.4001657335
100
AcDbArc
 50
270.0237248569
 51
359.9999754846
  0
ARC
  5
2F5
100
AcDbEntity
  8
0
100
AcDbCircle
 62
7
  6
CONTINUOUS
 10
60.4301991288
 20
183.0495934202
 40
2.0000055623
100
AcDbArc
 50
90.0001552547
 51
178.499844788
  0
ARC
  5
2F6
100
AcDbEntity
  8
0
100
AcDbCircle
 62
7
  6
CONTINUOUS
 10
27.5950633676
 20
186.0496758581
 40
0.9999231215
100
AcDbArc
 50
90.0000000006
 51
178.2042708838
  0
ARC
  5
2F7
100
AcDbEntity
  8
0
100
AcDbCircle
 62
7
  6
CONTINUOUS
 10
62.7759981839
 20
172.4895989816
 40
0.5
100
AcDbArc
 50
90.0000000115
 51
180.0
  0
ARC
  5
2F8
100
AcDbEntity
  8
0
100
AcDbCircle
 62
7
  6
CONTINUOUS
 10
72.7759981831
 20
172.4895989816
 40
0.5
100
AcDbArc
 50
0.0
 51
90.0
  0
ARC
  5
2F9
100
AcDbEntity
  8
0
100
AcDbCircle
 62
7
  6
CONTINUOUS
 10
62.7759981839
 20
180.9895989816
 40
0.5
100
AcDbArc
 50
90.0000000115
 51
180.0
  0
ARC
  5
2FA
100
AcDbEntity
  8
0
100
AcDbCircle
 62
7
  6
CONTINUOUS
 10
72.7759981831
 20
180.9895989816
 40
0.5
100
AcDbArc
 50
0.0
 51
90.0
  0
ARC
  5
2FB
100
AcDbEntity
  8
0
100
AcDbCircle
 62
7
  6
CONTINUOUS
 10
61.2759981835
 20
167.4445989816
 40
0.5
100
AcDbArc
 50
180.0
 51
270.0
  0
ARC
  5
2FC
100
AcDbEntity
  8
0
100
AcDbCircle
 62
7
  6
CONTINUOUS
 10
74.2759981835
 20
167.4445989816
 40
0.5
100
AcDbArc
 50
270.0
 51
360.0
  0
ARC
  5
2FD
100
AcDbEntity
  8
0
100
AcDbCircle
 62
7
  6
CONTINUOUS
 10
105.3759981835
 20
174.3995989816
 40
0.5
100
AcDbArc
 50
90.0
 51
180.0
  0
ARC
  5
2FE
100
AcDbEntity
  8
0
100
AcDbCircle
 62
7
  6
CONTINUOUS
 10
81.3759981835
 20
174.3995989816
 40
0.5
100
AcDbArc
 50
90.0
 51
180.0
  0
ARC
  5
2FF
100
AcDbEntity
  8
0
100
AcDbCircle
 62
7
  6
CONTINUOUS
 10
98.1759981835
 20
174.3995989816
 40
0.5
100
AcDbArc
 50
0.0
 51
90.0
  0
ARC
  5
300
100
AcDbEntity
  8
0
100
AcDbCircle
 62
7
  6
CONTINUOUS
 10
73.9259981827
 20
182.1995989802
 40
0.4000000008
100
AcDbArc
 50
0.0
 51
90.0000000078
  0
ARC
  5
301
100
AcDbEntity
  8
0
100
AcDbCircle
 62
7
  6
CONTINUOUS
 10
61.6259981835
 20
182.1995989816
 40
0.4
100
AcDbArc
 50
90.0000000014
 51
180.0
  0
ARC
  5
302
100
AcDbEntity
  8
0
100
AcDbCircle
 62
7
  6
CONTINUOUS
 10
61.6259981839
 20
168.7795989826
 40
0.4000000004
100
AcDbArc
 50
180.0000002664
 51
270.0000000071
  0
ARC
  5
303
100
AcDbEntity
  8
0
100
AcDbCircle
 62
7
  6
CONTINUOUS
 10
73.9259981835
 20
168.7795989816
 40
0.4
100
AcDbArc
 50
270.0000000014
 51
360.0
  0
ARC
  5
304
100
AcDbEntity
  8
0
100
AcDbCircle
 62
7
  6
CONTINUOUS
 10
81.7461446571
 20
174.2294517737
 40
0.3501465046
100
AcDbArc
 50
89.7375698937
 51
179.9759118211
  0
ARC
  5
305
100
AcDbEntity
  8
0
100
AcDbCircle
 62
7
  6
CONTINUOUS
 10
105.7461431703
 20
174.2294539948
 40
0.3501450168
100
AcDbArc
 50
90.0237248759
 51
179.9999817278
  0
ARC
  5
306
100
AcDbEntity
  8
0
100
AcDbCircle
 62
7
  6
CONTINUOUS
 10
97.8058531967
 20
174.2294539948
 40
0.3501450168
100
AcDbArc
 50
0.0000182744
 51
89.9995493563
  0
ARC
  5
307
100
AcDbEntity
  8
0
100
AcDbCircle
 62
7
  6
CONTINUOUS
 10
119.4458946215
 20
171.4894954196
 40
0.2501035835
100
AcDbArc
 50
0.0000182539
 51
89.9762751455
  0
ARC
  5
308
100
AcDbEntity
  8
0
100
AcDbCircle
 62
7
  6
CONTINUOUS
 10
108.1061017454
 20
171.4894954197
 40
0.2501035834
100
AcDbArc
 50
90.0237249428
 51
179.9762751242
  0
ARC
  5
309
100
AcDbEntity
  8
0
100
AcDbCircle
 62
7
  6
CONTINUOUS
 10
95.4458946215
 20
171.4894954196
 40
0.2501035835
100
AcDbArc
 50
0.0000182789
 51
89.9762751428
  0
ARC
  5
30A
100
AcDbEntity
  8
0
100
AcDbCircle
 62
7
  6
CONTINUOUS
 10
84.1061017454
 20
171.4894954197
 40
0.2501035834
100
AcDbArc
 50
90.0237249428
 51
179.9762751242
  0
ARC
  5
30B
100
AcDbEntity
  8
0
100
AcDbCircle
 62
7
  6
CONTINUOUS
 10
73.8259981832
 20
168.8795989821
 40
0.200000001
100
AcDbArc
 50
269.9999998908
 51
359.9999999039
  0
ARC
  5
30C
100
AcDbEntity
  8
0
100
AcDbCircle
 62
7
  6
CONTINUOUS
 10
61.7259981854
 20
168.8795989822
 40
0.2000000012
100
AcDbArc
 50
179.9999999802
 51
269.9999994216
  0
ARC
  5
30D
100
AcDbEntity
  8
0
100
AcDbCircle
 62
7
  6
CONTINUOUS
 10
73.8259981831
 20
182.099598981
 40
0.2000000011
100
AcDbArc
 50
0.0000001819
 51
90.0000000306
  0
ARC
  5
30E
100
AcDbEntity
  8
0
100
AcDbCircle
 62
7
  6
CONTINUOUS
 10
61.7259981835
 20
182.0995989816
 40
0.2
100
AcDbArc
 50
89.9999999582
 51
179.9999999754
  0
ARC
  5
30F
100
AcDbEntity
  8
0
100
AcDbCircle
 62
7
  6
CONTINUOUS
 10
172.7937251093
 20
146.0496083401
 40
4.0000093584
100
AcDbArc
 50
270.00006979
 51
324.9999302225
  0
ARC
  5
310
100
AcDbEntity
  8
0
100
AcDbCircle
 62
7
  6
CONTINUOUS
 10
168.07600121
 20
146.0496020081
 40
4.0000030265
100
AcDbArc
 50
180.000043152
 51
269.9999566487
  0
ARC
  5
311
100
AcDbEntity
  8
0
100
AcDbCircle
 62
7
  6
CONTINUOUS
 10
165.9563340398
 20
150.4467735025
 40
2.5302706641
100
AcDbArc
 50
23.0939465189
 51
28.4083447058
  0
ARC
  5
312
100
AcDbEntity
  8
0
100
AcDbCircle
 62
7
  6
CONTINUOUS
 10
166.077438522
 20
150.5484101681
 40
2.4933286409
100
AcDbArc
 50
16.2248513742
 51
21.4583262119
  0
ARC
  5
313
100
AcDbEntity
  8
0
100
AcDbCircle
 62
7
  6
CONTINUOUS
 10
166.0292184114
 20
150.491352421
 40
2.4449587636
100
AcDbArc
 50
28.3020519208
 51
31.4257150609
  0
ARC
  5
314
100
AcDbEntity
  8
0
100
AcDbCircle
 62
7
  6
CONTINUOUS
 10
175.1421014252
 20
145.9165382936
 40
2.0000062553
100
AcDbArc
 50
325.0000306013
 51
344.4119182671
  0
ARC
  5
315
100
AcDbEntity
  8
0
100
AcDbCircle
 62
7
  6
CONTINUOUS
 10
167.0759981835
 20
146.6495989813
 40
1.5999999996
100
AcDbArc
 50
180.000000006
 51
359.9999999939
  0
ARC
  5
316
100
AcDbEntity
  8
0
100
AcDbCircle
 62
7
  6
CONTINUOUS
 10
167.0759981835
 20
150.5495989816
 40
1.5999999996
100
AcDbArc
 50
119.3048542264
 51
179.9999999939
  0
ARC
  5
317
100
AcDbEntity
  8
0
100
AcDbCircle
 62
7
  6
CONTINUOUS
 10
167.0759981835
 20
150.5495989816
 40
1.5999999996
100
AcDbArc
 50
0.000000006
 51
60.9280336513
  0
ARC
  5
318
100
AcDbEntity
  8
0
100
AcDbCircle
 62
7
  6
CONTINUOUS
 10
167.0760080462
 20
150.5496024971
 40
1.4999997801
100
AcDbArc
 50
112.8578023647
 51
66.8574061296
  0
ARC
  5
319
100
AcDbEntity
  8
0
100
AcDbCircle
 62
7
  6
CONTINUOUS
 10
193.7945377284
 20
155.6561555233
 40
1.0000039766
100
AcDbArc
 50
270.0002219266
 51
358.4997780037
  0
ARC
  5
31A
100
AcDbEntity
  8
0
100
AcDbCircle
 62
7
  6
CONTINUOUS
 10
173.0759981867
 20
148.0495989848
 40
1.0000000032
100
AcDbArc
 50
179.9999999886
 51
270.0
  0
ARC
  5
31B
100
AcDbEntity
  8
0
100
AcDbCircle
 62
7
  6
CONTINUOUS
 10
122.1759981835
 20
163.0995989816
 40
0.5
100
AcDbArc
 50
270.0
 51
360.0
  0
ARC
  5
31C
100
AcDbEntity
  8
0
100
AcDbCircle
 62
7
  6
CONTINUOUS
 10
176.8759981845
 20
146.5495989828
 40
0.4999999989
100
AcDbArc
 50
344.4119486539
 51
90.0000000334
  0
ARC
  5
31D
100
AcDbEntity
  8
0
100
AcDbCircle
 62
7
  6
CONTINUOUS
 10
121.7558324843
 20
163.6797646808
 40
0.4001657335
100
AcDbArc
 50
270.0237248612
 51
359.9999755061
  0
ARC
  5
31E
100
AcDbEntity
  8
0
100
AcDbCircle
 62
7
  6
CONTINUOUS
 10
172.8109981818
 20
173.9245989812
 40
3.0899999987
100
AcDbArc
 50
190.0401263026
 51
270.0000000217
  0
ARC
  5
31F
100
AcDbEntity
  8
0
100
AcDbCircle
 62
7
  6
CONTINUOUS
 10
183.3409981852
 20
173.9245989812
 40
3.0899999987
100
AcDbArc
 50
269.9999999783
 51
349.9598736974
  0
ARC
  5
320
100
AcDbEntity
  8
0
100
AcDbCircle
 62
7
  6
CONTINUOUS
 10
183.8809981842
 20
176.9745989823
 40
3.0899999988
100
AcDbArc
 50
349.9598736913
 51
90.0000000211
  0
ARC
  5
321
100
AcDbEntity
  8
0
100
AcDbCircle
 62
7
  6
CONTINUOUS
 10
172.2709981828
 20
176.9745989823
 40
3.0899999988
100
AcDbArc
 50
89.9999999791
 51
190.0401263308
  0
ARC
  5
322
100
AcDbEntity
  8
0
100
AcDbCircle
 62
7
  6
CONTINUOUS
 10
170.8259981873
 20
178.5495989783
 40
3.0000000041
100
AcDbArc
 50
90.0000000104
 51
189.9999999298
  0
ARC
  5
323
100
AcDbEntity
  8
0
100
AcDbCircle
 62
7
  6
CONTINUOUS
 10
185.3259981797
 20
178.5495989783
 40
3.0000000041
100
AcDbArc
 50
350.0000000702
 51
89.9999999896
  0
ARC
  5
324
100
AcDbEntity
  8
0
100
AcDbCircle
 62
7
  6
CONTINUOUS
 10
171.7781638779
 20
173.1495989804
 40
2.9999999984
100
AcDbArc
 50
189.9999999825
 51
269.9999999986
  0
ARC
  5
325
100
AcDbEntity
  8
0
100
AcDbCircle
 62
7
  6
CONTINUOUS
 10
184.3738324891
 20
173.1495989804
 40
2.9999999984
100
AcDbArc
 50
270.0000000014
 51
350.0000000175
  0
ARC
  5
326
100
AcDbEntity
  8
0
100
AcDbCircle
 62
7
  6
CONTINUOUS
 10
183.8809981851
 20
176.9745989822
 40
2.5899999988
100
AcDbArc
 50
349.9598736864
 51
90.000000009
  0
ARC
  5
327
100
AcDbEntity
  8
0
100
AcDbCircle
 62
7
  6
CONTINUOUS
 10
172.2709981819
 20
176.9745989822
 40
2.5899999988
100
AcDbArc
 50
89.999999991
 51
190.0401263136
  0
ARC
  5
328
100
AcDbEntity
  8
0
100
AcDbCircle
 62
7
  6
CONTINUOUS
 10
183.3409981844
 20
173.9245989809
 40
2.5899999984
100
AcDbArc
 50
270.0000000047
 51
349.9598737046
  0
ARC
  5
329
100
AcDbEntity
  8
0
100
AcDbCircle
 62
7
  6
CONTINUOUS
 10
172.8109981826
 20
173.9245989809
 40
2.5899999984
100
AcDbArc
 50
190.0401262954
 51
269.9999999953
  0
ARC
  5
32A
100
AcDbEntity
  8
0
100
AcDbCircle
 62
7
  6
CONTINUOUS
 10
193.6959556516
 20
184.0495950023
 40
1.0000039793
100
AcDbArc
 50
1.5002220903
 51
89.9997779224
  0
ARC
  5
32B
100
AcDbEntity
  8
0
100
AcDbCircle
 62
7
  6
CONTINUOUS
 10
212.5569329993
 20
186.0495989816
 40
1.0
100
AcDbArc
 50
1.8001319908
 51
90.0
  0
CIRCLE
  5
32C
100
AcDbEntity
  8
0
100
AcDbCircle
 62
7
  6
CONTINUOUS
 10
172.5409981835
 20
176.8695989816
 40
0.51
  0
CIRCLE
  5
32D
100
AcDbEntity
  8
0
100
AcDbCircle
 62
7
  6
CONTINUOUS
 10
175.2809981835
 20
176.8695989816
 40
0.51
  0
CIRCLE
  5
32E
100
AcDbEntity
  8
0
100
AcDbCircle
 62
7
  6
CONTINUOUS
 10
183.5009981835
 20
176.869598232
 40
0.51
  0
CIRCLE
  5
32F
100
AcDbEntity
  8
0
100
AcDbCircle
 62
7
  6
CONTINUOUS
 10
173.9209981835
 20
174.029598232
 40
0.51
  0
CIRCLE
  5
330
100
AcDbEntity
  8
0
100
AcDbCircle
 62
7
  6
CONTINUOUS
 10
179.4009981835
 20
174.029598232
 40
0.51
  0
CIRCLE
  5
331
100
AcDbEntity
  8
0
100
AcDbCircle
 62
7
  6
CONTINUOUS
 10
180.7609981835
 20
176.869598232
 40
0.51
  0
CIRCLE
  5
332
100
AcDbEntity
  8
0
100
AcDbCircle
 62
7
  6
CONTINUOUS
 10
178.0209981835
 20
176.869598232
 40
0.51
  0
CIRCLE
  5
333
100
AcDbEntity
  8
0
100
AcDbCircle
 62
7
  6
CONTINUOUS
 10
176.6609981835
 20
174.029598232
 40
0.51
  0
CIRCLE
  5
334
100
AcDbEntity
  8
0
100
AcDbCircle
 62
7
  6
CONTINUOUS
 10
182.1409981835
 20
174.029598232
 40
0.51
  0
ARC
  5
335
100
AcDbEntity
  8
0
100
AcDbCircle
 62
7
  6
CONTINUOUS
 10
122.1759981835
 20
174.3995989816
 40
0.5
100
AcDbArc
 50
0.0
 51
90.0
  0
ARC
  5
336
100
AcDbEntity
  8
0
100
AcDbCircle
 62
7
  6
CONTINUOUS
 10
144.0261845989
 20
183.2994125663
 40
0.4501864548
100
AcDbArc
 50
90.0237252697
 51
179.9762747115
  0
ARC
  5
337
100
AcDbEntity
  8
0
100
AcDbCircle
 62
7
  6
CONTINUOUS
 10
158.1258117696
 20
183.2994125695
 40
0.4501864517
100
AcDbArc
 50
0.0000244649
 51
89.9763440367
  0
ARC
  5
338
100
AcDbEntity
  8
0
100
AcDbCircle
 62
7
  6
CONTINUOUS
 10
121.8058531967
 20
174.2294539948
 40
0.3501450168
100
AcDbArc
 50
0.0000182562
 51
89.9999817329
  0
SPLINE
  5
339
100
AcDbEntity
  8
0
100
AcDbSpline
 62
7
  6
CONTINUOUS
 70
0
 71
3
 72
11
 73
7
 74
0
 42
0.0000001
 43
0.0000001
 44
0.0000000001
 40
0.0
 40
0.0
 40
0.0
 40
0.0
 40
0.2500367309
 40
0.5000009054
 40
0.7499638664
 40
1.0
 40
1.0
 40
1.0
 40
1.0
 10
73.0753712461
 20
142.0561515461
 30
0.0
 10
73.4656436324
 20
142.0561515461
 30
0.0
 10
74.2546927886
 20
142.2120600328
 30
0.0
 10
75.2517185011
 20
142.8799505207
 30
0.0
 10
75.9198059287
 20
143.8768025701
 30
0.0
 10
76.0759981835
 20
144.6658220316
 30
0.0
 10
76.0759981835
 20
145.0560934857
 30
0.0
  0
SPLINE
  5
33A
100
AcDbEntity
  8
0
100
AcDbSpline
 62
7
  6
CONTINUOUS
 70
0
 71
3
 72
9
 73
5
 74
0
 42
0.0000001
 43
0.0000001
 44
0.0000000001
 40
0.0
 40
0.0
 40
0.0
 40
0.0
 40
0.499995675
 40
1.0
 40
1.0
 40
1.0
 40
1.0
 10
161.0832766687
 20
150.4355774579
 30
0.0
 10
161.4796287836
 20
150.0389874745
 30
0.0
 10
162.4130012497
 20
149.3747279298
 30
0.0
 10
163.5144004973
 20
149.059679607
 30
0.0
 10
164.0716143068
 20
148.9972115178
 30
0.0
  0
SPLINE
  5
33B
100
AcDbEntity
  8
0
100
AcDbSpline
 62
7
  6
CONTINUOUS
 70
0
 71
3
 72
9
 73
5
 74
0
 42
0.0000001
 43
0.0000001
 44
0.0000000001
 40
0.0
 40
0.0
 40
0.0
 40
0.0
 40
0.500105119
 40
1.0
 40
1.0
 40
1.0
 40
1.0
 10
166.9896212443
 20
148.9632220426
 30
0.0
 10
167.184160657
 20
148.9628291983
 30
0.0
 10
167.5771476558
 20
149.0393639899
 30
0.0
 10
167.9101540758
 20
149.2625530513
 30
0.0
 10
168.046769209
 20
149.4009374063
 30
0.0
  0
SPLINE
  5
33C
100
AcDbEntity
  8
0
100
AcDbSpline
 62
7
  6
CONTINUOUS
 70
0
 71
3
 72
16
 73
12
 74
0
 42
0.0000001
 43
0.0000001
 44
0.0000000001
 40
0.0
 40
0.0
 40
0.0
 40
0.0
 40
0.0668994605
 40
0.1340019729
 40
0.2005191379
 40
0.2670141247
 40
0.3986071094
 40
0.5279260023
 40
0.6539925058
 40
0.7756490393
 40
1.0
 40
1.0
 40
1.0
 40
1.0
 10
207.4043242143
 20
153.0354740008
 30
0.0
 10
207.4341541774
 20
153.0344675868
 30
0.0
 10
207.4899657373
 20
153.0064307701
 30
0.0
 10
207.5697320921
 20
152.9683502187
 30
0.0
 10
207.6504949314
 20
152.9296322497
 30
0.0
 10
207.7564579881
 20
152.8777995745
 30
0.0
 10
207.8886461301
 20
152.8155139034
 30
0.0
 10
208.0458840859
 20
152.7442639542
 30
0.0
 10
208.2010492508
 20
152.6790465103
 30
0.0
 10
208.3986829
 20
152.6066983285
 30
0.0
 10
208.5497699921
 20
152.5680530042
 30
0.0
 10
208.6493640274
 20
152.5580680361
 30
0.0
  0
SPLINE
  5
33D
100
AcDbEntity
  8
0
100
AcDbSpline
 62
7
  6
CONTINUOUS
 70
0
 71
3
 72
12
 73
8
 74
0
 42
0.0000001
 43
0.0000001
 44
0.0000000001
 40
0.0
 40
0.0
 40
0.0
 40
0.0
 40
0.0949686473
 40
0.1793937136
 40
0.2913393561
 40
0.5963986786
 40
1.0
 40
1.0
 40
1.0
 40
1.0
 10
50.9537965775
 20
152.6574626402
 30
0.0
 10
50.9530003236
 20
152.6802765411
 30
0.0
 10
50.9962730719
 20
152.7132382209
 30
0.0
 10
51.0572682667
 20
152.7392300735
 30
0.0
 10
51.1740838653
 20
152.7761887751
 30
0.0
 10
51.3668964646
 20
152.8134484916
 30
0.0
 10
51.5361994381
 20
152.8359065677
 30
0.0
 10
51.632631238
 20
152.8465227487
 30
0.0
  0
SPLINE
  5
33E
100
AcDbEntity
  8
0
100
AcDbSpline
 62
7
  6
CONTINUOUS
 70
0
 71
3
 72
16
 73
12
 74
0
 42
0.0000001
 43
0.0000001
 44
0.0000000001
 40
0.0
 40
0.0
 40
0.0
 40
0.0
 40
0.106617641
 40
0.2208049427
 40
0.4671274189
 40
0.5968441345
 40
0.7294439502
 40
0.7965769579
 40
0.8641339169
 40
0.9318557118
 40
1.0
 40
1.0
 40
1.0
 40
1.0
 10
51.632631238
 20
152.8497890741
 30
0.0
 10
51.6775827682
 20
152.8497890741
 30
0.0
 10
51.7703384494
 20
152.8628434235
 30
0.0
 10
51.9627018875
 20
152.9052375425
 30
0.0
 10
52.1566178681
 20
152.9795950189
 30
0.0
 10
52.3525246511
 20
153.0664671945
 30
0.0
 10
52.4778460294
 20
153.1266821377
 30
0.0
 10
52.5778292698
 20
153.1783250331
 30
0.0
 10
52.6532654392
 20
153.2193159283
 30
0.0
 10
52.7241341037
 20
153.2644608845
 30
0.0
 10
52.774015428
 20
153.3010720243
 30
0.0
 10
52.7847548285
 20
153.3277199758
 30
0.0
  0
SPLINE
  5
33F
100
AcDbEntity
  8
0
100
AcDbSpline
 62
7
  6
CONTINUOUS
 70
0
 71
3
 72
9
 73
5
 74
0
 42
0.0000001
 43
0.0000001
 44
0.0000000001
 40
0.0
 40
0.0
 40
0.0
 40
0.0
 40
0.5038580551
 40
1.0
 40
1.0
 40
1.0
 40
1.0
 10
52.7870252712
 20
153.3326895432
 30
0.0
 10
52.8034753638
 20
153.3740561264
 30
0.0
 10
52.8358804629
 20
153.4508772622
 30
0.0
 10
52.9040973381
 20
153.5333108584
 30
0.0
 10
52.9478979321
 20
153.5350640561
 30
0.0
  0
SPLINE
  5
340
100
AcDbEntity
  8
0
100
AcDbSpline
 62
7
  6
CONTINUOUS
 70
0
 71
3
 72
12
 73
8
 74
0
 42
0.0000001
 43
0.0000001
 44
0.0000000001
 40
0.0
 40
0.0
 40
0.0
 40
0.0
 40
0.0930705634
 40
0.1774998315
 40
0.2899691161
 40
0.5963860039
 40
1.0
 40
1.0
 40
1.0
 40
1.0
 10
209.3985406073
 20
152.1599288251
 30
0.0
 10
209.3993880693
 20
152.1843658055
 30
0.0
 10
209.3510078417
 20
152.2188523568
 30
0.0
 10
209.2844847798
 20
152.2458110491
 30
0.0
 10
209.1555359076
 20
152.2843378936
 30
0.0
 10
208.94401478
 20
152.3226942364
 30
0.0
 10
208.758341665
 20
152.3455362344
 30
0.0
 10
208.6528370964
 20
152.356161176
 30
0.0
  0
SPLINE
  5
341
100
AcDbEntity
  8
0
100
AcDbSpline
 62
7
  6
CONTINUOUS
 70
0
 71
3
 72
11
 73
7
 74
0
 42
0.0000001
 43
0.0000001
 44
0.0000000001
 40
0.0
 40
0.0
 40
0.0
 40
0.0
 40
0.2658454269
 40
0.5256838462
 40
0.7727986345
 40
1.0
 40
1.0
 40
1.0
 40
1.0
 10
208.5589070473
 20
186.0810120436
 30
0.0
 10
208.8092002445
 20
186.194428695
 30
0.0
 10
209.304831825
 20
186.4169903153
 30
0.0
 10
210.0432648663
 20
186.7231671431
 30
0.0
 10
210.7629769406
 20
186.9637029837
 30
0.0
 10
211.2517716233
 20
187.0495989816
 30
0.0
 10
211.4866180951
 20
187.0495989816
 30
0.0
  0
ELLIPSE
  5
342
100
AcDbEntity
  8
0
100
AcDbEllipse
 62
7
  6
CONTINUOUS
 10
207.4022955446
 20
114.7292592359
 30
0.0
 11
-0.0
 21
57.1623980325
 31
0.0
 40
0.0349207695
 41
-0.3166593309
 42
-0.2872451601
  0
ENDSEC
  0
SECTION
  2
OBJECTS
  0
DICTIONARY
  5
C
100
AcDbDictionary
280
0
281
1
  3
ACAD_GROUP
350
D
  3
ACAD_MLINESTYLE
350
17
  3
ACAD_LAYOUT
350
1A
  3
ACAD_PLOTSETTINGS
350
19
  3
ACAD_PLOTSTYLENAME
350
E
  0
DICTIONARY
  5
D
102
{ACAD_REACTORS
330
C
102
}
100
AcDbDictionary
280
0
281
1
  0
ACDBDICTIONARYWDFLT
  5
E
102
{ACAD_REACTORS
330
C
102
}
100
AcDbDictionary
281
1
  3
Normal
350
F
100
AcDbDictionaryWithDefault
340
F
  0
DICTIONARY
  5
17
102
{ACAD_REACTORS
330
C
102
}
100
AcDbDictionary
280
0
281
1
  3
Standard
350
18
  0
DICTIONARY
  5
19
102
{ACAD_REACTORS
330
C
102
}
100
AcDbDictionary
281
1
  0
DICTIONARY
  5
1A
102
{ACAD_REACTORS
330
C
102
}
100
AcDbDictionary
281
1
  3
Model
350
343
  3
Layout1
350
344
  0
ACDBPLACEHOLDER
  5
F
102
{ACAD_REACTORS
330
E
102
}
  0
MLINESTYLE
  5
18
102
{ACAD_REACTORS
330
17
102
}
100
AcDbMlineStyle
  2
STANDARD
 70
0
  3

 62
256
 51
90.0
 52
90.0
 71
2
 49
0.5
 62
256
  6
BYLAYER
 49
-0.5
 62
256
  6
BYLAYER
  0
LAYOUT
  5
343
102
{ACAD_REACTORS
330
1A
102
}
100
AcDbPlotSettings
  1

  2
none_device
  4

  6

 40
0.0
 41
0.0
 42
0.0
 43
0.0
 44
210.0
 45
297.0
 46
0.0
 47
0.0
 48
0.0
 49
0.0
140
0.0
141
0.0
142
1.0
143
1.0
 70
1024
 72
1
 73
0
 74
0
  7

 75
0
147
1.0
148
0.0
149
0.0
100
AcDbLayout
  1
Model
 70
0
 71
0
 10
0.0
 20
0.0
 11
210.0
 21
297.0
 12
0.0
 22
0.0
 32
0.0
 14
0.0
 24
0.0
 34
0.0
 15
0.0
 25
0.0
 35
0.0
146
0.0
 13
0.0
 23
0.0
 33
0.0
 16
1.0
 26
0.0
 36
0.0
 17
0.0
 27
1.0
 37
0.0
 76
0
330
210
345
0
346
0
  0
LAYOUT
  5
344
102
{ACAD_REACTORS
330
1A
102
}
100
AcDbPlotSettings
  1

  2
none_device
  4

  6

 40
0.0
 41
0.0
 42
0.0
 43
0.0
 44
210.0
 45
297.0
 46
0.0
 47
0.0
 48
0.0
 49
0.0
140
0.0
141
0.0
142
1.0
143
1.0
 70
0
 72
1
 73
0
 74
0
  7

 75
0
147
1.0
148
0.0
149
0.0
100
AcDbLayout
  1
Layout1
 70
0
 71
1
 10
0.0
 20
0.0
 11
210.0
 21
297.0
 12
0.0
 22
0.0
 32
0.0
 14
0.0
 24
0.0
 34
0.0
 15
0.0
 25
0.0
 35
0.0
146
0.0
 13
0.0
 23
0.0
 33
0.0
 16
1.0
 26
0.0
 36
0.0
 17
0.0
 27
1.0
 37
0.0
 76
0
330
211
345
0
346
0
  0
ENDSEC
  0
EOF
