999
DXF file: C:\Users\sesa63760\Dev\_Creo\CAD\MCADID0004242_3D-CAD\drw0001_2.dxf
999
Pro/ENGINEER 2019471 by Parametric Technology Corporation
  0
SECTION
  2
HEADER
  9
$ACADVER
  1
AC1024
  9
$DWGCODEPAGE
  3
ANSI_1252
  9
$EXTMAX
 10
691.6552629972
 20
978.1981576674
 30
0.0
  9
$EXTMIN
 10
0.0
 20
0.0
 30
0.0
  9
$LIMMIN
 10
0.0
 20
0.0
  9
$LIMMAX
 10
691.6552629972
 20
978.1981576674
  9
$VIEWCTR
 10
345.8276314986
 20
489.0990788337
  9
$VIEWSIZE
 40
978.1981576674
  9
$CLAYER
  8
0
  9
$LTSCALE
 40
63.7640280554
  9
$CELTYPE
  6
BYLAYER
  9
$DIMSCALE
 40
1.0
  9
$DIMASZ
 40
8.2339912262
  9
$DIMEXO
 40
1.0
  9
$DIMDLI
 40
44.0551466564
  9
$DIMEXE
 40
1.0
  9
$DIMCEN
 40
10.4341136818
  9
$DIMLFAC
 40
1.0
  9
$DIMBLK
  1
_FILLED
  9
$DIMALT
 70
0
  9
$DIMALTF
 40
0.0393700787
  9
$DIMTXT
 40
11.5275877166
  9
$DIMTOL
 70
1
  9
$DIMLIM
 70
0
  9
$DIMTFAC
 40
1.0
  9
$DIMTP
 40
0.01
  9
$DIMTM
 40
0.01
  9
$DIMGAP
 40
0.625
  9
$DIMDSEP
 70
46
  9
$AUNITS
 70
0
  9
$PDMODE
 70
3
  9
$PDSIZE
 40
0.3125
  9
$HANDSEED
  5
435
  9
$TILEMODE
 70
1
  9
$MEASUREMENT
 70
1
  9
$INSUNITS
 70
4
  0
ENDSEC
  0
SECTION
  2
CLASSES
  0
CLASS
  1
ACDBDICTIONARYWDFLT
  2
AcDbDictionaryWithDefault
  3
AutoCAD 2000
 90
0
 91
1
280
0
281
0
  0
CLASS
  1
ACDBPLACEHOLDER
  2
AcDbPlaceHolder
  3
AutoCAD 2000
 90
0
 91
1
280
0
281
0
  0
CLASS
  1
LAYOUT
  2
AcDbLayout
  3
AutoCAD 2000
 90
0
 91
0
280
0
281
0
  0
ENDSEC
  0
SECTION
  2
TABLES
  0
TABLE
  2
VPORT
  5
8
100
AcDbSymbolTable
 70
2
  0
VPORT
  5
1F4
100
AcDbSymbolTableRecord
100
AcDbViewportTableRecord
  2
*ACTIVE
 70
0
 10
0.0
 20
0.0
 11
1.0
 21
1.0
 12
345.8276314986
 22
489.0990788337
 13
0.0
 23
0.0
 14
1.0
 24
1.0
 15
0.0
 25
0.0
 16
0.0
 26
0.0
 36
1.0
 17
0.0
 27
0.0
 37
0.0
 40
978.1981576674
 41
0.7070707071
 42
50.0
 43
0.0
 44
0.0
 50
0.0
 51
0.0
 71
0
 72
100
 73
1
 74
1
 75
0
 76
0
 77
0
 78
0
  0
ENDTAB
  0
TABLE
  2
LTYPE
  5
5
100
AcDbSymbolTable
 70
6
  0
LTYPE
  5
14
100
AcDbSymbolTableRecord
100
AcDbLinetypeTableRecord
  2
BYBLOCK
 70
0
  3

 72
65
 73
0
 40
0.0
  0
LTYPE
  5
15
100
AcDbSymbolTableRecord
100
AcDbLinetypeTableRecord
  2
BYLAYER
 70
0
  3

 72
65
 73
0
 40
0.0
  0
LTYPE
  5
16
100
AcDbSymbolTableRecord
100
AcDbLinetypeTableRecord
  2
CONTINUOUS
 70
64
  3
Solid line
 72
65
 73
0
 40
0.0
  0
LTYPE
  5
1F5
100
AcDbSymbolTableRecord
100
AcDbLinetypeTableRecord
  2
CENTER
 70
64
  3
____ _ ____ _ ____ _ ____ _ ____ _ ____ _ ____
 72
65
 73
4
 40
0.6
 49
0.375
 74
0
 49
-0.075
 74
0
 49
0.075
 74
0
 49
-0.075
 74
0
  0
LTYPE
  5
1F6
100
AcDbSymbolTableRecord
100
AcDbLinetypeTableRecord
  2
HIDDEN
 70
64
  3
- - - - - - - - - - - - - - - - - - - -
 72
65
 73
2
 40
0.2
 49
0.1
 74
0
 49
-0.1
 74
0
  0
LTYPE
  5
1F7
100
AcDbSymbolTableRecord
100
AcDbLinetypeTableRecord
  2
PHANTOM
 70
64
  3
_____ _ _ _____ _ _ _____ _ _ _____
 72
65
 73
6
 40
0.8
 49
0.45
 74
0
 49
-0.05
 74
0
 49
0.1
 74
0
 49
-0.05
 74
0
 49
0.1
 74
0
 49
-0.05
 74
0
  0
LTYPE
  5
1F8
100
AcDbSymbolTableRecord
100
AcDbLinetypeTableRecord
  2
DOT
 70
64
  3
. . . . . . . . . . . . . . . . . . . .
 72
65
 73
2
 40
0.2
 49
0.1
 74
0
 49
-0.1
 74
0
  0
LTYPE
  5
1F9
100
AcDbSymbolTableRecord
100
AcDbLinetypeTableRecord
  2
DASHED
 70
64
  3
- - - - - - - - - - - - - - - - - - - -
 72
65
 73
2
 40
0.2
 49
0.1
 74
0
 49
-0.1
 74
0
  0
ENDTAB
  0
TABLE
  2
LAYER
  5
2
100
AcDbSymbolTable
 70
36
  0
LAYER
  5
10
100
AcDbSymbolTableRecord
100
AcDbLayerTableRecord
  2
0
 70
0
 62
7
  6
CONTINUOUS
370
-3
390
F
  0
LAYER
  5
1FA
100
AcDbSymbolTableRecord
100
AcDbLayerTableRecord
  2
DEFAULT_1
 70
0
 62
7
  6
CENTER
370
-3
390
F
  0
LAYER
  5
1FB
100
AcDbSymbolTableRecord
100
AcDbLayerTableRecord
  2
DEFAULT_2
 70
0
 62
7
  6
HIDDEN
370
-3
390
F
  0
LAYER
  5
1FC
100
AcDbSymbolTableRecord
100
AcDbLayerTableRecord
  2
DEFAULT_3
 70
0
 62
7
  6
PHANTOM
370
-3
390
F
  0
LAYER
  5
1FD
100
AcDbSymbolTableRecord
100
AcDbLayerTableRecord
  2
00_COMPONENTS
 70
0
 62
7
  6
CONTINUOUS
370
-3
390
F
  0
LAYER
  5
1FE
100
AcDbSymbolTableRecord
100
AcDbLayerTableRecord
  2
01_1_DEFAULT_DATUMS
 70
0
 62
7
  6
CONTINUOUS
370
-3
390
F
  0
LAYER
  5
1FF
100
AcDbSymbolTableRecord
100
AcDbLayerTableRecord
  2
01_PLANES
 70
0
 62
7
  6
CONTINUOUS
370
-3
390
F
  0
LAYER
  5
200
100
AcDbSymbolTableRecord
100
AcDbLayerTableRecord
  2
02_COORD_SYS
 70
0
 62
7
  6
CONTINUOUS
370
-3
390
F
  0
LAYER
  5
201
100
AcDbSymbolTableRecord
100
AcDbLayerTableRecord
  2
03_AXES
 70
0
 62
7
  6
CONTINUOUS
370
-3
390
F
  0
LAYER
  5
202
100
AcDbSymbolTableRecord
100
AcDbLayerTableRecord
  2
04_POINTS
 70
0
 62
7
  6
CONTINUOUS
370
-3
390
F
  0
LAYER
  5
203
100
AcDbSymbolTableRecord
100
AcDbLayerTableRecord
  2
05_CURVES
 70
0
 62
7
  6
CONTINUOUS
370
-3
390
F
  0
LAYER
  5
204
100
AcDbSymbolTableRecord
100
AcDbLayerTableRecord
  2
06_SURFS
 70
0
 62
7
  6
CONTINUOUS
370
-3
390
F
  0
LAYER
  5
205
100
AcDbSymbolTableRecord
100
AcDbLayerTableRecord
  2
07_COSMETICS
 70
0
 62
7
  6
CONTINUOUS
370
-3
390
F
  0
LAYER
  5
206
100
AcDbSymbolTableRecord
100
AcDbLayerTableRecord
  2
10_NOTES
 70
0
 62
7
  6
CONTINUOUS
370
-3
390
F
  0
LAYER
  5
207
100
AcDbSymbolTableRecord
100
AcDbLayerTableRecord
  2
11_NOTES_PUB
 70
0
 62
7
  6
CONTINUOUS
370
-3
390
F
  0
LAYER
  5
208
100
AcDbSymbolTableRecord
100
AcDbLayerTableRecord
  2
13_REF_GTOL
 70
0
 62
7
  6
CONTINUOUS
370
-3
390
F
  0
LAYER
  5
209
100
AcDbSymbolTableRecord
100
AcDbLayerTableRecord
  2
16_MISC
 70
0
 62
7
  6
CONTINUOUS
370
-3
390
F
  0
LAYER
  5
20A
100
AcDbSymbolTableRecord
100
AcDbLayerTableRecord
  2
17_NO_PRINT
 70
0
 62
7
  6
CONTINUOUS
370
-3
390
F
  0
LAYER
  5
20B
100
AcDbSymbolTableRecord
100
AcDbLayerTableRecord
  2
18_DATUM_CAMS_JOINTS
 70
0
 62
7
  6
CONTINUOUS
370
-3
390
F
  0
LAYER
  5
20C
100
AcDbSymbolTableRecord
100
AcDbLayerTableRecord
  2
19_DATUM_FUNCTIONAL
 70
0
 62
7
  6
CONTINUOUS
370
-3
390
F
  0
LAYER
  5
20D
100
AcDbSymbolTableRecord
100
AcDbLayerTableRecord
  2
20_DATUM_KINEMATIC_SCHEME
 70
0
 62
7
  6
CONTINUOUS
370
-3
390
F
  0
LAYER
  5
20E
100
AcDbSymbolTableRecord
100
AcDbLayerTableRecord
  2
3
 70
0
 62
7
  6
CONTINUOUS
370
-3
390
F
  0
LAYER
  5
20F
100
AcDbSymbolTableRecord
100
AcDbLayerTableRecord
  2
4
 70
0
 62
7
  6
CONTINUOUS
370
-3
390
F
  0
ENDTAB
  0
TABLE
  2
STYLE
  5
3
100
AcDbSymbolTable
 70
1
  0
STYLE
  5
11
100
AcDbSymbolTableRecord
100
AcDbTextStyleTableRecord
  2
STANDARD
 70
0
 40
0.0
 41
1.0
 50
0.0
 71
0
 42
0.2
  3
ARIAL.TTF
  4

  0
STYLE
  5
210
100
AcDbSymbolTableRecord
100
AcDbTextStyleTableRecord
  2
TEXTSTYLE_1
 70
0
 40
0.0
 41
0.8
 50
0.0
 71
0
 42
0.2
  3
gdt
  4

  0
ENDTAB
  0
TABLE
  2
VIEW
  5
6
100
AcDbSymbolTable
 70
0
  0
ENDTAB
  0
TABLE
  2
UCS
  5
7
100
AcDbSymbolTable
 70
0
  0
ENDTAB
  0
TABLE
  2
APPID
  5
9
100
AcDbSymbolTable
 70
1
  0
APPID
  5
211
100
AcDbSymbolTableRecord
100
AcDbRegAppTableRecord
  2
ACAD
 70
0
  0
ENDTAB
  0
TABLE
  2
BLOCK_RECORD
  5
1
100
AcDbSymbolTable
 70
0
  0
BLOCK_RECORD
  5
212
100
AcDbSymbolTableRecord
100
AcDbBlockTableRecord
  2
*Model_Space
  0
BLOCK_RECORD
  5
213
100
AcDbSymbolTableRecord
100
AcDbBlockTableRecord
  2
*Paper_Space
  0
BLOCK_RECORD
  5
214
100
AcDbSymbolTableRecord
100
AcDbBlockTableRecord
  2
_FILLED
  0
ENDTAB
  0
TABLE
  2
DIMSTYLE
  5
A
100
AcDbSymbolTable
 70
1
100
AcDbDimStyleTable
 71
0
  0
DIMSTYLE
105
215
100
AcDbSymbolTableRecord
100
AcDbDimStyleTableRecord
  2
STANDARD
 70
0
  3

  4

 40
1.0
 41
8.2339912262
 42
1.0
 43
0.38
 44
1.0
 45
0.0
 46
0.0
 47
0.01
 48
0.01
140
11.5275877166
141
0.09
142
0.0
143
25.4
144
1.0
145
0.0
146
1.0
147
0.625
 71
1
 72
0
 73
0
 74
0
 75
0
 76
0
 77
1
 78
8
 79
2
170
0
171
1
172
0
173
0
174
0
175
0
176
0
177
0
178
0
270
2
179
2
271
2
272
2
273
2
274
2
275
0
280
0
281
0
282
0
283
1
284
8
285
0
286
0
287
3
288
0
340
11
278
46
341
214
342
214
343
214
344
214
  0
ENDTAB
  0
ENDSEC
  0
SECTION
  2
BLOCKS
  0
BLOCK
  5
20
100
AcDbEntity
  8
0
100
AcDbBlockBegin
  2
*Model_Space
 70
0
 10
0.0
 20
0.0
 30
0.0
  3
*Model_Space
  1

  0
ENDBLK
  5
21
100
AcDbEntity
  8
0
100
AcDbBlockEnd
  0
BLOCK
  5
1C
100
AcDbEntity
  8
0
100
AcDbBlockBegin
  2
*Paper_Space
 70
0
 10
0.0
 20
0.0
 30
0.0
  3
*Paper_Space
  1

  0
ENDBLK
  5
1D
100
AcDbEntity
  8
0
100
AcDbBlockEnd
  0
BLOCK
  5
216
100
AcDbEntity
  8
0
100
AcDbBlockBegin
  2
_FILLED
 70
64
 10
0.0
 20
0.0
  3
_FILLED
  1

  0
SOLID
  5
217
100
AcDbEntity
  8
0
  6
BYBLOCK
 62
0
100
AcDbTrace
 10
0.0
 20
0.0
 11
-1.0
 21
0.25
 12
-1.0
 22
-0.25
 13
-1.0
 23
-0.25
  0
ENDBLK
  5
218
100
AcDbEntity
  8
0
  6
BYBLOCK
 62
0
100
AcDbBlockEnd
  0
ENDSEC
  0
SECTION
  2
ENTITIES
  0
LINE
  5
219
100
AcDbEntity
  8
0
100
AcDbLine
 62
7
  6
BYLAYER
 10
453.3355518627
 20
65.2531206767
 11
447.7361285755
 21
65.2531206767
  0
LINE
  5
21A
100
AcDbEntity
  8
0
100
AcDbLine
 62
7
  6
BYLAYER
 10
411.3360269057
 20
65.2531206767
 11
405.7356535384
 21
65.2531206767
  0
LINE
  5
21B
100
AcDbEntity
  8
0
100
AcDbLine
 62
7
  6
BYLAYER
 10
305.6864209742
 20
65.2531206767
 11
300.086997687
 21
65.2531206767
  0
LINE
  5
21C
100
AcDbEntity
  8
0
100
AcDbLine
 62
7
  6
BYLAYER
 10
263.6868960172
 20
65.2531206767
 11
258.0865226499
 21
65.2531206767
  0
LINE
  5
21D
100
AcDbEntity
  8
0
100
AcDbLine
 62
7
  6
BYLAYER
 10
257.8868962639
 20
65.3530105382
 11
258.7141021029
 21
65.3530105382
  0
LINE
  5
21E
100
AcDbEntity
  8
0
100
AcDbLine
 62
7
  6
BYLAYER
 10
264.0596904248
 20
65.3530105382
 11
299.7141021
 21
65.3530105382
  0
LINE
  5
21F
100
AcDbEntity
  8
0
100
AcDbLine
 62
7
  6
BYLAYER
 10
305.0596904219
 20
65.3530105382
 11
305.8868962639
 21
65.3530105382
  0
LINE
  5
220
100
AcDbEntity
  8
0
100
AcDbLine
 62
7
  6
BYLAYER
 10
405.5360271524
 20
65.3530105382
 11
406.3632329914
 21
65.3530105382
  0
LINE
  5
221
100
AcDbEntity
  8
0
100
AcDbLine
 62
7
  6
BYLAYER
 10
411.7088213133
 20
65.3530105382
 11
447.3632329885
 21
65.3530105382
  0
LINE
  5
222
100
AcDbEntity
  8
0
100
AcDbLine
 62
7
  6
BYLAYER
 10
452.7088213105
 20
65.3530105382
 11
453.5360271524
 21
65.3530105382
  0
LINE
  5
223
100
AcDbEntity
  8
0
100
AcDbLine
 62
7
  6
BYLAYER
 10
433.6774753326
 20
65.8530105382
 11
425.3955434982
 21
65.8530105382
  0
LINE
  5
224
100
AcDbEntity
  8
0
100
AcDbLine
 62
7
  6
BYLAYER
 10
286.0283444441
 20
65.8530105382
 11
277.7464126096
 21
65.8530105382
  0
LINE
  5
225
100
AcDbEntity
  8
0
100
AcDbLine
 62
7
  6
BYLAYER
 10
453.3360271495
 20
66.2531206767
 11
446.7360271495
 21
66.2531206767
  0
LINE
  5
226
100
AcDbEntity
  8
0
100
AcDbLine
 62
7
  6
BYLAYER
 10
412.3360271524
 20
66.2531206767
 11
405.7360271524
 21
66.2531206767
  0
LINE
  5
227
100
AcDbEntity
  8
0
100
AcDbLine
 62
7
  6
BYLAYER
 10
305.686896261
 20
66.2531206767
 11
299.086896261
 21
66.2531206767
  0
LINE
  5
228
100
AcDbEntity
  8
0
100
AcDbLine
 62
7
  6
BYLAYER
 10
264.6868962639
 20
66.2531206767
 11
258.0868962639
 21
66.2531206767
  0
LINE
  5
229
100
AcDbEntity
  8
0
100
AcDbLine
 62
7
  6
BYLAYER
 10
454.5360271524
 20
66.3530105382
 11
453.3360271495
 21
66.3530105382
  0
LINE
  5
22A
100
AcDbEntity
  8
0
100
AcDbLine
 62
7
  6
BYLAYER
 10
446.7360271495
 20
66.3530105382
 11
433.5360271524
 21
66.3530105449
  0
LINE
  5
22B
100
AcDbEntity
  8
0
100
AcDbLine
 62
7
  6
BYLAYER
 10
425.5360271524
 20
66.3530105383
 11
412.3360271524
 21
66.3530105382
  0
LINE
  5
22C
100
AcDbEntity
  8
0
100
AcDbLine
 62
7
  6
BYLAYER
 10
405.7360271524
 20
66.3530105382
 11
404.5360271524
 21
66.3530105382
  0
LINE
  5
22D
100
AcDbEntity
  8
0
100
AcDbLine
 62
7
  6
BYLAYER
 10
306.8868962639
 20
66.3530105382
 11
305.686896261
 21
66.3530105382
  0
LINE
  5
22E
100
AcDbEntity
  8
0
100
AcDbLine
 62
7
  6
BYLAYER
 10
299.086896261
 20
66.3530105382
 11
285.8868962639
 21
66.3530105449
  0
LINE
  5
22F
100
AcDbEntity
  8
0
100
AcDbLine
 62
7
  6
BYLAYER
 10
277.8868962639
 20
66.3530105383
 11
264.6868962639
 21
66.3530105382
  0
LINE
  5
230
100
AcDbEntity
  8
0
100
AcDbLine
 62
7
  6
BYLAYER
 10
258.0868962639
 20
66.3530105382
 11
256.8868962639
 21
66.3530105382
  0
LINE
  5
231
100
AcDbEntity
  8
0
100
AcDbLine
 62
7
  6
BYLAYER
 10
256.8868962639
 20
67.3530104693
 11
258.0868962639
 21
67.3530105382
  0
LINE
  5
232
100
AcDbEntity
  8
0
100
AcDbLine
 62
7
  6
BYLAYER
 10
264.6868962639
 20
67.3530105382
 11
265.8868962639
 21
67.3530104693
  0
LINE
  5
233
100
AcDbEntity
  8
0
100
AcDbLine
 62
7
  6
BYLAYER
 10
297.8868962639
 20
67.3530104693
 11
299.086896261
 21
67.3530105382
  0
LINE
  5
234
100
AcDbEntity
  8
0
100
AcDbLine
 62
7
  6
BYLAYER
 10
305.686896261
 20
67.3530105382
 11
306.8868962639
 21
67.3530104693
  0
LINE
  5
235
100
AcDbEntity
  8
0
100
AcDbLine
 62
7
  6
BYLAYER
 10
404.5360271524
 20
67.3530104693
 11
405.7360271524
 21
67.3530105382
  0
LINE
  5
236
100
AcDbEntity
  8
0
100
AcDbLine
 62
7
  6
BYLAYER
 10
412.3360271524
 20
67.3530105382
 11
413.5360271524
 21
67.3530104693
  0
LINE
  5
237
100
AcDbEntity
  8
0
100
AcDbLine
 62
7
  6
BYLAYER
 10
445.5360271524
 20
67.3530104693
 11
446.7360271495
 21
67.3530105382
  0
LINE
  5
238
100
AcDbEntity
  8
0
100
AcDbLine
 62
7
  6
BYLAYER
 10
453.3360271495
 20
67.3530105382
 11
454.5360271524
 21
67.3530104693
  0
LINE
  5
239
100
AcDbEntity
  8
0
100
AcDbLine
 62
7
  6
BYLAYER
 10
257.3868962639
 20
67.8530105382
 11
264.3868962639
 21
67.8530105382
  0
LINE
  5
23A
100
AcDbEntity
  8
0
100
AcDbLine
 62
7
  6
BYLAYER
 10
299.3868962639
 20
67.8530105382
 11
306.3868962639
 21
67.8530105382
  0
LINE
  5
23B
100
AcDbEntity
  8
0
100
AcDbLine
 62
7
  6
BYLAYER
 10
405.0360271524
 20
67.8530105382
 11
412.0360271524
 21
67.8530105382
  0
LINE
  5
23C
100
AcDbEntity
  8
0
100
AcDbLine
 62
7
  6
BYLAYER
 10
447.0360271524
 20
67.8530105382
 11
454.0360271524
 21
67.8530105382
  0
LINE
  5
23D
100
AcDbEntity
  8
0
100
AcDbLine
 62
7
  6
BYLAYER
 10
454.5360271524
 20
68.3530105382
 11
447.0360271524
 21
68.3530105382
  0
LINE
  5
23E
100
AcDbEntity
  8
0
100
AcDbLine
 62
7
  6
BYLAYER
 10
412.0360271524
 20
68.3530105382
 11
404.5360271524
 21
68.3530105382
  0
LINE
  5
23F
100
AcDbEntity
  8
0
100
AcDbLine
 62
7
  6
BYLAYER
 10
306.8868962639
 20
68.3530105382
 11
299.3868962639
 21
68.3530105382
  0
LINE
  5
240
100
AcDbEntity
  8
0
100
AcDbLine
 62
7
  6
BYLAYER
 10
264.3868962639
 20
68.3530105382
 11
256.8868962639
 21
68.3530105382
  0
LINE
  5
241
100
AcDbEntity
  8
0
100
AcDbLine
 62
7
  6
BYLAYER
 10
256.8868962639
 20
82.8530105382
 11
306.8868962639
 21
82.8530105382
  0
LINE
  5
242
100
AcDbEntity
  8
0
100
AcDbLine
 62
7
  6
BYLAYER
 10
404.5360271524
 20
82.8530105382
 11
454.5360271524
 21
82.8530105382
  0
LINE
  5
243
100
AcDbEntity
  8
3
100
AcDbLine
 62
7
  6
BYLAYER
 10
256.8864212208
 20
82.8531334852
 11
306.8864212208
 21
82.8531334852
  0
LINE
  5
244
100
AcDbEntity
  8
3
100
AcDbLine
 62
7
  6
BYLAYER
 10
404.5355521093
 20
82.8531334852
 11
454.5355521093
 21
82.8531334852
  0
LINE
  5
245
100
AcDbEntity
  8
4
100
AcDbLine
 62
7
  6
BYLAYER
 10
246.6976755374
 20
110.2012957999
 11
291.6976755374
 21
110.2012957999
  0
LINE
  5
246
100
AcDbEntity
  8
3
100
AcDbLine
 62
7
  6
BYLAYER
 10
394.3468064259
 20
110.2012957999
 11
439.3468064259
 21
110.2012957999
  0
LINE
  5
247
100
AcDbEntity
  8
0
100
AcDbLine
 62
7
  6
BYLAYER
 10
267.3861664742
 20
909.3531206767
 11
266.8861684528
 21
908.8531228352
  0
LINE
  5
248
100
AcDbEntity
  8
0
100
AcDbLine
 62
7
  6
BYLAYER
 10
265.6361684528
 20
905.3531206767
 11
265.1361684528
 21
904.8531206767
  0
LINE
  5
249
100
AcDbEntity
  8
3
100
AcDbLine
 62
7
  6
BYLAYER
 10
397.3468064259
 20
115.2012957999
 11
394.3468064259
 21
115.2012957999
  0
LINE
  5
24A
100
AcDbEntity
  8
4
100
AcDbLine
 62
7
  6
BYLAYER
 10
249.6976755374
 20
115.2012957999
 11
246.6976755374
 21
115.2012957999
  0
LINE
  5
24B
100
AcDbEntity
  8
3
100
AcDbLine
 62
7
  6
BYLAYER
 10
432.2360271509
 20
115.5247586195
 11
426.8360271509
 21
115.5247586195
  0
LINE
  5
24C
100
AcDbEntity
  8
4
100
AcDbLine
 62
7
  6
BYLAYER
 10
284.5868962624
 20
115.5247586195
 11
279.1868962624
 21
115.5247586195
  0
LINE
  5
24D
100
AcDbEntity
  8
4
100
AcDbLine
 62
7
  6
BYLAYER
 10
274.9976755374
 20
116.9512957999
 11
276.4825867936
 21
116.9512957999
  0
LINE
  5
24E
100
AcDbEntity
  8
4
100
AcDbLine
 62
7
  6
BYLAYER
 10
287.2908681916
 20
116.9512957999
 11
288.4976755374
 21
116.9512957999
  0
LINE
  5
24F
100
AcDbEntity
  8
3
100
AcDbLine
 62
7
  6
BYLAYER
 10
422.6468064259
 20
116.9512957999
 11
424.1317176821
 21
116.9512957999
  0
LINE
  5
250
100
AcDbEntity
  8
3
100
AcDbLine
 62
7
  6
BYLAYER
 10
434.9399990801
 20
116.9512957999
 11
436.1468064259
 21
116.9512957999
  0
LINE
  5
251
100
AcDbEntity
  8
3
100
AcDbLine
 62
7
  6
BYLAYER
 10
436.1468064259
 20
123.4512957999
 11
434.9403366198
 21
123.4512957999
  0
LINE
  5
252
100
AcDbEntity
  8
3
100
AcDbLine
 62
7
  6
BYLAYER
 10
424.1320552217
 20
123.4512957999
 11
422.6468064259
 21
123.4512957999
  0
LINE
  5
253
100
AcDbEntity
  8
4
100
AcDbLine
 62
7
  6
BYLAYER
 10
288.4976755374
 20
123.4512957999
 11
287.2912057312
 21
123.4512957999
  0
LINE
  5
254
100
AcDbEntity
  8
4
100
AcDbLine
 62
7
  6
BYLAYER
 10
276.4829243332
 20
123.4512957999
 11
274.9976755374
 21
123.4512957999
  0
LINE
  5
255
100
AcDbEntity
  8
4
100
AcDbLine
 62
7
  6
BYLAYER
 10
279.1868962624
 20
124.8778329804
 11
284.5868962624
 21
124.8778329804
  0
LINE
  5
256
100
AcDbEntity
  8
3
100
AcDbLine
 62
7
  6
BYLAYER
 10
426.8360271509
 20
124.8778329804
 11
432.2360271509
 21
124.8778329804
  0
LINE
  5
257
100
AcDbEntity
  8
0
100
AcDbLine
 62
7
  6
BYLAYER
 10
283.6361684528
 20
905.3531206767
 11
283.1361684528
 21
904.8531206767
  0
LINE
  5
258
100
AcDbEntity
  8
3
100
AcDbLine
 62
7
  6
BYLAYER
 10
432.2360271509
 20
145.5247586195
 11
426.8360271509
 21
145.5247586195
  0
LINE
  5
259
100
AcDbEntity
  8
4
100
AcDbLine
 62
7
  6
BYLAYER
 10
284.5868962624
 20
145.5247586195
 11
279.1868962624
 21
145.5247586195
  0
LINE
  5
25A
100
AcDbEntity
  8
4
100
AcDbLine
 62
7
  6
BYLAYER
 10
274.9976755374
 20
146.9512957999
 11
276.4825867936
 21
146.9512957999
  0
LINE
  5
25B
100
AcDbEntity
  8
4
100
AcDbLine
 62
7
  6
BYLAYER
 10
287.2908681916
 20
146.9512957999
 11
288.4976755374
 21
146.9512957999
  0
LINE
  5
25C
100
AcDbEntity
  8
3
100
AcDbLine
 62
7
  6
BYLAYER
 10
422.6468064259
 20
146.9512957999
 11
424.1317176821
 21
146.9512957999
  0
LINE
  5
25D
100
AcDbEntity
  8
3
100
AcDbLine
 62
7
  6
BYLAYER
 10
434.9399990801
 20
146.9512957999
 11
436.1468064259
 21
146.9512957999
  0
LINE
  5
25E
100
AcDbEntity
  8
3
100
AcDbLine
 62
7
  6
BYLAYER
 10
436.1468064259
 20
153.4512957999
 11
434.9403366198
 21
153.4512957999
  0
LINE
  5
25F
100
AcDbEntity
  8
3
100
AcDbLine
 62
7
  6
BYLAYER
 10
424.1320552217
 20
153.4512957999
 11
422.6468064259
 21
153.4512957999
  0
LINE
  5
260
100
AcDbEntity
  8
4
100
AcDbLine
 62
7
  6
BYLAYER
 10
288.4976755374
 20
153.4512957999
 11
287.2912057312
 21
153.4512957999
  0
LINE
  5
261
100
AcDbEntity
  8
4
100
AcDbLine
 62
7
  6
BYLAYER
 10
276.4829243332
 20
153.4512957999
 11
274.9976755374
 21
153.4512957999
  0
LINE
  5
262
100
AcDbEntity
  8
4
100
AcDbLine
 62
7
  6
BYLAYER
 10
279.1868962624
 20
154.8778329804
 11
284.5868962624
 21
154.8778329804
  0
LINE
  5
263
100
AcDbEntity
  8
3
100
AcDbLine
 62
7
  6
BYLAYER
 10
426.8360271509
 20
154.8778329804
 11
432.2360271509
 21
154.8778329804
  0
LINE
  5
264
100
AcDbEntity
  8
4
100
AcDbLine
 62
7
  6
BYLAYER
 10
246.6976755374
 20
155.2012957999
 11
249.6976755374
 21
155.2012957999
  0
LINE
  5
265
100
AcDbEntity
  8
3
100
AcDbLine
 62
7
  6
BYLAYER
 10
394.3468064259
 20
155.2012957999
 11
397.3468064259
 21
155.2012957999
  0
LINE
  5
266
100
AcDbEntity
  8
4
100
AcDbLine
 62
7
  6
BYLAYER
 10
246.6976755374
 20
160.2012957999
 11
291.6976755374
 21
160.2012957999
  0
LINE
  5
267
100
AcDbEntity
  8
3
100
AcDbLine
 62
7
  6
BYLAYER
 10
394.3468064259
 20
160.2012957999
 11
439.3468064259
 21
160.2012957999
  0
LINE
  5
268
100
AcDbEntity
  8
4
100
AcDbLine
 62
7
  6
BYLAYER
 10
279.1868962624
 20
851.2127354412
 11
276.4868962624
 21
846.5361982608
  0
LINE
  5
269
100
AcDbEntity
  8
4
100
AcDbLine
 62
7
  6
BYLAYER
 10
284.5868962624
 20
841.8596610804
 11
287.2868962624
 21
846.5361982608
  0
LINE
  5
26A
100
AcDbEntity
  8
4
100
AcDbLine
 62
7
  6
BYLAYER
 10
279.1868962624
 20
821.2127354412
 11
276.4868962624
 21
816.5361982608
  0
LINE
  5
26B
100
AcDbEntity
  8
0
100
AcDbLine
 62
7
  6
BYLAYER
 10
415.0352973627
 20
909.3531206767
 11
414.5352993413
 21
908.8531228352
  0
LINE
  5
26C
100
AcDbEntity
  8
0
100
AcDbLine
 62
7
  6
BYLAYER
 10
413.2852993413
 20
905.3531206767
 11
412.7852993413
 21
904.8531206767
  0
LINE
  5
26D
100
AcDbEntity
  8
0
100
AcDbLine
 62
7
  6
BYLAYER
 10
431.2852993413
 20
905.3531206767
 11
430.7852993413
 21
904.8531206767
  0
LINE
  5
26E
100
AcDbEntity
  8
4
100
AcDbLine
 62
7
  6
BYLAYER
 10
276.4868962624
 20
120.2012957999
 11
279.1868962624
 21
115.5247586195
  0
LINE
  5
26F
100
AcDbEntity
  8
4
100
AcDbLine
 62
7
  6
BYLAYER
 10
287.2868962624
 20
120.2012957999
 11
284.5868962624
 21
124.8778329804
  0
LINE
  5
270
100
AcDbEntity
  8
4
100
AcDbLine
 62
7
  6
BYLAYER
 10
276.4868962624
 20
150.2012957999
 11
279.1868962624
 21
145.5247586195
  0
LINE
  5
271
100
AcDbEntity
  8
4
100
AcDbLine
 62
7
  6
BYLAYER
 10
284.5868962624
 20
811.8596610804
 11
287.2868962624
 21
816.5361982608
  0
LINE
  5
272
100
AcDbEntity
  8
4
100
AcDbLine
 62
7
  6
BYLAYER
 10
287.2868962624
 20
150.2012957999
 11
284.5868962624
 21
154.8778329804
  0
LINE
  5
273
100
AcDbEntity
  8
3
100
AcDbLine
 62
7
  6
BYLAYER
 10
426.8360271509
 20
851.2127354412
 11
424.1360271509
 21
846.5361982608
  0
LINE
  5
274
100
AcDbEntity
  8
3
100
AcDbLine
 62
7
  6
BYLAYER
 10
424.1360271509
 20
120.2012957999
 11
426.8360271509
 21
115.5247586195
  0
LINE
  5
275
100
AcDbEntity
  8
4
100
AcDbLine
 62
7
  6
BYLAYER
 10
246.6976755374
 20
110.2012957999
 11
246.6976755374
 21
160.2012957999
  0
LINE
  5
276
100
AcDbEntity
  8
4
100
AcDbLine
 62
7
  6
BYLAYER
 10
246.6976755374
 20
806.5361982608
 11
246.6976755374
 21
856.5361982608
  0
LINE
  5
277
100
AcDbEntity
  8
4
100
AcDbLine
 62
7
  6
BYLAYER
 10
249.6976755374
 20
856.5361982608
 11
249.6976755374
 21
806.5361982608
  0
LINE
  5
278
100
AcDbEntity
  8
4
100
AcDbLine
 62
7
  6
BYLAYER
 10
249.6976755374
 20
160.2012957999
 11
249.6976755374
 21
110.2012957999
  0
LINE
  5
279
100
AcDbEntity
  8
4
100
AcDbLine
 62
7
  6
BYLAYER
 10
253.6976755374
 20
110.2012957999
 11
253.6976755374
 21
160.2012957999
  0
LINE
  5
27A
100
AcDbEntity
  8
4
100
AcDbLine
 62
7
  6
BYLAYER
 10
253.6976755374
 20
806.5361982608
 11
253.6976755374
 21
856.5361982608
  0
LINE
  5
27B
100
AcDbEntity
  8
0
100
AcDbLine
 62
7
  6
BYLAYER
 10
256.8861684528
 20
897.8531206767
 11
256.8861684528
 21
895.8650543825
  0
LINE
  5
27C
100
AcDbEntity
  8
0
100
AcDbLine
 62
7
  6
BYLAYER
 10
256.8861684528
 20
895.8531206767
 11
256.8861684528
 21
881.3531206767
  0
LINE
  5
27D
100
AcDbEntity
  8
3
100
AcDbLine
 62
7
  6
BYLAYER
 10
256.8864212208
 20
881.3531334852
 11
256.8864212208
 21
856.5361982608
  0
LINE
  5
27E
100
AcDbEntity
  8
3
100
AcDbLine
 62
7
  6
BYLAYER
 10
256.8864212208
 20
806.5361982608
 11
256.8864212208
 21
160.2012957999
  0
LINE
  5
27F
100
AcDbEntity
  8
3
100
AcDbLine
 62
7
  6
BYLAYER
 10
256.8864212208
 20
110.2012957999
 11
256.8864212208
 21
82.8531334852
  0
LINE
  5
280
100
AcDbEntity
  8
0
100
AcDbLine
 62
7
  6
BYLAYER
 10
256.8868962639
 20
66.3530105382
 11
256.8868962639
 21
82.8530105382
  0
LINE
  5
281
100
AcDbEntity
  8
0
100
AcDbLine
 62
7
  6
BYLAYER
 10
257.8861684511
 20
896.8531206767
 11
257.8861684528
 21
898.8531206767
  0
LINE
  5
282
100
AcDbEntity
  8
0
100
AcDbLine
 62
7
  6
BYLAYER
 10
257.8868962639
 20
65.3530105382
 11
257.8868962622
 21
67.3530105382
  0
LINE
  5
283
100
AcDbEntity
  8
0
100
AcDbLine
 62
7
  6
BYLAYER
 10
258.0861684528
 20
896.3531206767
 11
258.0861684528
 21
897.9531206767
  0
LINE
  5
284
100
AcDbEntity
  8
0
100
AcDbLine
 62
7
  6
BYLAYER
 10
258.0868962639
 20
66.2531206767
 11
258.0868962639
 21
67.8531206767
  0
LINE
  5
285
100
AcDbEntity
  8
0
100
AcDbLine
 62
7
  6
BYLAYER
 10
260.8861684528
 20
881.3531206767
 11
260.8861684528
 21
896.3531206767
  0
LINE
  5
286
100
AcDbEntity
  8
3
100
AcDbLine
 62
7
  6
BYLAYER
 10
260.8864212208
 20
82.8531334852
 11
260.8864212208
 21
110.2012957999
  0
LINE
  5
287
100
AcDbEntity
  8
3
100
AcDbLine
 62
7
  6
BYLAYER
 10
260.8864212208
 20
160.2012957999
 11
260.8864212208
 21
806.5361982608
  0
LINE
  5
288
100
AcDbEntity
  8
3
100
AcDbLine
 62
7
  6
BYLAYER
 10
260.8864212208
 20
856.5361982608
 11
260.8864212208
 21
881.3531334852
  0
LINE
  5
289
100
AcDbEntity
  8
0
100
AcDbLine
 62
7
  6
BYLAYER
 10
260.8868962639
 20
67.8530105382
 11
260.8868962639
 21
82.8530105382
  0
LINE
  5
28A
100
AcDbEntity
  8
0
100
AcDbLine
 62
7
  6
BYLAYER
 10
264.38616838
 20
896.3531206767
 11
264.38616838
 21
895.8531206767
  0
LINE
  5
28B
100
AcDbEntity
  8
0
100
AcDbLine
 62
7
  6
BYLAYER
 10
264.3868961913
 20
68.3530105382
 11
264.3868961913
 21
67.8530105382
  0
LINE
  5
28C
100
AcDbEntity
  8
0
100
AcDbLine
 62
7
  6
BYLAYER
 10
264.6861684528
 20
897.9531206767
 11
264.6861684528
 21
896.4573031115
  0
LINE
  5
28D
100
AcDbEntity
  8
0
100
AcDbLine
 62
7
  6
BYLAYER
 10
264.6868962639
 20
67.748943544
 11
264.6868962639
 21
66.2531206767
  0
LINE
  5
28E
100
AcDbEntity
  8
0
100
AcDbLine
 62
7
  6
BYLAYER
 10
264.8861684528
 20
897.8531206767
 11
264.8861684528
 21
896.8531206767
  0
LINE
  5
28F
100
AcDbEntity
  8
0
100
AcDbLine
 62
7
  6
BYLAYER
 10
264.8868962639
 20
67.3530105382
 11
264.8868962639
 21
66.3530105382
  0
LINE
  5
290
100
AcDbEntity
  8
0
100
AcDbLine
 62
7
  6
BYLAYER
 10
265.1361684528
 20
898.8531206767
 11
265.1361684528
 21
904.8531206767
  0
LINE
  5
291
100
AcDbEntity
  8
0
100
AcDbLine
 62
7
  6
BYLAYER
 10
265.8861684528
 20
896.8531206767
 11
265.8861684528
 21
898.8531206767
  0
LINE
  5
292
100
AcDbEntity
  8
0
100
AcDbLine
 62
7
  6
BYLAYER
 10
265.8868962639
 20
65.3530105382
 11
265.8868962639
 21
67.3530105382
  0
LINE
  5
293
100
AcDbEntity
  8
0
100
AcDbLine
 62
7
  6
BYLAYER
 10
266.8861684528
 20
905.3531206767
 11
266.8861684528
 21
908.8531197393
  0
LINE
  5
294
100
AcDbEntity
  8
3
100
AcDbLine
 62
7
  6
BYLAYER
 10
432.2360271509
 20
841.8596610804
 11
434.9360271509
 21
846.5361982608
  0
LINE
  5
295
100
AcDbEntity
  8
3
100
AcDbLine
 62
7
  6
BYLAYER
 10
426.8360271509
 20
821.2127354412
 11
424.1360271509
 21
816.5361982608
  0
LINE
  5
296
100
AcDbEntity
  8
3
100
AcDbLine
 62
7
  6
BYLAYER
 10
432.2360271509
 20
811.8596610804
 11
434.9360271509
 21
816.5361982608
  0
LINE
  5
297
100
AcDbEntity
  8
3
100
AcDbLine
 62
7
  6
BYLAYER
 10
434.9360271509
 20
120.2012957999
 11
432.2360271509
 21
124.8778329804
  0
LINE
  5
298
100
AcDbEntity
  8
3
100
AcDbLine
 62
7
  6
BYLAYER
 10
424.1360271509
 20
150.2012957999
 11
426.8360271509
 21
145.5247586195
  0
LINE
  5
299
100
AcDbEntity
  8
3
100
AcDbLine
 62
7
  6
BYLAYER
 10
434.9360271509
 20
150.2012957999
 11
432.2360271509
 21
154.8778329804
  0
LINE
  5
29A
100
AcDbEntity
  8
0
100
AcDbLine
 62
7
  6
BYLAYER
 10
268.7619484528
 20
906.5531206767
 11
268.7619484528
 21
905.3531206767
  0
LINE
  5
29B
100
AcDbEntity
  8
0
100
AcDbLine
 62
7
  6
BYLAYER
 10
277.0119484528
 20
906.5531206767
 11
277.0119484528
 21
905.3531206767
  0
LINE
  5
29C
100
AcDbEntity
  8
0
100
AcDbLine
 62
7
  6
BYLAYER
 10
277.3861684528
 20
897.8531206767
 11
277.3861684528
 21
881.3531206767
  0
LINE
  5
29D
100
AcDbEntity
  8
3
100
AcDbLine
 62
7
  6
BYLAYER
 10
277.3864212208
 20
881.3531334852
 11
277.3864212208
 21
856.5361982608
  0
LINE
  5
29E
100
AcDbEntity
  8
3
100
AcDbLine
 62
7
  6
BYLAYER
 10
277.3864212208
 20
806.5361982608
 11
277.3864212208
 21
160.2012957999
  0
LINE
  5
29F
100
AcDbEntity
  8
3
100
AcDbLine
 62
7
  6
BYLAYER
 10
277.3864212208
 20
110.2012957999
 11
277.3864212208
 21
82.8531334852
  0
LINE
  5
2A0
100
AcDbEntity
  8
0
100
AcDbLine
 62
7
  6
BYLAYER
 10
277.3868962639
 20
82.8530105382
 11
277.3868962639
 21
66.3530105382
  0
LINE
  5
2A1
100
AcDbEntity
  8
0
100
AcDbLine
 62
7
  6
BYLAYER
 10
277.8861684528
 20
881.3531206767
 11
277.8861684528
 21
897.8531206767
  0
LINE
  5
2A2
100
AcDbEntity
  8
3
100
AcDbLine
 62
7
  6
BYLAYER
 10
277.8864212208
 20
82.8531334852
 11
277.8864212208
 21
110.2012957999
  0
LINE
  5
2A3
100
AcDbEntity
  8
3
100
AcDbLine
 62
7
  6
BYLAYER
 10
277.8864212208
 20
160.2012957999
 11
277.8864212208
 21
806.5361982608
  0
LINE
  5
2A4
100
AcDbEntity
  8
3
100
AcDbLine
 62
7
  6
BYLAYER
 10
277.8864212208
 20
856.5361982608
 11
277.8864212208
 21
881.3531334852
  0
LINE
  5
2A5
100
AcDbEntity
  8
0
100
AcDbLine
 62
7
  6
BYLAYER
 10
277.8868962639
 20
66.3530105383
 11
277.8868962639
 21
82.8530105382
  0
LINE
  5
2A6
100
AcDbEntity
  8
0
100
AcDbLine
 62
7
  6
BYLAYER
 10
278.8861684528
 20
908.8531197393
 11
278.8861684528
 21
905.3531206767
  0
LINE
  5
2A7
100
AcDbEntity
  8
0
100
AcDbLine
 62
7
  6
BYLAYER
 10
280.6361684528
 20
898.8531206767
 11
280.6361684528
 21
904.8531206767
  0
LINE
  5
2A8
100
AcDbEntity
  8
0
100
AcDbLine
 62
7
  6
BYLAYER
 10
283.1361684528
 20
898.8531206767
 11
283.1361684528
 21
904.8531206767
  0
LINE
  5
2A9
100
AcDbEntity
  8
0
100
AcDbLine
 62
7
  6
BYLAYER
 10
285.8861684528
 20
897.8531206767
 11
285.8861684528
 21
881.3531206767
  0
LINE
  5
2AA
100
AcDbEntity
  8
3
100
AcDbLine
 62
7
  6
BYLAYER
 10
285.8864212208
 20
881.3531334852
 11
285.8864212208
 21
856.5361982608
  0
LINE
  5
2AB
100
AcDbEntity
  8
3
100
AcDbLine
 62
7
  6
BYLAYER
 10
285.8864212208
 20
806.5361982608
 11
285.8864212208
 21
160.2012957999
  0
LINE
  5
2AC
100
AcDbEntity
  8
3
100
AcDbLine
 62
7
  6
BYLAYER
 10
285.8864212208
 20
110.2012957999
 11
285.8864212208
 21
82.8531334852
  0
LINE
  5
2AD
100
AcDbEntity
  8
0
100
AcDbLine
 62
7
  6
BYLAYER
 10
285.8868962639
 20
82.8530105382
 11
285.8868962639
 21
66.3530105383
  0
LINE
  5
2AE
100
AcDbEntity
  8
0
100
AcDbLine
 62
7
  6
BYLAYER
 10
286.3861684528
 20
881.3531206767
 11
286.3861684528
 21
897.8531206767
  0
LINE
  5
2AF
100
AcDbEntity
  8
3
100
AcDbLine
 62
7
  6
BYLAYER
 10
286.3864212208
 20
82.8531334852
 11
286.3864212208
 21
110.2012957999
  0
LINE
  5
2B0
100
AcDbEntity
  8
3
100
AcDbLine
 62
7
  6
BYLAYER
 10
286.3864212208
 20
160.2012957999
 11
286.3864212208
 21
806.5361982608
  0
LINE
  5
2B1
100
AcDbEntity
  8
3
100
AcDbLine
 62
7
  6
BYLAYER
 10
286.3864212208
 20
856.5361982608
 11
286.3864212208
 21
881.3531334852
  0
LINE
  5
2B2
100
AcDbEntity
  8
0
100
AcDbLine
 62
7
  6
BYLAYER
 10
286.3868962639
 20
66.3530105382
 11
286.3868962639
 21
82.8530105382
  0
LINE
  5
2B3
100
AcDbEntity
  8
0
100
AcDbLine
 62
7
  6
BYLAYER
 10
286.7629284528
 20
906.5531206767
 11
286.7629284528
 21
905.3531206767
  0
LINE
  5
2B4
100
AcDbEntity
  8
0
100
AcDbLine
 62
7
  6
BYLAYER
 10
295.0129284528
 20
906.5531206767
 11
295.0129284528
 21
905.3531206767
  0
LINE
  5
2B5
100
AcDbEntity
  8
4
100
AcDbLine
 62
7
  6
BYLAYER
 10
296.6976755374
 20
851.5361982608
 11
296.6976755374
 21
811.5361982608
  0
LINE
  5
2B6
100
AcDbEntity
  8
4
100
AcDbLine
 62
7
  6
BYLAYER
 10
296.6976755374
 20
155.2012957999
 11
296.6976755374
 21
115.2012957999
  0
LINE
  5
2B7
100
AcDbEntity
  8
0
100
AcDbLine
 62
7
  6
BYLAYER
 10
297.8861684528
 20
898.8531206767
 11
297.8861684528
 21
896.8531206767
  0
LINE
  5
2B8
100
AcDbEntity
  8
0
100
AcDbLine
 62
7
  6
BYLAYER
 10
297.8868962639
 20
67.3530105382
 11
297.8868962639
 21
65.3530105382
  0
LINE
  5
2B9
100
AcDbEntity
  8
0
100
AcDbLine
 62
7
  6
BYLAYER
 10
298.6361684528
 20
898.8531206767
 11
298.6361684528
 21
904.8531206767
  0
LINE
  5
2BA
100
AcDbEntity
  8
0
100
AcDbLine
 62
7
  6
BYLAYER
 10
298.8861684528
 20
896.8531206767
 11
298.8861684528
 21
897.8531206767
  0
LINE
  5
2BB
100
AcDbEntity
  8
0
100
AcDbLine
 62
7
  6
BYLAYER
 10
298.8868962639
 20
66.3530105382
 11
298.8868962639
 21
67.3530105382
  0
LINE
  5
2BC
100
AcDbEntity
  8
0
100
AcDbLine
 62
7
  6
BYLAYER
 10
299.0861684528
 20
896.4571876708
 11
299.0861684528
 21
897.9531206767
  0
LINE
  5
2BD
100
AcDbEntity
  8
0
100
AcDbLine
 62
7
  6
BYLAYER
 10
299.086896261
 20
66.2531206767
 11
299.086896261
 21
67.7488281015
  0
LINE
  5
2BE
100
AcDbEntity
  8
0
100
AcDbLine
 62
7
  6
BYLAYER
 10
299.3861685254
 20
895.8531206767
 11
299.3861685254
 21
896.3531206767
  0
LINE
  5
2BF
100
AcDbEntity
  8
0
100
AcDbLine
 62
7
  6
BYLAYER
 10
299.3868963367
 20
67.8530105382
 11
299.3868963367
 21
68.3530105382
  0
LINE
  5
2C0
100
AcDbEntity
  8
0
100
AcDbLine
 62
7
  6
BYLAYER
 10
302.8861684528
 20
896.3531206767
 11
302.8861684528
 21
881.3531206767
  0
LINE
  5
2C1
100
AcDbEntity
  8
3
100
AcDbLine
 62
7
  6
BYLAYER
 10
302.8864212208
 20
881.3531334852
 11
302.8864212208
 21
82.8531334852
  0
LINE
  5
2C2
100
AcDbEntity
  8
0
100
AcDbLine
 62
7
  6
BYLAYER
 10
302.8868962639
 20
82.8530105382
 11
302.8868962639
 21
67.8530105382
  0
LINE
  5
2C3
100
AcDbEntity
  8
0
100
AcDbLine
 62
7
  6
BYLAYER
 10
305.6861684528
 20
897.9531206767
 11
305.6861684528
 21
896.3531206767
  0
LINE
  5
2C4
100
AcDbEntity
  8
0
100
AcDbLine
 62
7
  6
BYLAYER
 10
305.686896261
 20
67.8531206767
 11
305.686896261
 21
66.2531206767
  0
LINE
  5
2C5
100
AcDbEntity
  8
0
100
AcDbLine
 62
7
  6
BYLAYER
 10
305.8861684528
 20
898.8531206767
 11
305.8861684545
 21
896.8531206767
  0
LINE
  5
2C6
100
AcDbEntity
  8
0
100
AcDbLine
 62
7
  6
BYLAYER
 10
305.8868962656
 20
67.3530105382
 11
305.8868962639
 21
65.3530105382
  0
LINE
  5
2C7
100
AcDbEntity
  8
0
100
AcDbLine
 62
7
  6
BYLAYER
 10
306.8861684528
 20
881.3531206767
 11
306.8861684528
 21
897.8531206767
  0
LINE
  5
2C8
100
AcDbEntity
  8
3
100
AcDbLine
 62
7
  6
BYLAYER
 10
306.8864212208
 20
82.8531334852
 11
306.8864212208
 21
881.3531334852
  0
LINE
  5
2C9
100
AcDbEntity
  8
0
100
AcDbLine
 62
7
  6
BYLAYER
 10
306.8868962639
 20
66.3530105382
 11
306.8868962639
 21
82.8530105382
  0
LINE
  5
2CA
100
AcDbEntity
  8
3
100
AcDbLine
 62
7
  6
BYLAYER
 10
394.3468064259
 20
110.2012957999
 11
394.3468064259
 21
160.2012957999
  0
LINE
  5
2CB
100
AcDbEntity
  8
3
100
AcDbLine
 62
7
  6
BYLAYER
 10
394.3468064259
 20
806.5361982608
 11
394.3468064259
 21
856.5361982608
  0
LINE
  5
2CC
100
AcDbEntity
  8
3
100
AcDbLine
 62
7
  6
BYLAYER
 10
397.3468064259
 20
856.5361982608
 11
397.3468064259
 21
806.5361982608
  0
LINE
  5
2CD
100
AcDbEntity
  8
3
100
AcDbLine
 62
7
  6
BYLAYER
 10
397.3468064259
 20
160.2012957999
 11
397.3468064259
 21
110.2012957999
  0
LINE
  5
2CE
100
AcDbEntity
  8
3
100
AcDbLine
 62
7
  6
BYLAYER
 10
401.3468064259
 20
110.2012957999
 11
401.3468064259
 21
160.2012957999
  0
LINE
  5
2CF
100
AcDbEntity
  8
3
100
AcDbLine
 62
7
  6
BYLAYER
 10
401.3468064259
 20
806.5361982608
 11
401.3468064259
 21
856.5361982608
  0
LINE
  5
2D0
100
AcDbEntity
  8
0
100
AcDbLine
 62
7
  6
BYLAYER
 10
404.5352993413
 20
897.8531206767
 11
404.5352993413
 21
895.8649710081
  0
LINE
  5
2D1
100
AcDbEntity
  8
0
100
AcDbLine
 62
7
  6
BYLAYER
 10
404.5352993413
 20
895.8531206767
 11
404.5352993413
 21
881.3531206767
  0
LINE
  5
2D2
100
AcDbEntity
  8
3
100
AcDbLine
 62
7
  6
BYLAYER
 10
404.5355521093
 20
881.3531334852
 11
404.5355521093
 21
856.5361982608
  0
LINE
  5
2D3
100
AcDbEntity
  8
3
100
AcDbLine
 62
7
  6
BYLAYER
 10
404.5355521093
 20
806.5361982608
 11
404.5355521093
 21
160.2012957999
  0
LINE
  5
2D4
100
AcDbEntity
  8
3
100
AcDbLine
 62
7
  6
BYLAYER
 10
404.5355521093
 20
110.2012957999
 11
404.5355521093
 21
82.8531334852
  0
LINE
  5
2D5
100
AcDbEntity
  8
0
100
AcDbLine
 62
7
  6
BYLAYER
 10
404.5360271524
 20
66.3530105382
 11
404.5360271524
 21
82.8530105382
  0
LINE
  5
2D6
100
AcDbEntity
  8
0
100
AcDbLine
 62
7
  6
BYLAYER
 10
405.5352993396
 20
896.8531206767
 11
405.5352993413
 21
898.8531206767
  0
LINE
  5
2D7
100
AcDbEntity
  8
0
100
AcDbLine
 62
7
  6
BYLAYER
 10
405.5360271524
 20
65.3530105382
 11
405.5360271507
 21
67.3530105382
  0
LINE
  5
2D8
100
AcDbEntity
  8
0
100
AcDbLine
 62
7
  6
BYLAYER
 10
405.7352993413
 20
896.3531206767
 11
405.7352993413
 21
897.9531206767
  0
LINE
  5
2D9
100
AcDbEntity
  8
0
100
AcDbLine
 62
7
  6
BYLAYER
 10
405.7360271524
 20
66.2531206767
 11
405.7360271524
 21
67.8531206767
  0
LINE
  5
2DA
100
AcDbEntity
  8
0
100
AcDbLine
 62
7
  6
BYLAYER
 10
408.5352993413
 20
881.3531206767
 11
408.5352993413
 21
896.3531206767
  0
LINE
  5
2DB
100
AcDbEntity
  8
3
100
AcDbLine
 62
7
  6
BYLAYER
 10
408.5355521093
 20
82.8531334852
 11
408.5355521093
 21
110.2012957999
  0
LINE
  5
2DC
100
AcDbEntity
  8
3
100
AcDbLine
 62
7
  6
BYLAYER
 10
408.5355521093
 20
160.2012957999
 11
408.5355521093
 21
806.5361982608
  0
LINE
  5
2DD
100
AcDbEntity
  8
3
100
AcDbLine
 62
7
  6
BYLAYER
 10
408.5355521093
 20
856.5361982608
 11
408.5355521093
 21
881.3531334852
  0
LINE
  5
2DE
100
AcDbEntity
  8
0
100
AcDbLine
 62
7
  6
BYLAYER
 10
408.5360271524
 20
67.8530105382
 11
408.5360271524
 21
82.8530105382
  0
LINE
  5
2DF
100
AcDbEntity
  8
0
100
AcDbLine
 62
7
  6
BYLAYER
 10
412.0352992685
 20
896.3531206767
 11
412.0352992685
 21
895.8531206767
  0
LINE
  5
2E0
100
AcDbEntity
  8
0
100
AcDbLine
 62
7
  6
BYLAYER
 10
412.0360270799
 20
68.3530105382
 11
412.0360270799
 21
67.8530105382
  0
LINE
  5
2E1
100
AcDbEntity
  8
0
100
AcDbLine
 62
7
  6
BYLAYER
 10
412.3352993413
 20
897.9531206767
 11
412.3352993413
 21
896.4573031115
  0
LINE
  5
2E2
100
AcDbEntity
  8
0
100
AcDbLine
 62
7
  6
BYLAYER
 10
412.3360271524
 20
67.748943544
 11
412.3360271524
 21
66.2531206767
  0
LINE
  5
2E3
100
AcDbEntity
  8
0
100
AcDbLine
 62
7
  6
BYLAYER
 10
412.5352993413
 20
897.8531206767
 11
412.5352993413
 21
896.8531206767
  0
LINE
  5
2E4
100
AcDbEntity
  8
0
100
AcDbLine
 62
7
  6
BYLAYER
 10
412.5360271524
 20
67.3530105382
 11
412.5360271524
 21
66.3530105382
  0
LINE
  5
2E5
100
AcDbEntity
  8
0
100
AcDbLine
 62
7
  6
BYLAYER
 10
412.7852993413
 20
898.8531206767
 11
412.7852993413
 21
904.8531206767
  0
LINE
  5
2E6
100
AcDbEntity
  8
0
100
AcDbLine
 62
7
  6
BYLAYER
 10
413.5352993413
 20
896.8531206767
 11
413.5352993413
 21
898.8531206767
  0
LINE
  5
2E7
100
AcDbEntity
  8
0
100
AcDbLine
 62
7
  6
BYLAYER
 10
413.5360271524
 20
65.3530105382
 11
413.5360271524
 21
67.3530105382
  0
LINE
  5
2E8
100
AcDbEntity
  8
0
100
AcDbLine
 62
7
  6
BYLAYER
 10
414.5352993413
 20
905.3531206767
 11
414.5352993413
 21
908.8531197393
  0
LINE
  5
2E9
100
AcDbEntity
  8
0
100
AcDbLine
 62
7
  6
BYLAYER
 10
416.4110793413
 20
906.5531206767
 11
416.4110793413
 21
905.3531206767
  0
LINE
  5
2EA
100
AcDbEntity
  8
0
100
AcDbLine
 62
7
  6
BYLAYER
 10
424.6610793413
 20
906.5531206767
 11
424.6610793413
 21
905.3531206767
  0
LINE
  5
2EB
100
AcDbEntity
  8
0
100
AcDbLine
 62
7
  6
BYLAYER
 10
425.0352993413
 20
897.8531206767
 11
425.0352993413
 21
881.3531206767
  0
LINE
  5
2EC
100
AcDbEntity
  8
3
100
AcDbLine
 62
7
  6
BYLAYER
 10
425.0355521093
 20
881.3531334852
 11
425.0355521093
 21
856.5361982608
  0
LINE
  5
2ED
100
AcDbEntity
  8
3
100
AcDbLine
 62
7
  6
BYLAYER
 10
425.0355521093
 20
806.5361982608
 11
425.0355521093
 21
160.2012957999
  0
LINE
  5
2EE
100
AcDbEntity
  8
3
100
AcDbLine
 62
7
  6
BYLAYER
 10
425.0355521093
 20
110.2012957999
 11
425.0355521093
 21
82.8531334852
  0
LINE
  5
2EF
100
AcDbEntity
  8
0
100
AcDbLine
 62
7
  6
BYLAYER
 10
425.0360271524
 20
82.8530105382
 11
425.0360271524
 21
66.3530105382
  0
LINE
  5
2F0
100
AcDbEntity
  8
0
100
AcDbLine
 62
7
  6
BYLAYER
 10
425.5352993413
 20
881.3531206767
 11
425.5352993413
 21
897.8531206767
  0
LINE
  5
2F1
100
AcDbEntity
  8
3
100
AcDbLine
 62
7
  6
BYLAYER
 10
425.5355521093
 20
82.8531334852
 11
425.5355521093
 21
110.2012957999
  0
LINE
  5
2F2
100
AcDbEntity
  8
3
100
AcDbLine
 62
7
  6
BYLAYER
 10
425.5355521093
 20
160.2012957999
 11
425.5355521093
 21
806.5361982608
  0
LINE
  5
2F3
100
AcDbEntity
  8
3
100
AcDbLine
 62
7
  6
BYLAYER
 10
425.5355521093
 20
856.5361982608
 11
425.5355521093
 21
881.3531334852
  0
LINE
  5
2F4
100
AcDbEntity
  8
0
100
AcDbLine
 62
7
  6
BYLAYER
 10
425.5360271524
 20
66.3530105383
 11
425.5360271524
 21
82.8530105382
  0
LINE
  5
2F5
100
AcDbEntity
  8
0
100
AcDbLine
 62
7
  6
BYLAYER
 10
426.5352993413
 20
908.8531197393
 11
426.5352993413
 21
905.3531206767
  0
LINE
  5
2F6
100
AcDbEntity
  8
0
100
AcDbLine
 62
7
  6
BYLAYER
 10
428.2852993413
 20
898.8531206767
 11
428.2852993413
 21
904.8531206767
  0
LINE
  5
2F7
100
AcDbEntity
  8
0
100
AcDbLine
 62
7
  6
BYLAYER
 10
430.7852993413
 20
898.8531206767
 11
430.7852993413
 21
904.8531206767
  0
LINE
  5
2F8
100
AcDbEntity
  8
0
100
AcDbLine
 62
7
  6
BYLAYER
 10
433.5352993413
 20
897.8531206767
 11
433.5352993413
 21
881.3531206767
  0
LINE
  5
2F9
100
AcDbEntity
  8
3
100
AcDbLine
 62
7
  6
BYLAYER
 10
433.5355521093
 20
881.3531334852
 11
433.5355521093
 21
856.5361982608
  0
LINE
  5
2FA
100
AcDbEntity
  8
3
100
AcDbLine
 62
7
  6
BYLAYER
 10
433.5355521093
 20
806.5361982608
 11
433.5355521093
 21
160.2012957999
  0
LINE
  5
2FB
100
AcDbEntity
  8
3
100
AcDbLine
 62
7
  6
BYLAYER
 10
433.5355521093
 20
110.2012957999
 11
433.5355521093
 21
82.8531334852
  0
LINE
  5
2FC
100
AcDbEntity
  8
0
100
AcDbLine
 62
7
  6
BYLAYER
 10
433.5360271524
 20
82.8530105382
 11
433.5360271524
 21
66.3530105383
  0
LINE
  5
2FD
100
AcDbEntity
  8
0
100
AcDbLine
 62
7
  6
BYLAYER
 10
434.0352993413
 20
881.3531206767
 11
434.0352993413
 21
897.8531206767
  0
LINE
  5
2FE
100
AcDbEntity
  8
3
100
AcDbLine
 62
7
  6
BYLAYER
 10
434.0355521093
 20
82.8531334852
 11
434.0355521093
 21
110.2012957999
  0
LINE
  5
2FF
100
AcDbEntity
  8
3
100
AcDbLine
 62
7
  6
BYLAYER
 10
434.0355521093
 20
160.2012957999
 11
434.0355521093
 21
806.5361982608
  0
LINE
  5
300
100
AcDbEntity
  8
3
100
AcDbLine
 62
7
  6
BYLAYER
 10
434.0355521093
 20
856.5361982608
 11
434.0355521093
 21
881.3531334852
  0
LINE
  5
301
100
AcDbEntity
  8
0
100
AcDbLine
 62
7
  6
BYLAYER
 10
434.0360271524
 20
66.3530105382
 11
434.0360271524
 21
82.8530105382
  0
LINE
  5
302
100
AcDbEntity
  8
0
100
AcDbLine
 62
7
  6
BYLAYER
 10
434.4120593413
 20
906.5531206767
 11
434.4120593413
 21
905.3531206767
  0
LINE
  5
303
100
AcDbEntity
  8
0
100
AcDbLine
 62
7
  6
BYLAYER
 10
442.6620593413
 20
906.5531206767
 11
442.6620593413
 21
905.3531206767
  0
LINE
  5
304
100
AcDbEntity
  8
3
100
AcDbLine
 62
7
  6
BYLAYER
 10
444.3468064259
 20
851.5361982608
 11
444.3468064259
 21
811.5361982608
  0
LINE
  5
305
100
AcDbEntity
  8
3
100
AcDbLine
 62
7
  6
BYLAYER
 10
444.3468064259
 20
155.2012957999
 11
444.3468064259
 21
115.2012957999
  0
LINE
  5
306
100
AcDbEntity
  8
0
100
AcDbLine
 62
7
  6
BYLAYER
 10
445.5352993413
 20
898.8531206767
 11
445.5352993413
 21
896.8531206767
  0
LINE
  5
307
100
AcDbEntity
  8
0
100
AcDbLine
 62
7
  6
BYLAYER
 10
445.5360271524
 20
67.3530105382
 11
445.5360271524
 21
65.3530105382
  0
LINE
  5
308
100
AcDbEntity
  8
0
100
AcDbLine
 62
7
  6
BYLAYER
 10
446.2852993413
 20
898.8531206767
 11
446.2852993413
 21
904.8531206767
  0
LINE
  5
309
100
AcDbEntity
  8
0
100
AcDbLine
 62
7
  6
BYLAYER
 10
446.5352993413
 20
896.8531206767
 11
446.5352993413
 21
897.8531206767
  0
LINE
  5
30A
100
AcDbEntity
  8
0
100
AcDbLine
 62
7
  6
BYLAYER
 10
446.5360271524
 20
66.3530105382
 11
446.5360271524
 21
67.3530105382
  0
LINE
  5
30B
100
AcDbEntity
  8
0
100
AcDbLine
 62
7
  6
BYLAYER
 10
446.7352993413
 20
896.4571876708
 11
446.7352993413
 21
897.9531206767
  0
LINE
  5
30C
100
AcDbEntity
  8
0
100
AcDbLine
 62
7
  6
BYLAYER
 10
446.7360271495
 20
66.2531206767
 11
446.7360271495
 21
67.7488281015
  0
LINE
  5
30D
100
AcDbEntity
  8
0
100
AcDbLine
 62
7
  6
BYLAYER
 10
447.0352994139
 20
895.8531206767
 11
447.0352994139
 21
896.3531206767
  0
LINE
  5
30E
100
AcDbEntity
  8
0
100
AcDbLine
 62
7
  6
BYLAYER
 10
447.0360272252
 20
67.8530105382
 11
447.0360272252
 21
68.3530105382
  0
LINE
  5
30F
100
AcDbEntity
  8
0
100
AcDbLine
 62
7
  6
BYLAYER
 10
450.5352993413
 20
896.3531206767
 11
450.5352993413
 21
881.3531206767
  0
LINE
  5
310
100
AcDbEntity
  8
3
100
AcDbLine
 62
7
  6
BYLAYER
 10
450.5355521093
 20
881.3531334852
 11
450.5355521093
 21
82.8531334852
  0
LINE
  5
311
100
AcDbEntity
  8
0
100
AcDbLine
 62
7
  6
BYLAYER
 10
450.5360271524
 20
82.8530105382
 11
450.5360271524
 21
67.8530105382
  0
LINE
  5
312
100
AcDbEntity
  8
0
100
AcDbLine
 62
7
  6
BYLAYER
 10
453.3352993413
 20
897.9531206767
 11
453.3352993413
 21
896.3531206767
  0
LINE
  5
313
100
AcDbEntity
  8
0
100
AcDbLine
 62
7
  6
BYLAYER
 10
453.3360271495
 20
67.8531206767
 11
453.3360271495
 21
66.2531206767
  0
LINE
  5
314
100
AcDbEntity
  8
0
100
AcDbLine
 62
7
  6
BYLAYER
 10
453.5352993413
 20
898.8531206767
 11
453.535299343
 21
896.8531206767
  0
LINE
  5
315
100
AcDbEntity
  8
0
100
AcDbLine
 62
7
  6
BYLAYER
 10
453.5360271541
 20
67.3530105382
 11
453.5360271524
 21
65.3530105382
  0
LINE
  5
316
100
AcDbEntity
  8
0
100
AcDbLine
 62
7
  6
BYLAYER
 10
454.5352993413
 20
881.3531206767
 11
454.5352993413
 21
897.8531206767
  0
LINE
  5
317
100
AcDbEntity
  8
3
100
AcDbLine
 62
7
  6
BYLAYER
 10
454.5355521093
 20
82.8531334852
 11
454.5355521093
 21
881.3531334852
  0
LINE
  5
318
100
AcDbEntity
  8
0
100
AcDbLine
 62
7
  6
BYLAYER
 10
454.5360271524
 20
66.3530105382
 11
454.5360271524
 21
82.8530105382
  0
LINE
  5
319
100
AcDbEntity
  8
4
100
AcDbLine
 62
7
  6
BYLAYER
 10
279.1868962624
 20
154.8778329804
 11
276.4868962624
 21
150.2012957999
  0
LINE
  5
31A
100
AcDbEntity
  8
4
100
AcDbLine
 62
7
  6
BYLAYER
 10
284.5868962624
 20
145.5247586195
 11
287.2868962624
 21
150.2012957999
  0
LINE
  5
31B
100
AcDbEntity
  8
4
100
AcDbLine
 62
7
  6
BYLAYER
 10
279.1868962624
 20
124.8778329804
 11
276.4868962624
 21
120.2012957999
  0
LINE
  5
31C
100
AcDbEntity
  8
4
100
AcDbLine
 62
7
  6
BYLAYER
 10
276.4868962624
 20
816.5361982608
 11
279.1868962624
 21
811.8596610804
  0
LINE
  5
31D
100
AcDbEntity
  8
4
100
AcDbLine
 62
7
  6
BYLAYER
 10
287.2868962624
 20
816.5361982608
 11
284.5868962624
 21
821.2127354412
  0
LINE
  5
31E
100
AcDbEntity
  8
4
100
AcDbLine
 62
7
  6
BYLAYER
 10
276.4868962624
 20
846.5361982608
 11
279.1868962624
 21
841.8596610804
  0
LINE
  5
31F
100
AcDbEntity
  8
4
100
AcDbLine
 62
7
  6
BYLAYER
 10
284.5868962624
 20
115.5247586195
 11
287.2868962624
 21
120.2012957999
  0
LINE
  5
320
100
AcDbEntity
  8
4
100
AcDbLine
 62
7
  6
BYLAYER
 10
287.2868962624
 20
846.5361982608
 11
284.5868962624
 21
851.2127354412
  0
LINE
  5
321
100
AcDbEntity
  8
3
100
AcDbLine
 62
7
  6
BYLAYER
 10
426.8360271509
 20
154.8778329804
 11
424.1360271509
 21
150.2012957999
  0
LINE
  5
322
100
AcDbEntity
  8
3
100
AcDbLine
 62
7
  6
BYLAYER
 10
424.1360271509
 20
816.5361982608
 11
426.8360271509
 21
811.8596610804
  0
LINE
  5
323
100
AcDbEntity
  8
3
100
AcDbLine
 62
7
  6
BYLAYER
 10
432.2360271509
 20
145.5247586195
 11
434.9360271509
 21
150.2012957999
  0
LINE
  5
324
100
AcDbEntity
  8
3
100
AcDbLine
 62
7
  6
BYLAYER
 10
426.8360271509
 20
124.8778329804
 11
424.1360271509
 21
120.2012957999
  0
LINE
  5
325
100
AcDbEntity
  8
3
100
AcDbLine
 62
7
  6
BYLAYER
 10
432.2360271509
 20
115.5247586195
 11
434.9360271509
 21
120.2012957999
  0
LINE
  5
326
100
AcDbEntity
  8
0
100
AcDbLine
 62
7
  6
BYLAYER
 10
280.1361684528
 20
905.3531206767
 11
280.6361684528
 21
904.8531206767
  0
LINE
  5
327
100
AcDbEntity
  8
0
100
AcDbLine
 62
7
  6
BYLAYER
 10
278.3861704315
 20
909.3531206767
 11
278.8861684528
 21
908.8531228352
  0
LINE
  5
328
100
AcDbEntity
  8
0
100
AcDbLine
 62
7
  6
BYLAYER
 10
298.1361684528
 20
905.3531206767
 11
298.6361684528
 21
904.8531206767
  0
LINE
  5
329
100
AcDbEntity
  8
3
100
AcDbLine
 62
7
  6
BYLAYER
 10
434.9360271509
 20
816.5361982608
 11
432.2360271509
 21
821.2127354412
  0
LINE
  5
32A
100
AcDbEntity
  8
3
100
AcDbLine
 62
7
  6
BYLAYER
 10
424.1360271509
 20
846.5361982608
 11
426.8360271509
 21
841.8596610804
  0
LINE
  5
32B
100
AcDbEntity
  8
3
100
AcDbLine
 62
7
  6
BYLAYER
 10
434.9360271509
 20
846.5361982608
 11
432.2360271509
 21
851.2127354412
  0
LINE
  5
32C
100
AcDbEntity
  8
4
100
AcDbLine
 62
7
  6
BYLAYER
 10
246.6976755374
 20
806.5361982608
 11
291.6976755374
 21
806.5361982608
  0
LINE
  5
32D
100
AcDbEntity
  8
3
100
AcDbLine
 62
7
  6
BYLAYER
 10
394.3468064259
 20
806.5361982608
 11
439.3468064259
 21
806.5361982608
  0
LINE
  5
32E
100
AcDbEntity
  8
3
100
AcDbLine
 62
7
  6
BYLAYER
 10
397.3468064259
 20
811.5361982608
 11
394.3468064259
 21
811.5361982608
  0
LINE
  5
32F
100
AcDbEntity
  8
4
100
AcDbLine
 62
7
  6
BYLAYER
 10
249.6976755374
 20
811.5361982608
 11
246.6976755374
 21
811.5361982608
  0
LINE
  5
330
100
AcDbEntity
  8
3
100
AcDbLine
 62
7
  6
BYLAYER
 10
432.2360271509
 20
811.8596610804
 11
426.8360271509
 21
811.8596610804
  0
LINE
  5
331
100
AcDbEntity
  8
4
100
AcDbLine
 62
7
  6
BYLAYER
 10
284.5868962624
 20
811.8596610804
 11
279.1868962624
 21
811.8596610804
  0
LINE
  5
332
100
AcDbEntity
  8
4
100
AcDbLine
 62
7
  6
BYLAYER
 10
274.9976755374
 20
813.2861982608
 11
276.4825867936
 21
813.2861982608
  0
LINE
  5
333
100
AcDbEntity
  8
4
100
AcDbLine
 62
7
  6
BYLAYER
 10
287.2908681916
 20
813.2861982608
 11
288.4976755374
 21
813.2861982608
  0
LINE
  5
334
100
AcDbEntity
  8
3
100
AcDbLine
 62
7
  6
BYLAYER
 10
422.6468064259
 20
813.2861982608
 11
424.1317176821
 21
813.2861982608
  0
LINE
  5
335
100
AcDbEntity
  8
3
100
AcDbLine
 62
7
  6
BYLAYER
 10
434.9399990801
 20
813.2861982608
 11
436.1468064259
 21
813.2861982608
  0
LINE
  5
336
100
AcDbEntity
  8
3
100
AcDbLine
 62
7
  6
BYLAYER
 10
436.1468064259
 20
819.7861982608
 11
434.9403366198
 21
819.7861982608
  0
LINE
  5
337
100
AcDbEntity
  8
3
100
AcDbLine
 62
7
  6
BYLAYER
 10
424.1320552217
 20
819.7861982608
 11
422.6468064259
 21
819.7861982608
  0
LINE
  5
338
100
AcDbEntity
  8
4
100
AcDbLine
 62
7
  6
BYLAYER
 10
288.4976755374
 20
819.7861982608
 11
287.2912057312
 21
819.7861982608
  0
LINE
  5
339
100
AcDbEntity
  8
4
100
AcDbLine
 62
7
  6
BYLAYER
 10
276.4829243332
 20
819.7861982608
 11
274.9976755374
 21
819.7861982608
  0
LINE
  5
33A
100
AcDbEntity
  8
4
100
AcDbLine
 62
7
  6
BYLAYER
 10
279.1868962624
 20
821.2127354412
 11
284.5868962624
 21
821.2127354412
  0
LINE
  5
33B
100
AcDbEntity
  8
3
100
AcDbLine
 62
7
  6
BYLAYER
 10
426.8360271509
 20
821.2127354412
 11
432.2360271509
 21
821.2127354412
  0
LINE
  5
33C
100
AcDbEntity
  8
0
100
AcDbLine
 62
7
  6
BYLAYER
 10
427.7852993413
 20
905.3531206767
 11
428.2852993413
 21
904.8531206767
  0
LINE
  5
33D
100
AcDbEntity
  8
3
100
AcDbLine
 62
7
  6
BYLAYER
 10
432.2360271509
 20
841.8596610804
 11
426.8360271509
 21
841.8596610804
  0
LINE
  5
33E
100
AcDbEntity
  8
4
100
AcDbLine
 62
7
  6
BYLAYER
 10
284.5868962624
 20
841.8596610804
 11
279.1868962624
 21
841.8596610804
  0
LINE
  5
33F
100
AcDbEntity
  8
4
100
AcDbLine
 62
7
  6
BYLAYER
 10
274.9976755374
 20
843.2861982608
 11
276.4825867936
 21
843.2861982608
  0
LINE
  5
340
100
AcDbEntity
  8
4
100
AcDbLine
 62
7
  6
BYLAYER
 10
287.2908681916
 20
843.2861982608
 11
288.4976755374
 21
843.2861982608
  0
LINE
  5
341
100
AcDbEntity
  8
3
100
AcDbLine
 62
7
  6
BYLAYER
 10
422.6468064259
 20
843.2861982608
 11
424.1317176821
 21
843.2861982608
  0
LINE
  5
342
100
AcDbEntity
  8
3
100
AcDbLine
 62
7
  6
BYLAYER
 10
434.9399990801
 20
843.2861982608
 11
436.1468064259
 21
843.2861982608
  0
LINE
  5
343
100
AcDbEntity
  8
3
100
AcDbLine
 62
7
  6
BYLAYER
 10
436.1468064259
 20
849.7861982608
 11
434.9403366198
 21
849.7861982608
  0
LINE
  5
344
100
AcDbEntity
  8
3
100
AcDbLine
 62
7
  6
BYLAYER
 10
424.1320552217
 20
849.7861982608
 11
422.6468064259
 21
849.7861982608
  0
LINE
  5
345
100
AcDbEntity
  8
4
100
AcDbLine
 62
7
  6
BYLAYER
 10
288.4976755374
 20
849.7861982608
 11
287.2912057312
 21
849.7861982608
  0
LINE
  5
346
100
AcDbEntity
  8
4
100
AcDbLine
 62
7
  6
BYLAYER
 10
276.4829243332
 20
849.7861982608
 11
274.9976755374
 21
849.7861982608
  0
LINE
  5
347
100
AcDbEntity
  8
4
100
AcDbLine
 62
7
  6
BYLAYER
 10
279.1868962624
 20
851.2127354412
 11
284.5868962624
 21
851.2127354412
  0
LINE
  5
348
100
AcDbEntity
  8
3
100
AcDbLine
 62
7
  6
BYLAYER
 10
426.8360271509
 20
851.2127354412
 11
432.2360271509
 21
851.2127354412
  0
LINE
  5
349
100
AcDbEntity
  8
4
100
AcDbLine
 62
7
  6
BYLAYER
 10
246.6976755374
 20
851.5361982608
 11
249.6976755374
 21
851.5361982608
  0
LINE
  5
34A
100
AcDbEntity
  8
3
100
AcDbLine
 62
7
  6
BYLAYER
 10
394.3468064259
 20
851.5361982608
 11
397.3468064259
 21
851.5361982608
  0
LINE
  5
34B
100
AcDbEntity
  8
4
100
AcDbLine
 62
7
  6
BYLAYER
 10
246.6976755374
 20
856.5361982608
 11
291.6976755374
 21
856.5361982608
  0
LINE
  5
34C
100
AcDbEntity
  8
3
100
AcDbLine
 62
7
  6
BYLAYER
 10
394.3468064259
 20
856.5361982608
 11
439.3468064259
 21
856.5361982608
  0
LINE
  5
34D
100
AcDbEntity
  8
0
100
AcDbLine
 62
7
  6
BYLAYER
 10
426.03530132
 20
909.3531206767
 11
426.5352993413
 21
908.8531228352
  0
LINE
  5
34E
100
AcDbEntity
  8
0
100
AcDbLine
 62
7
  6
BYLAYER
 10
445.7852993413
 20
905.3531206767
 11
446.2852993413
 21
904.8531206767
  0
LINE
  5
34F
100
AcDbEntity
  8
0
100
AcDbLine
 62
7
  6
BYLAYER
 10
256.8861684528
 20
881.3531206767
 11
306.8861684528
 21
881.3531206767
  0
LINE
  5
350
100
AcDbEntity
  8
3
100
AcDbLine
 62
7
  6
BYLAYER
 10
256.8864212208
 20
881.3531334852
 11
306.8864212208
 21
881.3531334852
  0
LINE
  5
351
100
AcDbEntity
  8
0
100
AcDbLine
 62
7
  6
BYLAYER
 10
404.5352993413
 20
881.3531206767
 11
454.5352993413
 21
881.3531206767
  0
LINE
  5
352
100
AcDbEntity
  8
3
100
AcDbLine
 62
7
  6
BYLAYER
 10
404.5355521093
 20
881.3531334852
 11
454.5355521093
 21
881.3531334852
  0
LINE
  5
353
100
AcDbEntity
  8
0
100
AcDbLine
 62
7
  6
BYLAYER
 10
446.5352993413
 20
894.8531206767
 11
430.5353161553
 21
894.8531206767
  0
LINE
  5
354
100
AcDbEntity
  8
0
100
AcDbLine
 62
7
  6
BYLAYER
 10
428.5352993413
 20
894.8531206767
 11
412.5353161553
 21
894.8531206767
  0
LINE
  5
355
100
AcDbEntity
  8
0
100
AcDbLine
 62
7
  6
BYLAYER
 10
298.8861684528
 20
894.8531206767
 11
282.8861852668
 21
894.8531206767
  0
LINE
  5
356
100
AcDbEntity
  8
0
100
AcDbLine
 62
7
  6
BYLAYER
 10
280.8861684528
 20
894.8531206767
 11
264.8861852668
 21
894.8531206767
  0
LINE
  5
357
100
AcDbEntity
  8
0
100
AcDbLine
 62
7
  6
BYLAYER
 10
446.4300903125
 20
894.8643149277
 11
430.640524963
 21
894.8643149277
  0
LINE
  5
358
100
AcDbEntity
  8
0
100
AcDbLine
 62
7
  6
BYLAYER
 10
428.4300903125
 20
894.8643149277
 11
412.640524963
 21
894.8643149277
  0
LINE
  5
359
100
AcDbEntity
  8
0
100
AcDbLine
 62
7
  6
BYLAYER
 10
298.780959424
 20
894.8643149277
 11
282.9913940745
 21
894.8643149277
  0
LINE
  5
35A
100
AcDbEntity
  8
0
100
AcDbLine
 62
7
  6
BYLAYER
 10
280.780959424
 20
894.8643149277
 11
264.9913940745
 21
894.8643149277
  0
LINE
  5
35B
100
AcDbEntity
  8
0
100
AcDbLine
 62
7
  6
BYLAYER
 10
264.7806737926
 20
895.84186486
 11
280.9916460774
 21
895.84186486
  0
LINE
  5
35C
100
AcDbEntity
  8
0
100
AcDbLine
 62
7
  6
BYLAYER
 10
412.4298046811
 20
895.84186486
 11
428.6407769659
 21
895.84186486
  0
LINE
  5
35D
100
AcDbEntity
  8
0
100
AcDbLine
 62
7
  6
BYLAYER
 10
446.6405083702
 20
895.8419264257
 11
430.4301073475
 21
895.8419264257
  0
LINE
  5
35E
100
AcDbEntity
  8
0
100
AcDbLine
 62
7
  6
BYLAYER
 10
298.9913774817
 20
895.8419264257
 11
282.780976459
 21
895.8419264257
  0
LINE
  5
35F
100
AcDbEntity
  8
0
100
AcDbLine
 62
7
  6
BYLAYER
 10
256.8861684528
 20
895.8531206767
 11
264.3861684528
 21
895.8531206767
  0
LINE
  5
360
100
AcDbEntity
  8
0
100
AcDbLine
 62
7
  6
BYLAYER
 10
299.3861684528
 20
895.8531206767
 11
306.8861684528
 21
895.8531206767
  0
LINE
  5
361
100
AcDbEntity
  8
0
100
AcDbLine
 62
7
  6
BYLAYER
 10
404.5352993413
 20
895.8531206767
 11
412.0352993413
 21
895.8531206767
  0
LINE
  5
362
100
AcDbEntity
  8
0
100
AcDbLine
 62
7
  6
BYLAYER
 10
447.0352993413
 20
895.8531206767
 11
454.5352993413
 21
895.8531206767
  0
LINE
  5
363
100
AcDbEntity
  8
0
100
AcDbLine
 62
7
  6
BYLAYER
 10
257.3861684528
 20
896.3531206767
 11
264.3861684528
 21
896.3531206767
  0
LINE
  5
364
100
AcDbEntity
  8
0
100
AcDbLine
 62
7
  6
BYLAYER
 10
299.3861684528
 20
896.3531206767
 11
306.3861684528
 21
896.3531206767
  0
LINE
  5
365
100
AcDbEntity
  8
0
100
AcDbLine
 62
7
  6
BYLAYER
 10
405.0352993413
 20
896.3531206767
 11
412.0352993413
 21
896.3531206767
  0
LINE
  5
366
100
AcDbEntity
  8
0
100
AcDbLine
 62
7
  6
BYLAYER
 10
447.0352993413
 20
896.3531206767
 11
454.0352993413
 21
896.3531206767
  0
LINE
  5
367
100
AcDbEntity
  8
0
100
AcDbLine
 62
7
  6
BYLAYER
 10
454.5352993413
 20
896.8531207456
 11
453.3352993413
 21
896.8531206767
  0
LINE
  5
368
100
AcDbEntity
  8
0
100
AcDbLine
 62
7
  6
BYLAYER
 10
446.7352993413
 20
896.8531206767
 11
445.5352993413
 21
896.8531207457
  0
LINE
  5
369
100
AcDbEntity
  8
0
100
AcDbLine
 62
7
  6
BYLAYER
 10
413.5352993413
 20
896.8531207456
 11
412.3352993413
 21
896.8531206767
  0
LINE
  5
36A
100
AcDbEntity
  8
0
100
AcDbLine
 62
7
  6
BYLAYER
 10
405.7352993413
 20
896.8531206767
 11
404.5352993413
 21
896.8531207457
  0
LINE
  5
36B
100
AcDbEntity
  8
0
100
AcDbLine
 62
7
  6
BYLAYER
 10
306.8861684528
 20
896.8531207456
 11
305.6861684528
 21
896.8531206767
  0
LINE
  5
36C
100
AcDbEntity
  8
0
100
AcDbLine
 62
7
  6
BYLAYER
 10
299.0861684528
 20
896.8531206767
 11
297.8861684528
 21
896.8531207457
  0
LINE
  5
36D
100
AcDbEntity
  8
0
100
AcDbLine
 62
7
  6
BYLAYER
 10
265.8861684528
 20
896.8531207456
 11
264.6861684528
 21
896.8531206767
  0
LINE
  5
36E
100
AcDbEntity
  8
0
100
AcDbLine
 62
7
  6
BYLAYER
 10
258.0861684528
 20
896.8531206767
 11
256.8861684528
 21
896.8531207457
  0
LINE
  5
36F
100
AcDbEntity
  8
0
100
AcDbLine
 62
7
  6
BYLAYER
 10
256.8861684528
 20
897.8531206767
 11
258.0861684528
 21
897.8531206767
  0
LINE
  5
370
100
AcDbEntity
  8
0
100
AcDbLine
 62
7
  6
BYLAYER
 10
264.6861684528
 20
897.8531206767
 11
277.8861684528
 21
897.8531206701
  0
LINE
  5
371
100
AcDbEntity
  8
0
100
AcDbLine
 62
7
  6
BYLAYER
 10
285.8861684528
 20
897.8531206767
 11
299.0861684528
 21
897.8531206767
  0
LINE
  5
372
100
AcDbEntity
  8
0
100
AcDbLine
 62
7
  6
BYLAYER
 10
305.6861684528
 20
897.8531206767
 11
306.8861684528
 21
897.8531206767
  0
LINE
  5
373
100
AcDbEntity
  8
0
100
AcDbLine
 62
7
  6
BYLAYER
 10
404.5352993413
 20
897.8531206767
 11
405.7352993413
 21
897.8531206767
  0
LINE
  5
374
100
AcDbEntity
  8
0
100
AcDbLine
 62
7
  6
BYLAYER
 10
412.3352993413
 20
897.8531206767
 11
425.5352993413
 21
897.8531206701
  0
LINE
  5
375
100
AcDbEntity
  8
0
100
AcDbLine
 62
7
  6
BYLAYER
 10
433.5352993413
 20
897.8531206767
 11
446.7352993413
 21
897.8531206767
  0
LINE
  5
376
100
AcDbEntity
  8
0
100
AcDbLine
 62
7
  6
BYLAYER
 10
453.3352993413
 20
897.8531206767
 11
454.5352993413
 21
897.8531206767
  0
LINE
  5
377
100
AcDbEntity
  8
0
100
AcDbLine
 62
7
  6
BYLAYER
 10
258.0861684528
 20
897.9531206767
 11
264.6861684528
 21
897.9531206767
  0
LINE
  5
378
100
AcDbEntity
  8
0
100
AcDbLine
 62
7
  6
BYLAYER
 10
299.0861684528
 20
897.9531206767
 11
305.6861684528
 21
897.9531206767
  0
LINE
  5
379
100
AcDbEntity
  8
0
100
AcDbLine
 62
7
  6
BYLAYER
 10
405.7352993413
 20
897.9531206767
 11
412.3352993413
 21
897.9531206767
  0
LINE
  5
37A
100
AcDbEntity
  8
0
100
AcDbLine
 62
7
  6
BYLAYER
 10
446.7352993413
 20
897.9531206767
 11
453.3352993413
 21
897.9531206767
  0
LINE
  5
37B
100
AcDbEntity
  8
0
100
AcDbLine
 62
7
  6
BYLAYER
 10
277.7447202726
 20
898.3531206767
 11
286.026652107
 21
898.3531206767
  0
LINE
  5
37C
100
AcDbEntity
  8
0
100
AcDbLine
 62
7
  6
BYLAYER
 10
425.3938511611
 20
898.3531206767
 11
433.6757829956
 21
898.3531206767
  0
LINE
  5
37D
100
AcDbEntity
  8
0
100
AcDbLine
 62
7
  6
BYLAYER
 10
453.5352993413
 20
898.8531206767
 11
452.7085045448
 21
898.8531206767
  0
LINE
  5
37E
100
AcDbEntity
  8
0
100
AcDbLine
 62
7
  6
BYLAYER
 10
406.3620941379
 20
898.8531206767
 11
405.5352993413
 21
898.8531206767
  0
LINE
  5
37F
100
AcDbEntity
  8
0
100
AcDbLine
 62
7
  6
BYLAYER
 10
305.8861684528
 20
898.8531206767
 11
305.0593736563
 21
898.8531206767
  0
LINE
  5
380
100
AcDbEntity
  8
0
100
AcDbLine
 62
7
  6
BYLAYER
 10
258.7129632493
 20
898.8531206767
 11
257.8861684528
 21
898.8531206767
  0
LINE
  5
381
100
AcDbEntity
  8
0
100
AcDbLine
 62
7
  6
BYLAYER
 10
264.0593736563
 20
898.8531206767
 11
299.7129632493
 21
898.8531206767
  0
LINE
  5
382
100
AcDbEntity
  8
0
100
AcDbLine
 62
7
  6
BYLAYER
 10
411.7085045448
 20
898.8531206767
 11
447.3620941379
 21
898.8531206767
  0
LINE
  5
383
100
AcDbEntity
  8
0
100
AcDbLine
 62
7
  6
BYLAYER
 10
258.0861686995
 20
898.9531206767
 11
263.6860670268
 21
898.9531206767
  0
LINE
  5
384
100
AcDbEntity
  8
0
100
AcDbLine
 62
7
  6
BYLAYER
 10
300.0861686995
 20
898.9531206767
 11
305.6860670268
 21
898.9531206767
  0
LINE
  5
385
100
AcDbEntity
  8
0
100
AcDbLine
 62
7
  6
BYLAYER
 10
405.735299588
 20
898.9531206767
 11
411.3351979153
 21
898.9531206767
  0
LINE
  5
386
100
AcDbEntity
  8
0
100
AcDbLine
 62
7
  6
BYLAYER
 10
447.735299588
 20
898.9531206767
 11
453.3351979153
 21
898.9531206767
  0
LINE
  5
387
100
AcDbEntity
  8
0
100
AcDbLine
 62
7
  6
BYLAYER
 10
446.2852993413
 20
900.3531206767
 11
430.7852993413
 21
900.3531206767
  0
LINE
  5
388
100
AcDbEntity
  8
0
100
AcDbLine
 62
7
  6
BYLAYER
 10
428.2852993413
 20
900.3531206767
 11
412.7852993413
 21
900.3531206767
  0
LINE
  5
389
100
AcDbEntity
  8
0
100
AcDbLine
 62
7
  6
BYLAYER
 10
298.6361684528
 20
900.3531206767
 11
283.1361684528
 21
900.3531206767
  0
LINE
  5
38A
100
AcDbEntity
  8
0
100
AcDbLine
 62
7
  6
BYLAYER
 10
280.6361684528
 20
900.3531206767
 11
265.1361684528
 21
900.3531206767
  0
LINE
  5
38B
100
AcDbEntity
  8
0
100
AcDbLine
 62
7
  6
BYLAYER
 10
446.2852950585
 20
903.3531206767
 11
430.7853036242
 21
903.3531206767
  0
LINE
  5
38C
100
AcDbEntity
  8
0
100
AcDbLine
 62
7
  6
BYLAYER
 10
428.2852950585
 20
903.3531206767
 11
412.7853036242
 21
903.3531206767
  0
LINE
  5
38D
100
AcDbEntity
  8
0
100
AcDbLine
 62
7
  6
BYLAYER
 10
298.63616417
 20
903.3531206767
 11
283.1361727356
 21
903.3531206767
  0
LINE
  5
38E
100
AcDbEntity
  8
0
100
AcDbLine
 62
7
  6
BYLAYER
 10
280.63616417
 20
903.3531206767
 11
265.1361727356
 21
903.3531206767
  0
LINE
  5
38F
100
AcDbEntity
  8
0
100
AcDbLine
 62
7
  6
BYLAYER
 10
265.1361684528
 20
904.8531206767
 11
280.6361684528
 21
904.8531206767
  0
LINE
  5
390
100
AcDbEntity
  8
0
100
AcDbLine
 62
7
  6
BYLAYER
 10
283.1361684528
 20
904.8531206767
 11
298.6361684528
 21
904.8531206767
  0
LINE
  5
391
100
AcDbEntity
  8
0
100
AcDbLine
 62
7
  6
BYLAYER
 10
412.7852993413
 20
904.8531206767
 11
428.2852993413
 21
904.8531206767
  0
LINE
  5
392
100
AcDbEntity
  8
0
100
AcDbLine
 62
7
  6
BYLAYER
 10
430.7852993413
 20
904.8531206767
 11
446.2852993413
 21
904.8531206767
  0
LINE
  5
393
100
AcDbEntity
  8
0
100
AcDbLine
 62
7
  6
BYLAYER
 10
265.6361724556
 20
905.3531206767
 11
280.13616445
 21
905.3531206767
  0
LINE
  5
394
100
AcDbEntity
  8
0
100
AcDbLine
 62
7
  6
BYLAYER
 10
283.6361724556
 20
905.3531206767
 11
298.13616445
 21
905.3531206767
  0
LINE
  5
395
100
AcDbEntity
  8
0
100
AcDbLine
 62
7
  6
BYLAYER
 10
413.2853033441
 20
905.3531206767
 11
427.7852953386
 21
905.3531206767
  0
LINE
  5
396
100
AcDbEntity
  8
0
100
AcDbLine
 62
7
  6
BYLAYER
 10
431.2853033441
 20
905.3531206767
 11
445.7852953386
 21
905.3531206767
  0
LINE
  5
397
100
AcDbEntity
  8
0
100
AcDbLine
 62
7
  6
BYLAYER
 10
268.7619484528
 20
906.5531206767
 11
277.0119484528
 21
906.5531206767
  0
LINE
  5
398
100
AcDbEntity
  8
0
100
AcDbLine
 62
7
  6
BYLAYER
 10
286.7629284528
 20
906.5531206767
 11
295.0129284528
 21
906.5531206767
  0
LINE
  5
399
100
AcDbEntity
  8
0
100
AcDbLine
 62
7
  6
BYLAYER
 10
416.4110793413
 20
906.5531206767
 11
424.6610793413
 21
906.5531206767
  0
LINE
  5
39A
100
AcDbEntity
  8
0
100
AcDbLine
 62
7
  6
BYLAYER
 10
434.4120593413
 20
906.5531206767
 11
442.6620593413
 21
906.5531206767
  0
LINE
  5
39B
100
AcDbEntity
  8
0
100
AcDbLine
 62
7
  6
BYLAYER
 10
269.0620359289
 20
906.8531206767
 11
276.71196707
 21
906.8531206767
  0
LINE
  5
39C
100
AcDbEntity
  8
0
100
AcDbLine
 62
7
  6
BYLAYER
 10
287.0628680849
 20
906.8531206767
 11
294.7129503441
 21
906.8531206767
  0
LINE
  5
39D
100
AcDbEntity
  8
0
100
AcDbLine
 62
7
  6
BYLAYER
 10
416.7111668174
 20
906.8531206767
 11
424.3610979585
 21
906.8531206767
  0
LINE
  5
39E
100
AcDbEntity
  8
0
100
AcDbLine
 62
7
  6
BYLAYER
 10
434.7119989734
 20
906.8531206767
 11
442.3620812327
 21
906.8531206767
  0
LINE
  5
39F
100
AcDbEntity
  8
0
100
AcDbLine
 62
7
  6
BYLAYER
 10
266.8861684528
 20
908.8531197393
 11
278.8861684528
 21
908.8531197393
  0
LINE
  5
3A0
100
AcDbEntity
  8
0
100
AcDbLine
 62
7
  6
BYLAYER
 10
414.5352993413
 20
908.8531197393
 11
426.5352993413
 21
908.8531197393
  0
LINE
  5
3A1
100
AcDbEntity
  8
0
100
AcDbLine
 62
7
  6
BYLAYER
 10
267.3861737542
 20
909.3531206767
 11
278.3861690171
 21
909.3531206767
  0
LINE
  5
3A2
100
AcDbEntity
  8
0
100
AcDbLine
 62
7
  6
BYLAYER
 10
415.0353046427
 20
909.3531206767
 11
426.0352999056
 21
909.3531206767
  0
ARC
  5
3A3
100
AcDbEntity
  8
0
100
AcDbCircle
 62
7
  6
BYLAYER
 10
258.0864212239
 20
66.2531206767
 40
1.0
100
AcDbArc
 50
234.2503109332
 51
270.0
  0
ARC
  5
3A4
100
AcDbEntity
  8
0
100
AcDbCircle
 62
7
  6
BYLAYER
 10
263.6868962639
 20
66.2531206767
 40
1.0
100
AcDbArc
 50
270.0
 51
360.0
  0
ARC
  5
3A5
100
AcDbEntity
  8
0
100
AcDbCircle
 62
7
  6
BYLAYER
 10
259.0868962639
 20
66.2531206767
 40
1.0
100
AcDbArc
 50
180.0
 51
270.0
  0
ARC
  5
3A6
100
AcDbEntity
  8
0
100
AcDbCircle
 62
7
  6
BYLAYER
 10
265.8868962639
 20
66.3530105382
 40
1.0
100
AcDbArc
 50
180.0
 51
270.0
  0
ARC
  5
3A7
100
AcDbEntity
  8
0
100
AcDbCircle
 62
7
  6
BYLAYER
 10
257.8868962639
 20
66.3530105382
 40
1.0
100
AcDbArc
 50
180.0
 51
270.0
  0
ARC
  5
3A8
100
AcDbEntity
  8
0
100
AcDbCircle
 62
7
  6
BYLAYER
 10
276.8868962639
 20
66.3530105382
 40
1.0
100
AcDbArc
 50
270.0
 51
360.0
  0
ARC
  5
3A9
100
AcDbEntity
  8
0
100
AcDbCircle
 62
7
  6
BYLAYER
 10
257.3868962639
 20
68.3530105382
 40
0.5
100
AcDbArc
 50
180.0
 51
270.0
  0
ARC
  5
3AA
100
AcDbEntity
  8
0
100
AcDbCircle
 62
7
  6
BYLAYER
 10
264.3868962639
 20
67.3530105382
 40
0.5
100
AcDbArc
 50
0.0
 51
90.0
  0
ARC
  5
3AB
100
AcDbEntity
  8
4
100
AcDbCircle
 62
7
  6
BYLAYER
 10
274.9976755374
 20
120.2012957999
 40
3.25
100
AcDbArc
 50
90.0
 51
270.0
  0
ARC
  5
3AC
100
AcDbEntity
  8
4
100
AcDbCircle
 62
7
  6
BYLAYER
 10
274.9976755374
 20
150.2012957999
 40
3.25
100
AcDbArc
 50
90.0
 51
270.0
  0
ARC
  5
3AD
100
AcDbEntity
  8
0
100
AcDbCircle
 62
7
  6
BYLAYER
 10
305.6864212209
 20
66.2531206767
 40
1.0
100
AcDbArc
 50
270.0
 51
305.7190868307
  0
ARC
  5
3AE
100
AcDbEntity
  8
0
100
AcDbCircle
 62
7
  6
BYLAYER
 10
304.686896261
 20
66.2531206767
 40
1.0
100
AcDbArc
 50
270.0
 51
360.0
  0
ARC
  5
3AF
100
AcDbEntity
  8
0
100
AcDbCircle
 62
7
  6
BYLAYER
 10
300.086896261
 20
66.2531206767
 40
1.0
100
AcDbArc
 50
180.0
 51
270.0
  0
ARC
  5
3B0
100
AcDbEntity
  8
0
100
AcDbCircle
 62
7
  6
BYLAYER
 10
286.8868962639
 20
66.3530105382
 40
1.0
100
AcDbArc
 50
179.9999999984
 51
270.0
  0
ARC
  5
3B1
100
AcDbEntity
  8
0
100
AcDbCircle
 62
7
  6
BYLAYER
 10
297.8868962639
 20
66.3530105382
 40
1.0
100
AcDbArc
 50
270.0
 51
360.0
  0
ARC
  5
3B2
100
AcDbEntity
  8
0
100
AcDbCircle
 62
7
  6
BYLAYER
 10
305.8868962639
 20
66.3530105382
 40
1.0
100
AcDbArc
 50
270.0
 51
360.0
  0
ARC
  5
3B3
100
AcDbEntity
  8
0
100
AcDbCircle
 62
7
  6
BYLAYER
 10
299.3868962639
 20
67.3530105382
 40
0.5
100
AcDbArc
 50
90.0
 51
180.0
  0
ARC
  5
3B4
100
AcDbEntity
  8
0
100
AcDbCircle
 62
7
  6
BYLAYER
 10
306.3868962639
 20
68.3530105382
 40
0.5
100
AcDbArc
 50
270.0
 51
360.0
  0
CIRCLE
  5
3B5
100
AcDbEntity
  8
4
100
AcDbCircle
 62
7
  6
BYLAYER
 10
281.8868962624
 20
120.2012957999
 40
6.3525
  0
CIRCLE
  5
3B6
100
AcDbEntity
  8
4
100
AcDbCircle
 62
7
  6
BYLAYER
 10
281.8868962624
 20
150.2012957999
 40
6.3525
  0
ARC
  5
3B7
100
AcDbEntity
  8
4
100
AcDbCircle
 62
7
  6
BYLAYER
 10
291.6976755374
 20
115.2012957999
 40
5.0
100
AcDbArc
 50
270.0
 51
360.0
  0
ARC
  5
3B8
100
AcDbEntity
  8
4
100
AcDbCircle
 62
7
  6
BYLAYER
 10
291.6976755374
 20
155.2012957999
 40
5.0
100
AcDbArc
 50
0.0
 51
90.0
  0
ARC
  5
3B9
100
AcDbEntity
  8
4
100
AcDbCircle
 62
7
  6
BYLAYER
 10
288.4976755374
 20
120.2012957999
 40
3.25
100
AcDbArc
 50
270.0
 51
90.0
  0
ARC
  5
3BA
100
AcDbEntity
  8
4
100
AcDbCircle
 62
7
  6
BYLAYER
 10
288.4976755374
 20
150.2012957999
 40
3.25
100
AcDbArc
 50
270.0
 51
90.0
  0
CIRCLE
  5
3BB
100
AcDbEntity
  8
4
100
AcDbCircle
 62
7
  6
BYLAYER
 10
281.8868962624
 20
120.2012957999
 40
3.0
  0
CIRCLE
  5
3BC
100
AcDbEntity
  8
4
100
AcDbCircle
 62
7
  6
BYLAYER
 10
281.8868962624
 20
150.2012957999
 40
3.0
  0
ARC
  5
3BD
100
AcDbEntity
  8
4
100
AcDbCircle
 62
7
  6
BYLAYER
 10
274.9976755374
 20
816.5361982608
 40
3.25
100
AcDbArc
 50
90.0
 51
270.0
  0
ARC
  5
3BE
100
AcDbEntity
  8
4
100
AcDbCircle
 62
7
  6
BYLAYER
 10
274.9976755374
 20
846.5361982608
 40
3.25
100
AcDbArc
 50
90.0
 51
270.0
  0
ARC
  5
3BF
100
AcDbEntity
  8
0
100
AcDbCircle
 62
7
  6
BYLAYER
 10
258.0861684528
 20
897.9531206767
 40
1.0
100
AcDbArc
 50
90.0
 51
125.746880854
  0
ARC
  5
3C0
100
AcDbEntity
  8
0
100
AcDbCircle
 62
7
  6
BYLAYER
 10
259.0861684528
 20
897.9531206767
 40
1.0
100
AcDbArc
 50
90.0
 51
180.0
  0
ARC
  5
3C1
100
AcDbEntity
  8
0
100
AcDbCircle
 62
7
  6
BYLAYER
 10
263.6861684528
 20
897.9531206767
 40
1.0
100
AcDbArc
 50
0.0
 51
90.0
  0
ARC
  5
3C2
100
AcDbEntity
  8
0
100
AcDbCircle
 62
7
  6
BYLAYER
 10
276.8861684528
 20
897.8531206767
 40
1.0
100
AcDbArc
 50
0.0
 51
90.0
  0
ARC
  5
3C3
100
AcDbEntity
  8
0
100
AcDbCircle
 62
7
  6
BYLAYER
 10
257.8861684528
 20
897.8531206767
 40
1.0
100
AcDbArc
 50
90.0
 51
180.0
  0
ARC
  5
3C4
100
AcDbEntity
  8
0
100
AcDbCircle
 62
7
  6
BYLAYER
 10
265.8861684528
 20
897.8531206767
 40
1.0
100
AcDbArc
 50
90.0
 51
180.0
  0
ARC
  5
3C5
100
AcDbEntity
  8
0
100
AcDbCircle
 62
7
  6
BYLAYER
 10
264.3861684528
 20
896.8531206767
 40
0.5
100
AcDbArc
 50
270.0
 51
360.0
  0
ARC
  5
3C6
100
AcDbEntity
  8
0
100
AcDbCircle
 62
7
  6
BYLAYER
 10
257.3861684528
 20
895.8531206767
 40
0.5
100
AcDbArc
 50
90.0
 51
180.0
  0
ARC
  5
3C7
100
AcDbEntity
  8
0
100
AcDbCircle
 62
7
  6
BYLAYER
 10
280.8861507909
 20
895.3531208597
 40
0.4999999532
100
AcDbArc
 50
257.819789003
 51
77.8195901876
  0
ARC
  5
3C8
100
AcDbEntity
  8
0
100
AcDbCircle
 62
7
  6
BYLAYER
 10
264.8861861147
 20
895.3531208597
 40
0.4999999532
100
AcDbArc
 50
102.1804098124
 51
282.180210997
  0
ARC
  5
3C9
100
AcDbEntity
  8
0
100
AcDbCircle
 62
7
  6
BYLAYER
 10
269.0619484528
 20
906.5531206767
 40
0.3
100
AcDbArc
 50
90.0
 51
180.0
  0
ARC
  5
3CA
100
AcDbEntity
  8
0
100
AcDbCircle
 62
7
  6
BYLAYER
 10
276.7119484528
 20
906.5531206767
 40
0.3
100
AcDbArc
 50
0.0
 51
90.0
  0
CIRCLE
  5
3CB
100
AcDbEntity
  8
4
100
AcDbCircle
 62
7
  6
BYLAYER
 10
281.8868962624
 20
816.5361982608
 40
6.3525
  0
CIRCLE
  5
3CC
100
AcDbEntity
  8
4
100
AcDbCircle
 62
7
  6
BYLAYER
 10
281.8868962624
 20
846.5361982608
 40
6.3525
  0
ARC
  5
3CD
100
AcDbEntity
  8
4
100
AcDbCircle
 62
7
  6
BYLAYER
 10
291.6976755374
 20
811.5361982608
 40
5.0
100
AcDbArc
 50
270.0
 51
360.0
  0
ARC
  5
3CE
100
AcDbEntity
  8
4
100
AcDbCircle
 62
7
  6
BYLAYER
 10
291.6976755374
 20
851.5361982608
 40
5.0
100
AcDbArc
 50
0.0
 51
90.0
  0
ARC
  5
3CF
100
AcDbEntity
  8
4
100
AcDbCircle
 62
7
  6
BYLAYER
 10
288.4976755374
 20
816.5361982608
 40
3.25
100
AcDbArc
 50
270.0
 51
90.0
  0
ARC
  5
3D0
100
AcDbEntity
  8
4
100
AcDbCircle
 62
7
  6
BYLAYER
 10
288.4976755374
 20
846.5361982608
 40
3.25
100
AcDbArc
 50
270.0
 51
90.0
  0
CIRCLE
  5
3D1
100
AcDbEntity
  8
4
100
AcDbCircle
 62
7
  6
BYLAYER
 10
281.8868962624
 20
816.5361982608
 40
3.0
  0
CIRCLE
  5
3D2
100
AcDbEntity
  8
4
100
AcDbCircle
 62
7
  6
BYLAYER
 10
281.8868962624
 20
846.5361982608
 40
3.0
  0
ARC
  5
3D3
100
AcDbEntity
  8
0
100
AcDbCircle
 62
7
  6
BYLAYER
 10
286.8861684528
 20
897.8531206767
 40
1.0
100
AcDbArc
 50
90.0
 51
180.0000000008
  0
ARC
  5
3D4
100
AcDbEntity
  8
0
100
AcDbCircle
 62
7
  6
BYLAYER
 10
282.8861861153
 20
895.3531208595
 40
0.4999999534
100
AcDbArc
 50
102.1571786862
 51
282.1569797606
  0
ARC
  5
3D5
100
AcDbEntity
  8
0
100
AcDbCircle
 62
7
  6
BYLAYER
 10
287.0629284528
 20
906.5531206767
 40
0.3
100
AcDbArc
 50
90.0
 51
180.0
  0
ARC
  5
3D6
100
AcDbEntity
  8
0
100
AcDbCircle
 62
7
  6
BYLAYER
 10
305.6861684528
 20
897.9531206767
 40
1.0
100
AcDbArc
 50
54.2529864704
 51
90.0
  0
ARC
  5
3D7
100
AcDbEntity
  8
0
100
AcDbCircle
 62
7
  6
BYLAYER
 10
300.0861684528
 20
897.9531206767
 40
1.0
100
AcDbArc
 50
90.0
 51
180.0
  0
ARC
  5
3D8
100
AcDbEntity
  8
0
100
AcDbCircle
 62
7
  6
BYLAYER
 10
304.6861684528
 20
897.9531206767
 40
1.0
100
AcDbArc
 50
0.0
 51
90.0
  0
ARC
  5
3D9
100
AcDbEntity
  8
0
100
AcDbCircle
 62
7
  6
BYLAYER
 10
297.8861684528
 20
897.8531206767
 40
1.0
100
AcDbArc
 50
0.0
 51
90.0
  0
ARC
  5
3DA
100
AcDbEntity
  8
0
100
AcDbCircle
 62
7
  6
BYLAYER
 10
305.8861684528
 20
897.8531206767
 40
1.0
100
AcDbArc
 50
0.0
 51
90.0
  0
ARC
  5
3DB
100
AcDbEntity
  8
0
100
AcDbCircle
 62
7
  6
BYLAYER
 10
306.3861684528
 20
895.8531206767
 40
0.5
100
AcDbArc
 50
0.0
 51
90.0
  0
ARC
  5
3DC
100
AcDbEntity
  8
0
100
AcDbCircle
 62
7
  6
BYLAYER
 10
299.3861684528
 20
896.8531206767
 40
0.5
100
AcDbArc
 50
180.0
 51
270.0
  0
ARC
  5
3DD
100
AcDbEntity
  8
0
100
AcDbCircle
 62
7
  6
BYLAYER
 10
298.8861507904
 20
895.3531208595
 40
0.4999999534
100
AcDbArc
 50
257.8430202394
 51
77.8428213138
  0
ARC
  5
3DE
100
AcDbEntity
  8
0
100
AcDbCircle
 62
7
  6
BYLAYER
 10
294.7129284528
 20
906.5531206767
 40
0.3
100
AcDbArc
 50
0.0
 51
90.0
  0
ARC
  5
3DF
100
AcDbEntity
  8
0
100
AcDbCircle
 62
7
  6
BYLAYER
 10
405.7355521124
 20
66.2531206767
 40
1.0
100
AcDbArc
 50
234.2503109332
 51
270.0
  0
ARC
  5
3E0
100
AcDbEntity
  8
0
100
AcDbCircle
 62
7
  6
BYLAYER
 10
411.3360271524
 20
66.2531206767
 40
1.0
100
AcDbArc
 50
270.0
 51
360.0
  0
ARC
  5
3E1
100
AcDbEntity
  8
0
100
AcDbCircle
 62
7
  6
BYLAYER
 10
406.7360271524
 20
66.2531206767
 40
1.0
100
AcDbArc
 50
180.0
 51
270.0
  0
ARC
  5
3E2
100
AcDbEntity
  8
0
100
AcDbCircle
 62
7
  6
BYLAYER
 10
413.5360271524
 20
66.3530105382
 40
1.0
100
AcDbArc
 50
180.0
 51
270.0
  0
ARC
  5
3E3
100
AcDbEntity
  8
0
100
AcDbCircle
 62
7
  6
BYLAYER
 10
405.5360271524
 20
66.3530105382
 40
1.0
100
AcDbArc
 50
180.0
 51
270.0
  0
ARC
  5
3E4
100
AcDbEntity
  8
0
100
AcDbCircle
 62
7
  6
BYLAYER
 10
424.5360271524
 20
66.3530105382
 40
1.0
100
AcDbArc
 50
270.0
 51
360.0
  0
ARC
  5
3E5
100
AcDbEntity
  8
0
100
AcDbCircle
 62
7
  6
BYLAYER
 10
405.0360271524
 20
68.3530105382
 40
0.5
100
AcDbArc
 50
180.0
 51
270.0
  0
ARC
  5
3E6
100
AcDbEntity
  8
0
100
AcDbCircle
 62
7
  6
BYLAYER
 10
412.0360271524
 20
67.3530105382
 40
0.5
100
AcDbArc
 50
0.0
 51
90.0
  0
ARC
  5
3E7
100
AcDbEntity
  8
3
100
AcDbCircle
 62
7
  6
BYLAYER
 10
422.6468064259
 20
120.2012957999
 40
3.25
100
AcDbArc
 50
90.0
 51
270.0
  0
ARC
  5
3E8
100
AcDbEntity
  8
3
100
AcDbCircle
 62
7
  6
BYLAYER
 10
422.6468064259
 20
150.2012957999
 40
3.25
100
AcDbArc
 50
90.0
 51
270.0
  0
ARC
  5
3E9
100
AcDbEntity
  8
0
100
AcDbCircle
 62
7
  6
BYLAYER
 10
453.3355521094
 20
66.2531206767
 40
1.0
100
AcDbArc
 50
270.0
 51
305.7190868306
  0
ARC
  5
3EA
100
AcDbEntity
  8
0
100
AcDbCircle
 62
7
  6
BYLAYER
 10
452.3360271495
 20
66.2531206767
 40
1.0
100
AcDbArc
 50
270.0
 51
360.0
  0
ARC
  5
3EB
100
AcDbEntity
  8
0
100
AcDbCircle
 62
7
  6
BYLAYER
 10
447.7360271495
 20
66.2531206767
 40
1.0
100
AcDbArc
 50
180.0
 51
270.0
  0
ARC
  5
3EC
100
AcDbEntity
  8
0
100
AcDbCircle
 62
7
  6
BYLAYER
 10
434.5360271524
 20
66.3530105382
 40
1.0
100
AcDbArc
 50
179.9999999984
 51
270.0
  0
ARC
  5
3ED
100
AcDbEntity
  8
0
100
AcDbCircle
 62
7
  6
BYLAYER
 10
445.5360271524
 20
66.3530105382
 40
1.0
100
AcDbArc
 50
270.0
 51
360.0
  0
ARC
  5
3EE
100
AcDbEntity
  8
0
100
AcDbCircle
 62
7
  6
BYLAYER
 10
453.5360271524
 20
66.3530105382
 40
1.0
100
AcDbArc
 50
270.0
 51
360.0
  0
ARC
  5
3EF
100
AcDbEntity
  8
0
100
AcDbCircle
 62
7
  6
BYLAYER
 10
447.0360271524
 20
67.3530105382
 40
0.5
100
AcDbArc
 50
90.0
 51
180.0
  0
ARC
  5
3F0
100
AcDbEntity
  8
0
100
AcDbCircle
 62
7
  6
BYLAYER
 10
454.0360271524
 20
68.3530105382
 40
0.5
100
AcDbArc
 50
270.0
 51
360.0
  0
CIRCLE
  5
3F1
100
AcDbEntity
  8
3
100
AcDbCircle
 62
7
  6
BYLAYER
 10
429.5360271509
 20
120.2012957999
 40
6.3525
  0
CIRCLE
  5
3F2
100
AcDbEntity
  8
3
100
AcDbCircle
 62
7
  6
BYLAYER
 10
429.5360271509
 20
150.2012957999
 40
6.3525
  0
ARC
  5
3F3
100
AcDbEntity
  8
3
100
AcDbCircle
 62
7
  6
BYLAYER
 10
439.3468064259
 20
115.2012957999
 40
5.0
100
AcDbArc
 50
270.0
 51
360.0
  0
ARC
  5
3F4
100
AcDbEntity
  8
3
100
AcDbCircle
 62
7
  6
BYLAYER
 10
439.3468064259
 20
155.2012957999
 40
5.0
100
AcDbArc
 50
0.0
 51
90.0
  0
ARC
  5
3F5
100
AcDbEntity
  8
3
100
AcDbCircle
 62
7
  6
BYLAYER
 10
436.1468064259
 20
120.2012957999
 40
3.25
100
AcDbArc
 50
270.0
 51
90.0
  0
ARC
  5
3F6
100
AcDbEntity
  8
3
100
AcDbCircle
 62
7
  6
BYLAYER
 10
436.1468064259
 20
150.2012957999
 40
3.25
100
AcDbArc
 50
270.0
 51
90.0
  0
CIRCLE
  5
3F7
100
AcDbEntity
  8
3
100
AcDbCircle
 62
7
  6
BYLAYER
 10
429.5360271509
 20
120.2012957999
 40
3.0
  0
CIRCLE
  5
3F8
100
AcDbEntity
  8
3
100
AcDbCircle
 62
7
  6
BYLAYER
 10
429.5360271509
 20
150.2012957999
 40
3.0
  0
ARC
  5
3F9
100
AcDbEntity
  8
3
100
AcDbCircle
 62
7
  6
BYLAYER
 10
422.6468064259
 20
816.5361982608
 40
3.25
100
AcDbArc
 50
90.0
 51
270.0
  0
ARC
  5
3FA
100
AcDbEntity
  8
3
100
AcDbCircle
 62
7
  6
BYLAYER
 10
422.6468064259
 20
846.5361982608
 40
3.25
100
AcDbArc
 50
90.0
 51
270.0
  0
ARC
  5
3FB
100
AcDbEntity
  8
0
100
AcDbCircle
 62
7
  6
BYLAYER
 10
405.7352993413
 20
897.9531206767
 40
1.0
100
AcDbArc
 50
90.0
 51
125.746880854
  0
ARC
  5
3FC
100
AcDbEntity
  8
0
100
AcDbCircle
 62
7
  6
BYLAYER
 10
406.7352993413
 20
897.9531206767
 40
1.0
100
AcDbArc
 50
90.0
 51
180.0
  0
ARC
  5
3FD
100
AcDbEntity
  8
0
100
AcDbCircle
 62
7
  6
BYLAYER
 10
411.3352993413
 20
897.9531206767
 40
1.0
100
AcDbArc
 50
0.0
 51
90.0
  0
ARC
  5
3FE
100
AcDbEntity
  8
0
100
AcDbCircle
 62
7
  6
BYLAYER
 10
424.5352993413
 20
897.8531206767
 40
1.0
100
AcDbArc
 50
0.0
 51
90.0
  0
ARC
  5
3FF
100
AcDbEntity
  8
0
100
AcDbCircle
 62
7
  6
BYLAYER
 10
405.5352993413
 20
897.8531206767
 40
1.0
100
AcDbArc
 50
90.0
 51
180.0
  0
ARC
  5
400
100
AcDbEntity
  8
0
100
AcDbCircle
 62
7
  6
BYLAYER
 10
413.5352993413
 20
897.8531206767
 40
1.0
100
AcDbArc
 50
90.0
 51
180.0
  0
ARC
  5
401
100
AcDbEntity
  8
0
100
AcDbCircle
 62
7
  6
BYLAYER
 10
412.0352993413
 20
896.8531206767
 40
0.5
100
AcDbArc
 50
270.0
 51
360.0
  0
ARC
  5
402
100
AcDbEntity
  8
0
100
AcDbCircle
 62
7
  6
BYLAYER
 10
405.0352993413
 20
895.8531206767
 40
0.5
100
AcDbArc
 50
90.0
 51
180.0
  0
ARC
  5
403
100
AcDbEntity
  8
0
100
AcDbCircle
 62
7
  6
BYLAYER
 10
428.5352816795
 20
895.3531208597
 40
0.4999999532
100
AcDbArc
 50
257.819789003
 51
77.8195901876
  0
ARC
  5
404
100
AcDbEntity
  8
0
100
AcDbCircle
 62
7
  6
BYLAYER
 10
412.5353170032
 20
895.3531208597
 40
0.4999999532
100
AcDbArc
 50
102.1804098124
 51
282.180210997
  0
ARC
  5
405
100
AcDbEntity
  8
0
100
AcDbCircle
 62
7
  6
BYLAYER
 10
416.7110793413
 20
906.5531206767
 40
0.3
100
AcDbArc
 50
90.0
 51
180.0
  0
ARC
  5
406
100
AcDbEntity
  8
0
100
AcDbCircle
 62
7
  6
BYLAYER
 10
424.3610793414
 20
906.5531206767
 40
0.3
100
AcDbArc
 50
0.0
 51
90.0
  0
CIRCLE
  5
407
100
AcDbEntity
  8
3
100
AcDbCircle
 62
7
  6
BYLAYER
 10
429.5360271509
 20
846.5361982608
 40
6.3525
  0
CIRCLE
  5
408
100
AcDbEntity
  8
3
100
AcDbCircle
 62
7
  6
BYLAYER
 10
429.5360271509
 20
816.5361982608
 40
6.3525
  0
ARC
  5
409
100
AcDbEntity
  8
3
100
AcDbCircle
 62
7
  6
BYLAYER
 10
439.3468064259
 20
811.5361982608
 40
5.0
100
AcDbArc
 50
270.0
 51
360.0
  0
ARC
  5
40A
100
AcDbEntity
  8
3
100
AcDbCircle
 62
7
  6
BYLAYER
 10
439.3468064259
 20
851.5361982608
 40
5.0
100
AcDbArc
 50
0.0
 51
90.0
  0
ARC
  5
40B
100
AcDbEntity
  8
3
100
AcDbCircle
 62
7
  6
BYLAYER
 10
436.1468064259
 20
816.5361982608
 40
3.25
100
AcDbArc
 50
270.0
 51
90.0
  0
ARC
  5
40C
100
AcDbEntity
  8
3
100
AcDbCircle
 62
7
  6
BYLAYER
 10
436.1468064259
 20
846.5361982608
 40
3.25
100
AcDbArc
 50
270.0
 51
90.0
  0
CIRCLE
  5
40D
100
AcDbEntity
  8
3
100
AcDbCircle
 62
7
  6
BYLAYER
 10
429.5360271509
 20
816.5361982608
 40
3.0
  0
CIRCLE
  5
40E
100
AcDbEntity
  8
3
100
AcDbCircle
 62
7
  6
BYLAYER
 10
429.5360271509
 20
846.5361982608
 40
3.0
  0
ARC
  5
40F
100
AcDbEntity
  8
0
100
AcDbCircle
 62
7
  6
BYLAYER
 10
434.5352993413
 20
897.8531206767
 40
1.0
100
AcDbArc
 50
90.0
 51
180.0000000008
  0
ARC
  5
410
100
AcDbEntity
  8
0
100
AcDbCircle
 62
7
  6
BYLAYER
 10
430.5353170038
 20
895.3531208595
 40
0.4999999534
100
AcDbArc
 50
102.1571786862
 51
282.1569797606
  0
ARC
  5
411
100
AcDbEntity
  8
0
100
AcDbCircle
 62
7
  6
BYLAYER
 10
434.7120593413
 20
906.5531206767
 40
0.3
100
AcDbArc
 50
90.0
 51
180.0
  0
ARC
  5
412
100
AcDbEntity
  8
0
100
AcDbCircle
 62
7
  6
BYLAYER
 10
453.3352993413
 20
897.9531206767
 40
1.0
100
AcDbArc
 50
54.2529864704
 51
90.0
  0
ARC
  5
413
100
AcDbEntity
  8
0
100
AcDbCircle
 62
7
  6
BYLAYER
 10
447.7352993413
 20
897.9531206767
 40
1.0
100
AcDbArc
 50
90.0
 51
180.0
  0
ARC
  5
414
100
AcDbEntity
  8
0
100
AcDbCircle
 62
7
  6
BYLAYER
 10
452.3352993413
 20
897.9531206767
 40
1.0
100
AcDbArc
 50
0.0
 51
90.0
  0
ARC
  5
415
100
AcDbEntity
  8
0
100
AcDbCircle
 62
7
  6
BYLAYER
 10
445.5352993413
 20
897.8531206767
 40
1.0
100
AcDbArc
 50
0.0
 51
90.0
  0
ARC
  5
416
100
AcDbEntity
  8
0
100
AcDbCircle
 62
7
  6
BYLAYER
 10
453.5352993413
 20
897.8531206767
 40
1.0
100
AcDbArc
 50
0.0
 51
90.0
  0
ARC
  5
417
100
AcDbEntity
  8
0
100
AcDbCircle
 62
7
  6
BYLAYER
 10
454.0352993413
 20
895.8531206767
 40
0.5
100
AcDbArc
 50
0.0
 51
90.0
  0
ARC
  5
418
100
AcDbEntity
  8
0
100
AcDbCircle
 62
7
  6
BYLAYER
 10
447.0352993413
 20
896.8531206767
 40
0.5
100
AcDbArc
 50
180.0
 51
270.0
  0
ARC
  5
419
100
AcDbEntity
  8
0
100
AcDbCircle
 62
7
  6
BYLAYER
 10
446.5352816789
 20
895.3531208595
 40
0.4999999534
100
AcDbArc
 50
257.8430202394
 51
77.8428213138
  0
ARC
  5
41A
100
AcDbEntity
  8
0
100
AcDbCircle
 62
7
  6
BYLAYER
 10
442.3620593414
 20
906.5531206767
 40
0.3
100
AcDbArc
 50
0.0
 51
90.0
  0
SPLINE
  5
41B
100
AcDbEntity
  8
0
100
AcDbSpline
 62
7
  6
BYLAYER
 70
0
 71
3
 72
12
 73
8
 74
0
 42
0.0000001
 43
0.0000001
 44
0.0000000001
 40
0.0
 40
0.0
 40
0.0
 40
0.0
 40
0.1596770904
 40
0.2582781683
 40
0.3740954473
 40
0.6599411656
 40
1.0
 40
1.0
 40
1.0
 40
1.0
 10
434.5353013756
 20
898.8531206771
 30
0.0
 10
434.4711572945
 20
898.8531075458
 30
0.0
 10
434.3672806139
 20
898.8079975849
 30
0.0
 10
434.2634124762
 20
898.6991523504
 30
0.0
 10
434.1545788021
 20
898.5285918755
 30
0.0
 10
434.0605397151
 20
898.2417438714
 30
0.0
 10
434.0353005271
 20
897.9897261338
 30
0.0
 10
434.0352998822
 20
897.8531206768
 30
0.0
  0
SPLINE
  5
41C
100
AcDbEntity
  8
0
100
AcDbSpline
 62
7
  6
BYLAYER
 70
0
 71
3
 72
14
 73
10
 74
0
 42
0.0000001
 43
0.0000001
 44
0.0000000001
 40
0.0
 40
0.0
 40
0.0
 40
0.0
 40
0.1247554493
 40
0.2497373879
 40
0.3748457258
 40
0.5000187559
 40
0.7495153736
 40
0.8747430248
 40
1.0
 40
1.0
 40
1.0
 40
1.0
 10
413.5352993413
 20
896.8531206767
 30
0.0
 10
413.5352991211
 20
896.770112223
 30
0.0
 10
413.5031668696
 20
896.6028871913
 30
0.0
 10
413.3806626375
 20
896.3822999628
 30
0.0
 10
413.2095490701
 20
896.197679607
 30
0.0
 10
412.9374788659
 20
896.0033612968
 30
0.0
 10
412.6167421911
 20
895.8894728857
 30
0.0
 10
412.2854881154
 20
895.8531031406
 30
0.0
 10
412.118641495
 20
895.853120656
 30
0.0
 10
412.0352993413
 20
895.8531206767
 30
0.0
  0
SPLINE
  5
41D
100
AcDbEntity
  8
0
100
AcDbSpline
 62
7
  6
BYLAYER
 70
0
 71
3
 72
16
 73
12
 74
0
 42
0.0000001
 43
0.0000001
 44
0.0000000001
 40
0.0
 40
0.0
 40
0.0
 40
0.0
 40
0.2636273647
 40
0.4178764038
 40
0.5741876959
 40
0.7240052304
 40
0.8563237188
 40
0.9120390276
 40
0.957262702
 40
0.9883504454
 40
1.0
 40
1.0
 40
1.0
 40
1.0
 10
405.535299353
 20
896.8531206767
 30
0.0
 10
405.5352991981
 20
896.789826662
 30
0.0
 10
405.4657530178
 20
896.6999010809
 30
0.0
 10
405.3693855804
 20
896.6056471742
 30
0.0
 10
405.2846004098
 20
896.5335821025
 30
0.0
 10
405.2026704332
 20
896.4677657498
 30
0.0
 10
405.1375405029
 20
896.4192792111
 30
0.0
 10
405.0918089448
 20
896.3870260728
 30
0.0
 10
405.0645095234
 20
896.3706148459
 30
0.0
 10
405.0477554018
 20
896.3581446955
 30
0.0
 10
405.0370362725
 20
896.3553129187
 30
0.0
 10
405.0352993496
 20
896.3531206796
 30
0.0
  0
SPLINE
  5
41E
100
AcDbEntity
  8
0
100
AcDbSpline
 62
7
  6
BYLAYER
 70
0
 71
3
 72
16
 73
12
 74
0
 42
0.0000001
 43
0.0000001
 44
0.0000000001
 40
0.0
 40
0.0
 40
0.0
 40
0.0
 40
0.0116495546
 40
0.042737298
 40
0.0879609725
 40
0.1436762813
 40
0.2759947698
 40
0.4258123044
 40
0.5821235967
 40
0.7363726357
 40
1.0
 40
1.0
 40
1.0
 40
1.0
 10
454.0352993339
 20
896.3531206796
 30
0.0
 10
454.0335632847
 20
896.3553136105
 30
0.0
 10
454.0228421685
 20
896.3581438139
 30
0.0
 10
454.0060897626
 20
896.370615323
 30
0.0
 10
453.9787895107
 20
896.3870258921
 30
0.0
 10
453.933058352
 20
896.4192793467
 30
0.0
 10
453.8679281812
 20
896.4677656951
 30
0.0
 10
453.7859982946
 20
896.533582119
 30
0.0
 10
453.7012130982
 20
896.6056471703
 30
0.0
 10
453.6048456692
 20
896.6999010834
 30
0.0
 10
453.5352994863
 20
896.7898266622
 30
0.0
 10
453.5352993314
 20
896.8531206767
 30
0.0
  0
SPLINE
  5
41F
100
AcDbEntity
  8
0
100
AcDbSpline
 62
7
  6
BYLAYER
 70
0
 71
3
 72
12
 73
8
 74
0
 42
0.0000001
 43
0.0000001
 44
0.0000000001
 40
0.0
 40
0.0
 40
0.0
 40
0.0
 40
0.340047804
 40
0.6258992885
 40
0.7417192497
 40
0.8403209927
 40
1.0
 40
1.0
 40
1.0
 40
1.0
 10
425.0352979182
 20
897.8531206767
 30
0.0
 10
425.0352979178
 20
897.9897216949
 30
0.0
 10
425.0100586743
 20
898.2417371455
 30
0.0
 10
424.9160223517
 20
898.5285849441
 30
0.0
 10
424.807187946
 20
898.6991492245
 30
0.0
 10
424.7033188409
 20
898.8079968637
 30
0.0
 10
424.5994412477
 20
898.8531061834
 30
0.0
 10
424.5352964005
 20
898.8531206772
 30
0.0
  0
SPLINE
  5
420
100
AcDbEntity
  8
0
100
AcDbSpline
 62
7
  6
BYLAYER
 70
0
 71
3
 72
14
 73
10
 74
0
 42
0.0000001
 43
0.0000001
 44
0.0000000001
 40
0.0
 40
0.0
 40
0.0
 40
0.0
 40
0.124755068
 40
0.2497371838
 40
0.3748455004
 40
0.5000186091
 40
0.7495154875
 40
0.8747430736
 40
1.0
 40
1.0
 40
1.0
 40
1.0
 10
445.5352993413
 20
896.8531206767
 30
0.0
 10
445.5352995617
 20
896.7701124775
 30
0.0
 10
445.5674316881
 20
896.6028875906
 30
0.0
 10
445.689935705
 20
896.3823003985
 30
0.0
 10
445.8610493086
 20
896.1976798635
 30
0.0
 10
446.1331196295
 20
896.0033613659
 30
0.0
 10
446.4538564896
 20
895.889472783
 30
0.0
 10
446.7851106848
 20
895.8531033416
 30
0.0
 10
446.9519572209
 20
895.853120656
 30
0.0
 10
447.0352993413
 20
895.8531206767
 30
0.0
  0
SPLINE
  5
421
100
AcDbEntity
  8
0
100
AcDbSpline
 62
7
  6
BYLAYER
 70
0
 71
3
 72
12
 73
8
 74
0
 42
0.0000001
 43
0.0000001
 44
0.0000000001
 40
0.0
 40
0.0
 40
0.0
 40
0.0
 40
0.1596770904
 40
0.2582781683
 40
0.3740954473
 40
0.6599411656
 40
1.0
 40
1.0
 40
1.0
 40
1.0
 10
286.8861704871
 20
898.8531206771
 30
0.0
 10
286.822026406
 20
898.8531075458
 30
0.0
 10
286.7181497254
 20
898.8079975849
 30
0.0
 10
286.6142815877
 20
898.6991523504
 30
0.0
 10
286.5054479135
 20
898.5285918755
 30
0.0
 10
286.4114088266
 20
898.2417438714
 30
0.0
 10
286.3861696386
 20
897.9897261338
 30
0.0
 10
286.3861689937
 20
897.8531206768
 30
0.0
  0
SPLINE
  5
422
100
AcDbEntity
  8
0
100
AcDbSpline
 62
7
  6
BYLAYER
 70
0
 71
3
 72
14
 73
10
 74
0
 42
0.0000001
 43
0.0000001
 44
0.0000000001
 40
0.0
 40
0.0
 40
0.0
 40
0.0
 40
0.1247554493
 40
0.2497373879
 40
0.3748457258
 40
0.5000187559
 40
0.7495153736
 40
0.8747430248
 40
1.0
 40
1.0
 40
1.0
 40
1.0
 10
265.8861684528
 20
896.8531206767
 30
0.0
 10
265.8861682325
 20
896.770112223
 30
0.0
 10
265.8540359811
 20
896.6028871913
 30
0.0
 10
265.731531749
 20
896.3822999628
 30
0.0
 10
265.5604181815
 20
896.197679607
 30
0.0
 10
265.2883479774
 20
896.0033612968
 30
0.0
 10
264.9676113026
 20
895.8894728857
 30
0.0
 10
264.6363572269
 20
895.8531031406
 30
0.0
 10
264.4695106065
 20
895.853120656
 30
0.0
 10
264.3861684528
 20
895.8531206767
 30
0.0
  0
SPLINE
  5
423
100
AcDbEntity
  8
0
100
AcDbSpline
 62
7
  6
BYLAYER
 70
0
 71
3
 72
16
 73
12
 74
0
 42
0.0000001
 43
0.0000001
 44
0.0000000001
 40
0.0
 40
0.0
 40
0.0
 40
0.0
 40
0.2636273647
 40
0.4178764038
 40
0.5741876959
 40
0.7240052304
 40
0.8563237188
 40
0.9120390276
 40
0.957262702
 40
0.9883504454
 40
1.0
 40
1.0
 40
1.0
 40
1.0
 10
257.8861684645
 20
896.8531206767
 30
0.0
 10
257.8861683096
 20
896.789826662
 30
0.0
 10
257.8166221293
 20
896.6999010809
 30
0.0
 10
257.7202546918
 20
896.6056471743
 30
0.0
 10
257.6354695217
 20
896.5335821021
 30
0.0
 10
257.5535395432
 20
896.4677657509
 30
0.0
 10
257.4884096179
 20
896.4192792083
 30
0.0
 10
257.4426780515
 20
896.3870260765
 30
0.0
 10
257.4153786473
 20
896.3706148361
 30
0.0
 10
257.3986244904
 20
896.3581447136
 30
0.0
 10
257.3879054019
 20
896.3553129044
 30
0.0
 10
257.3861684611
 20
896.3531206796
 30
0.0
  0
SPLINE
  5
424
100
AcDbEntity
  8
0
100
AcDbSpline
 62
7
  6
BYLAYER
 70
0
 71
3
 72
16
 73
12
 74
0
 42
0.0000001
 43
0.0000001
 44
0.0000000001
 40
0.0
 40
0.0
 40
0.0
 40
0.0
 40
0.0116495546
 40
0.042737298
 40
0.0879609725
 40
0.1436762813
 40
0.2759947698
 40
0.4258123044
 40
0.5821235967
 40
0.7363726357
 40
1.0
 40
1.0
 40
1.0
 40
1.0
 10
306.3861684454
 20
896.3531206796
 30
0.0
 10
306.3844323962
 20
896.3553136105
 30
0.0
 10
306.37371128
 20
896.3581438139
 30
0.0
 10
306.356958874
 20
896.370615323
 30
0.0
 10
306.3296586222
 20
896.3870258921
 30
0.0
 10
306.2839274634
 20
896.4192793467
 30
0.0
 10
306.2187972927
 20
896.4677656951
 30
0.0
 10
306.1368674061
 20
896.533582119
 30
0.0
 10
306.0520822096
 20
896.6056471703
 30
0.0
 10
305.9557147807
 20
896.6999010834
 30
0.0
 10
305.8861685978
 20
896.7898266622
 30
0.0
 10
305.8861684429
 20
896.8531206767
 30
0.0
  0
SPLINE
  5
425
100
AcDbEntity
  8
0
100
AcDbSpline
 62
7
  6
BYLAYER
 70
0
 71
3
 72
12
 73
8
 74
0
 42
0.0000001
 43
0.0000001
 44
0.0000000001
 40
0.0
 40
0.0
 40
0.0
 40
0.0
 40
0.3400478061
 40
0.6258992925
 40
0.741719214
 40
0.8403209917
 40
1.0
 40
1.0
 40
1.0
 40
1.0
 10
277.3861670297
 20
897.8531206767
 30
0.0
 10
277.3861670292
 20
897.9897216949
 30
0.0
 10
277.3609277686
 20
898.2417371328
 30
0.0
 10
277.2668915058
 20
898.5285849561
 30
0.0
 10
277.1580570199
 20
898.6991491732
 30
0.0
 10
277.0541879855
 20
898.8079968763
 30
0.0
 10
276.9503103592
 20
898.8531061834
 30
0.0
 10
276.886165512
 20
898.8531206772
 30
0.0
  0
SPLINE
  5
426
100
AcDbEntity
  8
0
100
AcDbSpline
 62
7
  6
BYLAYER
 70
0
 71
3
 72
14
 73
10
 74
0
 42
0.0000001
 43
0.0000001
 44
0.0000000001
 40
0.0
 40
0.0
 40
0.0
 40
0.0
 40
0.124755068
 40
0.2497371838
 40
0.3748455004
 40
0.5000186091
 40
0.7495154875
 40
0.8747430736
 40
1.0
 40
1.0
 40
1.0
 40
1.0
 10
297.8861684528
 20
896.8531206767
 30
0.0
 10
297.8861686732
 20
896.7701124775
 30
0.0
 10
297.9183007996
 20
896.6028875906
 30
0.0
 10
298.0408048165
 20
896.3823003985
 30
0.0
 10
298.2119184201
 20
896.1976798635
 30
0.0
 10
298.483988741
 20
896.0033613659
 30
0.0
 10
298.8047256011
 20
895.889472783
 30
0.0
 10
299.1359797962
 20
895.8531033416
 30
0.0
 10
299.3028263323
 20
895.853120656
 30
0.0
 10
299.3861684528
 20
895.8531206767
 30
0.0
  0
SPLINE
  5
427
100
AcDbEntity
  8
0
100
AcDbSpline
 62
7
  6
BYLAYER
 70
0
 71
3
 72
12
 73
8
 74
0
 42
0.0000001
 43
0.0000001
 44
0.0000000001
 40
0.0
 40
0.0
 40
0.0
 40
0.0
 40
0.3400478028
 40
0.6258992863
 40
0.7417192699
 40
0.8403209933
 40
1.0
 40
1.0
 40
1.0
 40
1.0
 10
434.0360285756
 20
66.3530105382
 30
0.0
 10
434.036028576
 20
66.2164095201
 30
0.0
 10
434.0612678096
 20
65.9643940622
 30
0.0
 10
434.1553041663
 20
65.6775462778
 30
0.0
 10
434.2641385263
 20
65.5069819612
 30
0.0
 10
434.3680076716
 20
65.3981343584
 30
0.0
 10
434.471885246
 20
65.3530250315
 30
0.0
 10
434.5360300932
 20
65.3530105378
 30
0.0
  0
SPLINE
  5
428
100
AcDbEntity
  8
0
100
AcDbSpline
 62
7
  6
BYLAYER
 70
0
 71
3
 72
12
 73
8
 74
0
 42
0.0000001
 43
0.0000001
 44
0.0000000001
 40
0.0
 40
0.0
 40
0.0
 40
0.0
 40
0.1596770812
 40
0.2582781531
 40
0.3740954272
 40
0.6599411459
 40
1.0
 40
1.0
 40
1.0
 40
1.0
 10
424.5360252105
 20
65.3530105379
 30
0.0
 10
424.6001692889
 20
65.353023663
 30
0.0
 10
424.70404597
 20
65.3981336126
 30
0.0
 10
424.8079141096
 20
65.5069788378
 30
0.0
 10
424.9167477893
 20
65.6775393081
 30
0.0
 10
425.0107868843
 20
65.9643873215
 30
0.0
 10
425.0360260754
 20
66.2164050711
 30
0.0
 10
425.0360267204
 20
66.3530105382
 30
0.0
  0
SPLINE
  5
429
100
AcDbEntity
  8
0
100
AcDbSpline
 62
7
  6
BYLAYER
 70
0
 71
3
 72
16
 73
12
 74
0
 42
0.0000001
 43
0.0000001
 44
0.0000000001
 40
0.0
 40
0.0
 40
0.0
 40
0.0
 40
0.0116495546
 40
0.042737298
 40
0.0879609725
 40
0.1436762813
 40
0.2759947698
 40
0.4258123044
 40
0.5821235967
 40
0.7363726357
 40
1.0
 40
1.0
 40
1.0
 40
1.0
 10
405.0360271598
 20
67.8530105354
 30
0.0
 10
405.0377632085
 20
67.850817604
 30
0.0
 10
405.0484843259
 20
67.8479874016
 30
0.0
 10
405.0652367308
 20
67.8355158917
 30
0.0
 10
405.0925369831
 20
67.8191053229
 30
0.0
 10
405.1382681417
 20
67.7868518682
 30
0.0
 10
405.2033983125
 20
67.7383655199
 30
0.0
 10
405.2853281991
 20
67.672549096
 30
0.0
 10
405.3701133956
 20
67.6004840446
 30
0.0
 10
405.4664808245
 20
67.5062301315
 30
0.0
 10
405.5360270074
 20
67.4163045528
 30
0.0
 10
405.5360271623
 20
67.3530105382
 30
0.0
  0
SPLINE
  5
42A
100
AcDbEntity
  8
0
100
AcDbSpline
 62
7
  6
BYLAYER
 70
0
 71
3
 72
14
 73
10
 74
0
 42
0.0000001
 43
0.0000001
 44
0.0000000001
 40
0.0
 40
0.0
 40
0.0
 40
0.0
 40
0.124755068
 40
0.2497371838
 40
0.3748455004
 40
0.5000186091
 40
0.7495154875
 40
0.8747430736
 40
1.0
 40
1.0
 40
1.0
 40
1.0
 10
413.5360271524
 20
67.3530105382
 30
0.0
 10
413.536026932
 20
67.4360187375
 30
0.0
 10
413.5038948056
 20
67.6032436243
 30
0.0
 10
413.3813907887
 20
67.8238308164
 30
0.0
 10
413.2102771851
 20
68.0084513515
 30
0.0
 10
412.9382068642
 20
68.202769849
 30
0.0
 10
412.6174700041
 20
68.3166584319
 30
0.0
 10
412.286215809
 20
68.3530278733
 30
0.0
 10
412.1193692729
 20
68.3530105589
 30
0.0
 10
412.0360271524
 20
68.3530105382
 30
0.0
  0
SPLINE
  5
42B
100
AcDbEntity
  8
0
100
AcDbSpline
 62
7
  6
BYLAYER
 70
0
 71
3
 72
14
 73
10
 74
0
 42
0.0000001
 43
0.0000001
 44
0.0000000001
 40
0.0
 40
0.0
 40
0.0
 40
0.0
 40
0.1247554493
 40
0.2497373879
 40
0.3748457258
 40
0.5000187559
 40
0.7495153736
 40
0.8747430248
 40
1.0
 40
1.0
 40
1.0
 40
1.0
 10
445.5360271524
 20
67.3530105382
 30
0.0
 10
445.5360273727
 20
67.436018992
 30
0.0
 10
445.5681596242
 20
67.6032440237
 30
0.0
 10
445.6906638562
 20
67.8238312521
 30
0.0
 10
445.8617774237
 20
68.008451608
 30
0.0
 10
446.1338476278
 20
68.2027699182
 30
0.0
 10
446.4545843026
 20
68.3166583292
 30
0.0
 10
446.7858383783
 20
68.3530280743
 30
0.0
 10
446.9526849987
 20
68.3530105589
 30
0.0
 10
447.0360271524
 20
68.3530105382
 30
0.0
  0
SPLINE
  5
42C
100
AcDbEntity
  8
0
100
AcDbSpline
 62
7
  6
BYLAYER
 70
0
 71
3
 72
16
 73
12
 74
0
 42
0.0000001
 43
0.0000001
 44
0.0000000001
 40
0.0
 40
0.0
 40
0.0
 40
0.0
 40
0.2636273647
 40
0.4178764038
 40
0.5741876959
 40
0.7240052304
 40
0.8563237188
 40
0.9120390276
 40
0.957262702
 40
0.9883504454
 40
1.0
 40
1.0
 40
1.0
 40
1.0
 10
453.5360271407
 20
67.3530105382
 30
0.0
 10
453.5360272956
 20
67.416304553
 30
0.0
 10
453.605573476
 20
67.506230134
 30
0.0
 10
453.7019409133
 20
67.6004840407
 30
0.0
 10
453.786726084
 20
67.6725491125
 30
0.0
 10
453.8686560606
 20
67.7383654651
 30
0.0
 10
453.9337859908
 20
67.786852004
 30
0.0
 10
453.9795175491
 20
67.8191051421
 30
0.0
 10
454.0068169699
 20
67.8355163693
 30
0.0
 10
454.0235710925
 20
67.8479865189
 30
0.0
 10
454.0342902208
 20
67.8508182967
 30
0.0
 10
454.0360271441
 20
67.8530105354
 30
0.0
  0
SPLINE
  5
42D
100
AcDbEntity
  8
0
100
AcDbSpline
 62
7
  6
BYLAYER
 70
0
 71
3
 72
12
 73
8
 74
0
 42
0.0000001
 43
0.0000001
 44
0.0000000001
 40
0.0
 40
0.0
 40
0.0
 40
0.0
 40
0.3400478069
 40
0.6258992939
 40
0.7417192013
 40
0.8403209913
 40
1.0
 40
1.0
 40
1.0
 40
1.0
 10
286.386897687
 20
66.3530105382
 30
0.0
 10
286.3868976874
 20
66.2164095201
 30
0.0
 10
286.4121369542
 20
65.9643940867
 30
0.0
 10
286.5061731957
 20
65.6775462545
 30
0.0
 10
286.6150077102
 20
65.50698206
 30
0.0
 10
286.7188767195
 20
65.3981343342
 30
0.0
 10
286.8227543575
 20
65.3530250315
 30
0.0
 10
286.8868992047
 20
65.3530105378
 30
0.0
  0
SPLINE
  5
42E
100
AcDbEntity
  8
0
100
AcDbSpline
 62
7
  6
BYLAYER
 70
0
 71
3
 72
12
 73
8
 74
0
 42
0.0000001
 43
0.0000001
 44
0.0000000001
 40
0.0
 40
0.0
 40
0.0
 40
0.0
 40
0.1596770812
 40
0.2582781531
 40
0.3740954272
 40
0.6599411459
 40
1.0
 40
1.0
 40
1.0
 40
1.0
 10
276.886894322
 20
65.3530105379
 30
0.0
 10
276.9510384004
 20
65.353023663
 30
0.0
 10
277.0549150815
 20
65.3981336126
 30
0.0
 10
277.158783221
 20
65.5069788378
 30
0.0
 10
277.2676169008
 20
65.6775393081
 30
0.0
 10
277.3616559958
 20
65.9643873215
 30
0.0
 10
277.3868951869
 20
66.2164050711
 30
0.0
 10
277.3868958319
 20
66.3530105382
 30
0.0
  0
SPLINE
  5
42F
100
AcDbEntity
  8
0
100
AcDbSpline
 62
7
  6
BYLAYER
 70
0
 71
3
 72
16
 73
12
 74
0
 42
0.0000001
 43
0.0000001
 44
0.0000000001
 40
0.0
 40
0.0
 40
0.0
 40
0.0
 40
0.0116495546
 40
0.042737298
 40
0.0879609725
 40
0.1436762813
 40
0.2759947698
 40
0.4258123044
 40
0.5821235967
 40
0.7363726357
 40
1.0
 40
1.0
 40
1.0
 40
1.0
 10
257.3868962713
 20
67.8530105354
 30
0.0
 10
257.3886323375
 20
67.8508176179
 30
0.0
 10
257.399353415
 20
67.847987384
 30
0.0
 10
257.4161058544
 20
67.8355159012
 30
0.0
 10
257.44340609
 20
67.8191053193
 30
0.0
 10
257.4891372566
 20
67.7868518709
 30
0.0
 10
257.5542674226
 20
67.7383655188
 30
0.0
 10
257.636197311
 20
67.6725490963
 30
0.0
 10
257.7209825069
 20
67.6004840446
 30
0.0
 10
257.817349936
 20
67.5062301316
 30
0.0
 10
257.8868961189
 20
67.4163045528
 30
0.0
 10
257.8868962738
 20
67.3530105382
 30
0.0
  0
SPLINE
  5
430
100
AcDbEntity
  8
0
100
AcDbSpline
 62
7
  6
BYLAYER
 70
0
 71
3
 72
14
 73
10
 74
0
 42
0.0000001
 43
0.0000001
 44
0.0000000001
 40
0.0
 40
0.0
 40
0.0
 40
0.0
 40
0.124755068
 40
0.2497371838
 40
0.3748455004
 40
0.5000186091
 40
0.7495154875
 40
0.8747430736
 40
1.0
 40
1.0
 40
1.0
 40
1.0
 10
265.8868962639
 20
67.3530105382
 30
0.0
 10
265.8868960435
 20
67.4360187375
 30
0.0
 10
265.8547639171
 20
67.6032436243
 30
0.0
 10
265.7322599002
 20
67.8238308164
 30
0.0
 10
265.5611462966
 20
68.0084513515
 30
0.0
 10
265.2890759757
 20
68.202769849
 30
0.0
 10
264.9683391156
 20
68.3166584319
 30
0.0
 10
264.6370849204
 20
68.3530278733
 30
0.0
 10
264.4702383843
 20
68.3530105589
 30
0.0
 10
264.3868962639
 20
68.3530105382
 30
0.0
  0
SPLINE
  5
431
100
AcDbEntity
  8
0
100
AcDbSpline
 62
7
  6
BYLAYER
 70
0
 71
3
 72
14
 73
10
 74
0
 42
0.0000001
 43
0.0000001
 44
0.0000000001
 40
0.0
 40
0.0
 40
0.0
 40
0.0
 40
0.1247554493
 40
0.2497373879
 40
0.3748457258
 40
0.5000187559
 40
0.7495153736
 40
0.8747430248
 40
1.0
 40
1.0
 40
1.0
 40
1.0
 10
297.8868962639
 20
67.3530105382
 30
0.0
 10
297.8868964842
 20
67.436018992
 30
0.0
 10
297.9190287356
 20
67.6032440237
 30
0.0
 10
298.0415329677
 20
67.8238312521
 30
0.0
 10
298.2126465351
 20
68.008451608
 30
0.0
 10
298.4847167393
 20
68.2027699182
 30
0.0
 10
298.8054534141
 20
68.3166583292
 30
0.0
 10
299.1367074898
 20
68.3530280743
 30
0.0
 10
299.3035541102
 20
68.3530105589
 30
0.0
 10
299.3868962639
 20
68.3530105382
 30
0.0
  0
SPLINE
  5
432
100
AcDbEntity
  8
0
100
AcDbSpline
 62
7
  6
BYLAYER
 70
0
 71
3
 72
16
 73
12
 74
0
 42
0.0000001
 43
0.0000001
 44
0.0000000001
 40
0.0
 40
0.0
 40
0.0
 40
0.0
 40
0.2636273647
 40
0.4178764038
 40
0.5741876959
 40
0.7240052304
 40
0.8563237188
 40
0.9120390276
 40
0.957262702
 40
0.9883504454
 40
1.0
 40
1.0
 40
1.0
 40
1.0
 10
305.8868962522
 20
67.3530105382
 30
0.0
 10
305.8868964071
 20
67.416304553
 30
0.0
 10
305.9564425874
 20
67.506230134
 30
0.0
 10
306.0528100248
 20
67.6004840407
 30
0.0
 10
306.1375951955
 20
67.6725491125
 30
0.0
 10
306.219525172
 20
67.7383654652
 30
0.0
 10
306.2846551023
 20
67.7868520039
 30
0.0
 10
306.3303866605
 20
67.8191051422
 30
0.0
 10
306.3576860818
 20
67.8355163691
 30
0.0
 10
306.3744402034
 20
67.8479865194
 30
0.0
 10
306.3851593328
 20
67.8508182963
 30
0.0
 10
306.3868962556
 20
67.8530105354
 30
0.0
  0
ENDSEC
  0
SECTION
  2
OBJECTS
  0
DICTIONARY
  5
C
100
AcDbDictionary
280
0
281
1
  3
ACAD_GROUP
350
D
  3
ACAD_MLINESTYLE
350
17
  3
ACAD_LAYOUT
350
1A
  3
ACAD_PLOTSETTINGS
350
19
  3
ACAD_PLOTSTYLENAME
350
E
  0
DICTIONARY
  5
D
102
{ACAD_REACTORS
330
C
102
}
100
AcDbDictionary
280
0
281
1
  0
ACDBDICTIONARYWDFLT
  5
E
102
{ACAD_REACTORS
330
C
102
}
100
AcDbDictionary
281
1
  3
Normal
350
F
100
AcDbDictionaryWithDefault
340
F
  0
DICTIONARY
  5
17
102
{ACAD_REACTORS
330
C
102
}
100
AcDbDictionary
280
0
281
1
  3
Standard
350
18
  0
DICTIONARY
  5
19
102
{ACAD_REACTORS
330
C
102
}
100
AcDbDictionary
281
1
  0
DICTIONARY
  5
1A
102
{ACAD_REACTORS
330
C
102
}
100
AcDbDictionary
281
1
  3
Model
350
433
  3
Layout1
350
434
  0
ACDBPLACEHOLDER
  5
F
102
{ACAD_REACTORS
330
E
102
}
  0
MLINESTYLE
  5
18
102
{ACAD_REACTORS
330
17
102
}
100
AcDbMlineStyle
  2
STANDARD
 70
0
  3

 62
256
 51
90.0
 52
90.0
 71
2
 49
0.5
 62
256
  6
BYLAYER
 49
-0.5
 62
256
  6
BYLAYER
  0
LAYOUT
  5
433
102
{ACAD_REACTORS
330
1A
102
}
100
AcDbPlotSettings
  1

  2
none_device
  4

  6

 40
0.0
 41
0.0
 42
0.0
 43
0.0
 44
210.0
 45
297.0
 46
0.0
 47
0.0
 48
0.0
 49
0.0
140
0.0
141
0.0
142
1.0
143
1.0
 70
1024
 72
1
 73
0
 74
0
  7

 75
0
147
1.0
148
0.0
149
0.0
100
AcDbLayout
  1
Model
 70
0
 71
0
 10
0.0
 20
0.0
 11
210.0
 21
297.0
 12
0.0
 22
0.0
 32
0.0
 14
0.0
 24
0.0
 34
0.0
 15
0.0
 25
0.0
 35
0.0
146
0.0
 13
0.0
 23
0.0
 33
0.0
 16
1.0
 26
0.0
 36
0.0
 17
0.0
 27
1.0
 37
0.0
 76
0
330
212
345
0
346
0
  0
LAYOUT
  5
434
102
{ACAD_REACTORS
330
1A
102
}
100
AcDbPlotSettings
  1

  2
none_device
  4

  6

 40
0.0
 41
0.0
 42
0.0
 43
0.0
 44
210.0
 45
297.0
 46
0.0
 47
0.0
 48
0.0
 49
0.0
140
0.0
141
0.0
142
1.0
143
1.0
 70
0
 72
1
 73
0
 74
0
  7

 75
0
147
1.0
148
0.0
149
0.0
100
AcDbLayout
  1
Layout1
 70
0
 71
1
 10
0.0
 20
0.0
 11
210.0
 21
297.0
 12
0.0
 22
0.0
 32
0.0
 14
0.0
 24
0.0
 34
0.0
 15
0.0
 25
0.0
 35
0.0
146
0.0
 13
0.0
 23
0.0
 33
0.0
 16
1.0
 26
0.0
 36
0.0
 17
0.0
 27
1.0
 37
0.0
 76
0
330
213
345
0
346
0
  0
ENDSEC
  0
EOF
