999
DXF file: C:\Users\sesa63760\Dev\_Creo\CAD\MCADPD0004146_3D-CAD\drw0001_4.dxf
999
Pro/ENGINEER 2019471 by Parametric Technology Corporation
  0
SECTION
  2
HEADER
  9
$ACADVER
  1
AC1024
  9
$DWGCODEPAGE
  3
ANSI_1252
  9
$EXTMAX
 10
163.094087426
 20
230.661637931
 30
0.0
  9
$EXTMIN
 10
0.0
 20
0.0
 30
0.0
  9
$LIMMIN
 10
0.0
 20
0.0
  9
$LIMMAX
 10
163.094087426
 20
230.661637931
  9
$VIEWCTR
 10
81.547043713
 20
115.3308189655
  9
$VIEWSIZE
 40
230.661637931
  9
$CLAYER
  8
0
  9
$LTSCALE
 40
15.0357215837
  9
$CELTYPE
  6
BYLAYER
  9
$DIMSCALE
 40
1.0
  9
$DIMASZ
 40
1.9415962789
  9
$DIMEXO
 40
1.0
  9
$DIMDLI
 40
10.3883167305
  9
$DIMEXE
 40
1.0
  9
$DIMCEN
 40
2.4603908046
  9
$DIMLFAC
 40
1.0
  9
$DIMBLK
  1
_FILLED
  9
$DIMALT
 70
0
  9
$DIMALTF
 40
0.0393700787
  9
$DIMTXT
 40
2.7182347904
  9
$DIMTOL
 70
1
  9
$DIMLIM
 70
0
  9
$DIMTFAC
 40
1.0
  9
$DIMTP
 40
0.01
  9
$DIMTM
 40
0.01
  9
$DIMGAP
 40
0.625
  9
$DIMDSEP
 70
46
  9
$AUNITS
 70
0
  9
$PDMODE
 70
3
  9
$PDSIZE
 40
0.3125
  9
$HANDSEED
  5
2A5
  9
$TILEMODE
 70
1
  9
$MEASUREMENT
 70
1
  9
$INSUNITS
 70
4
  0
ENDSEC
  0
SECTION
  2
CLASSES
  0
CLASS
  1
ACDBDICTIONARYWDFLT
  2
AcDbDictionaryWithDefault
  3
AutoCAD 2000
 90
0
 91
1
280
0
281
0
  0
CLASS
  1
ACDBPLACEHOLDER
  2
AcDbPlaceHolder
  3
AutoCAD 2000
 90
0
 91
1
280
0
281
0
  0
CLASS
  1
LAYOUT
  2
AcDbLayout
  3
AutoCAD 2000
 90
0
 91
0
280
0
281
0
  0
ENDSEC
  0
SECTION
  2
TABLES
  0
TABLE
  2
VPORT
  5
8
100
AcDbSymbolTable
 70
2
  0
VPORT
  5
1F4
100
AcDbSymbolTableRecord
100
AcDbViewportTableRecord
  2
*ACTIVE
 70
0
 10
0.0
 20
0.0
 11
1.0
 21
1.0
 12
81.547043713
 22
115.3308189655
 13
0.0
 23
0.0
 14
1.0
 24
1.0
 15
0.0
 25
0.0
 16
0.0
 26
0.0
 36
1.0
 17
0.0
 27
0.0
 37
0.0
 40
230.661637931
 41
0.7070707071
 42
50.0
 43
0.0
 44
0.0
 50
0.0
 51
0.0
 71
0
 72
100
 73
1
 74
1
 75
0
 76
0
 77
0
 78
0
  0
ENDTAB
  0
TABLE
  2
LTYPE
  5
5
100
AcDbSymbolTable
 70
6
  0
LTYPE
  5
14
100
AcDbSymbolTableRecord
100
AcDbLinetypeTableRecord
  2
BYBLOCK
 70
0
  3

 72
65
 73
0
 40
0.0
  0
LTYPE
  5
15
100
AcDbSymbolTableRecord
100
AcDbLinetypeTableRecord
  2
BYLAYER
 70
0
  3

 72
65
 73
0
 40
0.0
  0
LTYPE
  5
16
100
AcDbSymbolTableRecord
100
AcDbLinetypeTableRecord
  2
CONTINUOUS
 70
64
  3
Solid line
 72
65
 73
0
 40
0.0
  0
LTYPE
  5
1F5
100
AcDbSymbolTableRecord
100
AcDbLinetypeTableRecord
  2
CENTER
 70
64
  3
____ _ ____ _ ____ _ ____ _ ____ _ ____ _ ____
 72
65
 73
4
 40
0.6
 49
0.375
 74
0
 49
-0.075
 74
0
 49
0.075
 74
0
 49
-0.075
 74
0
  0
LTYPE
  5
1F6
100
AcDbSymbolTableRecord
100
AcDbLinetypeTableRecord
  2
HIDDEN
 70
64
  3
- - - - - - - - - - - - - - - - - - - -
 72
65
 73
2
 40
0.2
 49
0.1
 74
0
 49
-0.1
 74
0
  0
LTYPE
  5
1F7
100
AcDbSymbolTableRecord
100
AcDbLinetypeTableRecord
  2
PHANTOM
 70
64
  3
_____ _ _ _____ _ _ _____ _ _ _____
 72
65
 73
6
 40
0.8
 49
0.45
 74
0
 49
-0.05
 74
0
 49
0.1
 74
0
 49
-0.05
 74
0
 49
0.1
 74
0
 49
-0.05
 74
0
  0
LTYPE
  5
1F8
100
AcDbSymbolTableRecord
100
AcDbLinetypeTableRecord
  2
DOT
 70
64
  3
. . . . . . . . . . . . . . . . . . . .
 72
65
 73
2
 40
0.2
 49
0.1
 74
0
 49
-0.1
 74
0
  0
LTYPE
  5
1F9
100
AcDbSymbolTableRecord
100
AcDbLinetypeTableRecord
  2
DASHED
 70
64
  3
- - - - - - - - - - - - - - - - - - - -
 72
65
 73
2
 40
0.2
 49
0.1
 74
0
 49
-0.1
 74
0
  0
ENDTAB
  0
TABLE
  2
LAYER
  5
2
100
AcDbSymbolTable
 70
36
  0
LAYER
  5
10
100
AcDbSymbolTableRecord
100
AcDbLayerTableRecord
  2
0
 70
0
 62
7
  6
CONTINUOUS
370
-3
390
F
  0
LAYER
  5
1FA
100
AcDbSymbolTableRecord
100
AcDbLayerTableRecord
  2
DEFAULT_1
 70
0
 62
7
  6
CENTER
370
-3
390
F
  0
LAYER
  5
1FB
100
AcDbSymbolTableRecord
100
AcDbLayerTableRecord
  2
DEFAULT_2
 70
0
 62
7
  6
HIDDEN
370
-3
390
F
  0
LAYER
  5
1FC
100
AcDbSymbolTableRecord
100
AcDbLayerTableRecord
  2
DEFAULT_3
 70
0
 62
7
  6
PHANTOM
370
-3
390
F
  0
LAYER
  5
1FD
100
AcDbSymbolTableRecord
100
AcDbLayerTableRecord
  2
00_COMPONENTS
 70
0
 62
7
  6
CONTINUOUS
370
-3
390
F
  0
LAYER
  5
1FE
100
AcDbSymbolTableRecord
100
AcDbLayerTableRecord
  2
01_1_DEFAULT_DATUMS
 70
0
 62
7
  6
CONTINUOUS
370
-3
390
F
  0
LAYER
  5
1FF
100
AcDbSymbolTableRecord
100
AcDbLayerTableRecord
  2
01_PLANES
 70
0
 62
7
  6
CONTINUOUS
370
-3
390
F
  0
LAYER
  5
200
100
AcDbSymbolTableRecord
100
AcDbLayerTableRecord
  2
02_COORD_SYS
 70
0
 62
7
  6
CONTINUOUS
370
-3
390
F
  0
LAYER
  5
201
100
AcDbSymbolTableRecord
100
AcDbLayerTableRecord
  2
03_AXES
 70
0
 62
7
  6
CONTINUOUS
370
-3
390
F
  0
LAYER
  5
202
100
AcDbSymbolTableRecord
100
AcDbLayerTableRecord
  2
04_POINTS
 70
0
 62
7
  6
CONTINUOUS
370
-3
390
F
  0
LAYER
  5
203
100
AcDbSymbolTableRecord
100
AcDbLayerTableRecord
  2
05_CURVES
 70
0
 62
7
  6
CONTINUOUS
370
-3
390
F
  0
LAYER
  5
204
100
AcDbSymbolTableRecord
100
AcDbLayerTableRecord
  2
06_SURFS
 70
0
 62
7
  6
CONTINUOUS
370
-3
390
F
  0
LAYER
  5
205
100
AcDbSymbolTableRecord
100
AcDbLayerTableRecord
  2
07_COSMETICS
 70
0
 62
7
  6
CONTINUOUS
370
-3
390
F
  0
LAYER
  5
206
100
AcDbSymbolTableRecord
100
AcDbLayerTableRecord
  2
10_NOTES
 70
0
 62
7
  6
CONTINUOUS
370
-3
390
F
  0
LAYER
  5
207
100
AcDbSymbolTableRecord
100
AcDbLayerTableRecord
  2
11_NOTES_PUB
 70
0
 62
7
  6
CONTINUOUS
370
-3
390
F
  0
LAYER
  5
208
100
AcDbSymbolTableRecord
100
AcDbLayerTableRecord
  2
13_REF_GTOL
 70
0
 62
7
  6
CONTINUOUS
370
-3
390
F
  0
LAYER
  5
209
100
AcDbSymbolTableRecord
100
AcDbLayerTableRecord
  2
16_MISC
 70
0
 62
7
  6
CONTINUOUS
370
-3
390
F
  0
LAYER
  5
20A
100
AcDbSymbolTableRecord
100
AcDbLayerTableRecord
  2
17_NO_PRINT
 70
0
 62
7
  6
CONTINUOUS
370
-3
390
F
  0
LAYER
  5
20B
100
AcDbSymbolTableRecord
100
AcDbLayerTableRecord
  2
18_DATUM_CAMS_JOINTS
 70
0
 62
7
  6
CONTINUOUS
370
-3
390
F
  0
LAYER
  5
20C
100
AcDbSymbolTableRecord
100
AcDbLayerTableRecord
  2
19_DATUM_FUNCTIONAL
 70
0
 62
7
  6
CONTINUOUS
370
-3
390
F
  0
LAYER
  5
20D
100
AcDbSymbolTableRecord
100
AcDbLayerTableRecord
  2
20_DATUM_KINEMATIC_SCHEME
 70
0
 62
7
  6
CONTINUOUS
370
-3
390
F
  0
ENDTAB
  0
TABLE
  2
STYLE
  5
3
100
AcDbSymbolTable
 70
1
  0
STYLE
  5
11
100
AcDbSymbolTableRecord
100
AcDbTextStyleTableRecord
  2
STANDARD
 70
0
 40
0.0
 41
1.0
 50
0.0
 71
0
 42
0.2
  3
ARIAL.TTF
  4

  0
STYLE
  5
20E
100
AcDbSymbolTableRecord
100
AcDbTextStyleTableRecord
  2
TEXTSTYLE_1
 70
0
 40
0.0
 41
0.8
 50
0.0
 71
0
 42
0.2
  3
gdt
  4

  0
ENDTAB
  0
TABLE
  2
VIEW
  5
6
100
AcDbSymbolTable
 70
0
  0
ENDTAB
  0
TABLE
  2
UCS
  5
7
100
AcDbSymbolTable
 70
0
  0
ENDTAB
  0
TABLE
  2
APPID
  5
9
100
AcDbSymbolTable
 70
1
  0
APPID
  5
20F
100
AcDbSymbolTableRecord
100
AcDbRegAppTableRecord
  2
ACAD
 70
0
  0
ENDTAB
  0
TABLE
  2
BLOCK_RECORD
  5
1
100
AcDbSymbolTable
 70
0
  0
BLOCK_RECORD
  5
210
100
AcDbSymbolTableRecord
100
AcDbBlockTableRecord
  2
*Model_Space
  0
BLOCK_RECORD
  5
211
100
AcDbSymbolTableRecord
100
AcDbBlockTableRecord
  2
*Paper_Space
  0
BLOCK_RECORD
  5
212
100
AcDbSymbolTableRecord
100
AcDbBlockTableRecord
  2
_FILLED
  0
ENDTAB
  0
TABLE
  2
DIMSTYLE
  5
A
100
AcDbSymbolTable
 70
1
100
AcDbDimStyleTable
 71
0
  0
DIMSTYLE
105
213
100
AcDbSymbolTableRecord
100
AcDbDimStyleTableRecord
  2
STANDARD
 70
0
  3

  4

 40
1.0
 41
1.9415962789
 42
1.0
 43
0.38
 44
1.0
 45
0.0
 46
0.0
 47
0.01
 48
0.01
140
2.7182347904
141
0.09
142
0.0
143
25.4
144
1.0
145
0.0
146
1.0
147
0.625
 71
1
 72
0
 73
0
 74
0
 75
0
 76
0
 77
1
 78
8
 79
2
170
0
171
1
172
0
173
0
174
0
175
0
176
0
177
0
178
0
270
2
179
2
271
2
272
2
273
2
274
2
275
0
280
0
281
0
282
0
283
1
284
8
285
0
286
0
287
3
288
0
340
11
278
46
341
212
342
212
343
212
344
212
  0
ENDTAB
  0
ENDSEC
  0
SECTION
  2
BLOCKS
  0
BLOCK
  5
20
100
AcDbEntity
  8
0
100
AcDbBlockBegin
  2
*Model_Space
 70
0
 10
0.0
 20
0.0
 30
0.0
  3
*Model_Space
  1

  0
ENDBLK
  5
21
100
AcDbEntity
  8
0
100
AcDbBlockEnd
  0
BLOCK
  5
1C
100
AcDbEntity
  8
0
100
AcDbBlockBegin
  2
*Paper_Space
 70
0
 10
0.0
 20
0.0
 30
0.0
  3
*Paper_Space
  1

  0
ENDBLK
  5
1D
100
AcDbEntity
  8
0
100
AcDbBlockEnd
  0
BLOCK
  5
214
100
AcDbEntity
  8
0
100
AcDbBlockBegin
  2
_FILLED
 70
64
 10
0.0
 20
0.0
  3
_FILLED
  1

  0
SOLID
  5
215
100
AcDbEntity
  8
0
  6
BYBLOCK
 62
0
100
AcDbTrace
 10
0.0
 20
0.0
 11
-1.0
 21
0.25
 12
-1.0
 22
-0.25
 13
-1.0
 23
-0.25
  0
ENDBLK
  5
216
100
AcDbEntity
  8
0
  6
BYBLOCK
 62
0
100
AcDbBlockEnd
  0
ENDSEC
  0
SECTION
  2
ENTITIES
  0
LINE
  5
217
100
AcDbEntity
  8
0
100
AcDbLine
 62
7
  6
BYLAYER
 10
18.1645006095
 20
98.575
 11
18.1645006095
 21
106.975
  0
LINE
  5
218
100
AcDbEntity
  8
0
100
AcDbLine
 62
7
  6
BYLAYER
 10
19.1645006095
 20
106.975
 11
19.1645006095
 21
100.3569430161
  0
LINE
  5
219
100
AcDbEntity
  8
0
100
AcDbLine
 62
7
  6
BYLAYER
 10
24.5645006095
 20
106.975
 11
24.5645006095
 21
138.975
  0
LINE
  5
21A
100
AcDbEntity
  8
0
100
AcDbLine
 62
7
  6
BYLAYER
 10
25.2145006095
 20
98.575
 11
25.2145006095
 21
109.075
  0
LINE
  5
21B
100
AcDbEntity
  8
0
100
AcDbLine
 62
7
  6
BYLAYER
 10
25.5645006095
 20
139.975
 11
25.5645006095
 21
109.9263513513
  0
LINE
  5
21C
100
AcDbEntity
  8
0
100
AcDbLine
 62
7
  6
BYLAYER
 10
27.0645006095
 20
62.475
 11
27.0645006095
 21
95.7245995366
  0
LINE
  5
21D
100
AcDbEntity
  8
0
100
AcDbLine
 62
7
  6
BYLAYER
 10
27.0645006095
 20
113.10508289
 11
27.0645006095
 21
138.975
  0
LINE
  5
21E
100
AcDbEntity
  8
0
100
AcDbLine
 62
7
  6
BYLAYER
 10
25.2145006095
 20
98.575
 11
27.0645006095
 21
95.575
  0
LINE
  5
21F
100
AcDbEntity
  8
0
100
AcDbLine
 62
7
  6
BYLAYER
 10
31.0645006095
 20
139.975
 11
31.0645006095
 21
127.7484588643
  0
LINE
  5
220
100
AcDbEntity
  8
0
100
AcDbLine
 62
7
  6
BYLAYER
 10
31.3645006095
 20
62.475
 11
31.3645006095
 21
61.475
  0
LINE
  5
221
100
AcDbEntity
  8
0
100
AcDbLine
 62
7
  6
BYLAYER
 10
33.1145006095
 20
62.475
 11
33.1145006095
 21
61.475
  0
LINE
  5
222
100
AcDbEntity
  8
0
100
AcDbLine
 62
7
  6
BYLAYER
 10
27.0645006095
 20
113.575
 11
25.2145006095
 21
109.075
  0
LINE
  5
223
100
AcDbEntity
  8
0
100
AcDbLine
 62
7
  6
BYLAYER
 10
31.3645235323
 20
61.475
 11
41.6144762541
 21
61.475
  0
LINE
  5
224
100
AcDbEntity
  8
0
100
AcDbLine
 62
7
  6
BYLAYER
 10
53.0645235323
 20
61.475
 11
61.0644776868
 21
61.475
  0
LINE
  5
225
100
AcDbEntity
  8
0
100
AcDbLine
 62
7
  6
BYLAYER
 10
103.6645235323
 20
61.475
 11
111.6644776868
 21
61.475
  0
LINE
  5
226
100
AcDbEntity
  8
0
100
AcDbLine
 62
7
  6
BYLAYER
 10
123.114524965
 20
61.475
 11
133.3644776868
 21
61.475
  0
LINE
  5
227
100
AcDbEntity
  8
0
100
AcDbLine
 62
7
  6
BYLAYER
 10
27.0645006095
 20
62.475
 11
137.6645006095
 21
62.475
  0
LINE
  5
228
100
AcDbEntity
  8
0
100
AcDbLine
 62
7
  6
BYLAYER
 10
35.061028456
 20
95.575
 11
33.3518006318
 21
98.3467207961
  0
LINE
  5
229
100
AcDbEntity
  8
0
100
AcDbLine
 62
7
  6
BYLAYER
 10
34.0645007725
 20
127.2739815922
 11
34.0645006095
 21
113.2466647946
  0
LINE
  5
22A
100
AcDbEntity
  8
0
100
AcDbLine
 62
7
  6
BYLAYER
 10
34.0645006095
 20
95.6377774882
 11
34.0645006095
 21
62.475
  0
LINE
  5
22B
100
AcDbEntity
  8
0
100
AcDbLine
 62
7
  6
BYLAYER
 10
35.2145006095
 20
109.075
 11
35.2145006095
 21
98.575
  0
LINE
  5
22C
100
AcDbEntity
  8
0
100
AcDbLine
 62
7
  6
BYLAYER
 10
21.8645006095
 20
106.975
 11
24.5645006095
 21
111.575
  0
LINE
  5
22D
100
AcDbEntity
  8
0
100
AcDbLine
 62
7
  6
BYLAYER
 10
41.5645006095
 20
139.975
 11
43.7495358447
 21
142.5790235914
  0
LINE
  5
22E
100
AcDbEntity
  8
0
100
AcDbLine
 62
7
  6
BYLAYER
 10
42.8699078989
 20
139.975
 11
44.5155576339
 21
141.9362089839
  0
LINE
  5
22F
100
AcDbEntity
  8
0
100
AcDbLine
 62
7
  6
BYLAYER
 10
41.6145006095
 20
62.475
 11
41.6145006095
 21
61.475
  0
LINE
  5
230
100
AcDbEntity
  8
0
100
AcDbLine
 62
7
  6
BYLAYER
 10
34.197297157
 20
109.1764841297
 11
36.0055759036
 21
113.575
  0
LINE
  5
231
100
AcDbEntity
  8
0
100
AcDbLine
 62
7
  6
BYLAYER
 10
44.3787809491
 20
142.9268347607
 11
44.5155802878
 21
141.9362359817
  0
LINE
  5
232
100
AcDbEntity
  8
0
100
AcDbLine
 62
7
  6
BYLAYER
 10
53.0645006095
 20
62.475
 11
53.0645006095
 21
61.475
  0
LINE
  5
233
100
AcDbEntity
  8
0
100
AcDbLine
 62
7
  6
BYLAYER
 10
55.3228660436
 20
139.975
 11
55.3228660436
 21
143.2126493136
  0
LINE
  5
234
100
AcDbEntity
  8
0
100
AcDbLine
 62
7
  6
BYLAYER
 10
55.3228660436
 20
143.2126475218
 11
55.2251255022
 21
144.2078594525
  0
LINE
  5
235
100
AcDbEntity
  8
0
100
AcDbLine
 62
7
  6
BYLAYER
 10
56.3228660436
 20
139.975
 11
56.3228660436
 21
143.212647522
  0
LINE
  5
236
100
AcDbEntity
  8
0
100
AcDbLine
 62
7
  6
BYLAYER
 10
56.3645006095
 20
154.975
 11
56.3645006095
 21
139.975
  0
LINE
  5
237
100
AcDbEntity
  8
0
100
AcDbLine
 62
7
  6
BYLAYER
 10
59.7329652796
 20
147.675
 11
59.7329652796
 21
139.975
  0
LINE
  5
238
100
AcDbEntity
  8
0
100
AcDbLine
 62
7
  6
BYLAYER
 10
61.0645006095
 20
62.475
 11
61.0645006095
 21
61.475
  0
LINE
  5
239
100
AcDbEntity
  8
0
100
AcDbLine
 62
7
  6
BYLAYER
 10
64.0999571573
 20
139.975
 11
64.0999571579
 21
147.6750000146
  0
LINE
  5
23A
100
AcDbEntity
  8
0
100
AcDbLine
 62
7
  6
BYLAYER
 10
65.2770227685
 20
139.975
 11
65.2770227685
 21
147.675
  0
LINE
  5
23B
100
AcDbEntity
  8
0
100
AcDbLine
 62
7
  6
BYLAYER
 10
149.1645006095
 20
94.075
 11
137.6645006095
 21
94.075
  0
LINE
  5
23C
100
AcDbEntity
  8
0
100
AcDbLine
 62
7
  6
BYLAYER
 10
129.667972763
 20
95.575
 11
35.061028456
 21
95.575
  0
LINE
  5
23D
100
AcDbEntity
  8
0
100
AcDbLine
 62
7
  6
BYLAYER
 10
129.5145006095
 20
98.575
 11
35.2145006095
 21
98.575
  0
LINE
  5
23E
100
AcDbEntity
  8
0
100
AcDbLine
 62
7
  6
BYLAYER
 10
25.2145006095
 20
98.575
 11
18.1645006095
 21
98.575
  0
LINE
  5
23F
100
AcDbEntity
  8
0
100
AcDbLine
 62
7
  6
BYLAYER
 10
139.5145006095
 20
100.3117900741
 11
148.1645006095
 21
100.3117900741
  0
LINE
  5
240
100
AcDbEntity
  8
0
100
AcDbLine
 62
7
  6
BYLAYER
 10
19.1645006095
 20
100.3569430161
 11
25.2145006095
 21
100.3569430161
  0
LINE
  5
241
100
AcDbEntity
  8
0
100
AcDbLine
 62
7
  6
BYLAYER
 10
18.1645006095
 20
106.975
 11
25.2145006095
 21
106.975
  0
LINE
  5
242
100
AcDbEntity
  8
0
100
AcDbLine
 62
7
  6
BYLAYER
 10
35.2145006095
 20
109.075
 11
129.5145006095
 21
109.075
  0
LINE
  5
243
100
AcDbEntity
  8
0
100
AcDbLine
 62
7
  6
BYLAYER
 10
79.2645006095
 20
154.975
 11
79.2645006095
 21
167.775
  0
LINE
  5
244
100
AcDbEntity
  8
0
100
AcDbLine
 62
7
  6
BYLAYER
 10
36.0055759036
 20
113.575
 11
128.7234253154
 21
113.575
  0
LINE
  5
245
100
AcDbEntity
  8
0
100
AcDbLine
 62
7
  6
BYLAYER
 10
44.5155802878
 20
141.9362359817
 11
43.7495358447
 21
142.5790235914
  0
LINE
  5
246
100
AcDbEntity
  8
0
100
AcDbLine
 62
7
  6
BYLAYER
 10
85.4645006095
 20
154.975
 11
85.4645006095
 21
167.775
  0
LINE
  5
247
100
AcDbEntity
  8
0
100
AcDbLine
 62
7
  6
BYLAYER
 10
98.8989494233
 20
147.675
 11
98.8989494233
 21
139.975
  0
LINE
  5
248
100
AcDbEntity
  8
0
100
AcDbLine
 62
7
  6
BYLAYER
 10
103.6645006095
 20
61.475
 11
103.6645006095
 21
62.475
  0
LINE
  5
249
100
AcDbEntity
  8
0
100
AcDbLine
 62
7
  6
BYLAYER
 10
104.6303767497
 20
139.975
 11
104.6303767497
 21
147.675
  0
LINE
  5
24A
100
AcDbEntity
  8
0
100
AcDbLine
 62
7
  6
BYLAYER
 10
107.9818769284
 20
143.2605896631
 11
107.9818775244
 21
139.975
  0
LINE
  5
24B
100
AcDbEntity
  8
0
100
AcDbLine
 62
7
  6
BYLAYER
 10
108.3645006095
 20
154.975
 11
108.3645006095
 21
143.9251056838
  0
LINE
  5
24C
100
AcDbEntity
  8
0
100
AcDbLine
 62
7
  6
BYLAYER
 10
111.6645006095
 20
61.475
 11
111.6645006095
 21
62.475
  0
LINE
  5
24D
100
AcDbEntity
  8
0
100
AcDbLine
 62
7
  6
BYLAYER
 10
137.6645006095
 20
138.975
 11
24.5645006095
 21
138.975
  0
LINE
  5
24E
100
AcDbEntity
  8
0
100
AcDbLine
 62
7
  6
BYLAYER
 10
25.5645006095
 20
139.975
 11
137.6645006095
 21
139.975
  0
LINE
  5
24F
100
AcDbEntity
  8
0
100
AcDbLine
 62
7
  6
BYLAYER
 10
56.3228660436
 20
143.212647522
 11
55.3228660436
 21
143.212647522
  0
LINE
  5
250
100
AcDbEntity
  8
0
100
AcDbLine
 62
7
  6
BYLAYER
 10
65.2770227685
 20
143.775
 11
64.0999571572
 21
143.775
  0
LINE
  5
251
100
AcDbEntity
  8
0
100
AcDbLine
 62
7
  6
BYLAYER
 10
98.8989494233
 20
147.6749996196
 11
104.6303767497
 21
147.675
  0
LINE
  5
252
100
AcDbEntity
  8
0
100
AcDbLine
 62
7
  6
BYLAYER
 10
64.0999571579
 20
147.6750000146
 11
59.7329652796
 21
147.675
  0
LINE
  5
253
100
AcDbEntity
  8
0
100
AcDbLine
 62
7
  6
BYLAYER
 10
123.1145006095
 20
61.475
 11
123.1145006095
 21
62.475
  0
LINE
  5
254
100
AcDbEntity
  8
0
100
AcDbLine
 62
7
  6
BYLAYER
 10
108.3645006095
 20
154.975
 11
85.4645006095
 21
154.975
  0
LINE
  5
255
100
AcDbEntity
  8
0
100
AcDbLine
 62
7
  6
BYLAYER
 10
79.2645006095
 20
154.975
 11
56.3645006095
 21
154.975
  0
LINE
  5
256
100
AcDbEntity
  8
0
100
AcDbLine
 62
7
  6
BYLAYER
 10
107.3642229323
 20
155.975
 11
85.4645006095
 21
155.975
  0
LINE
  5
257
100
AcDbEntity
  8
0
100
AcDbLine
 62
7
  6
BYLAYER
 10
79.2645006095
 20
155.975
 11
57.3647782868
 21
155.975
  0
LINE
  5
258
100
AcDbEntity
  8
0
100
AcDbLine
 62
7
  6
BYLAYER
 10
128.7234253154
 20
113.575
 11
130.5317040621
 21
109.1764841297
  0
LINE
  5
259
100
AcDbEntity
  8
0
100
AcDbLine
 62
7
  6
BYLAYER
 10
129.5145006095
 20
98.575
 11
129.5145006095
 21
109.075
  0
LINE
  5
25A
100
AcDbEntity
  8
0
100
AcDbLine
 62
7
  6
BYLAYER
 10
130.6645006095
 20
62.475
 11
130.6645006095
 21
95.6377774882
  0
LINE
  5
25B
100
AcDbEntity
  8
0
100
AcDbLine
 62
7
  6
BYLAYER
 10
130.6645006095
 20
113.2466647947
 11
130.6645004561
 21
127.2739815856
  0
LINE
  5
25C
100
AcDbEntity
  8
0
100
AcDbLine
 62
7
  6
BYLAYER
 10
131.6145006095
 20
61.475
 11
131.6145006095
 21
62.475
  0
LINE
  5
25D
100
AcDbEntity
  8
0
100
AcDbLine
 62
7
  6
BYLAYER
 10
133.3645006095
 20
61.475
 11
133.3645006095
 21
62.475
  0
LINE
  5
25E
100
AcDbEntity
  8
0
100
AcDbLine
 62
7
  6
BYLAYER
 10
133.6645006095
 20
127.7484588643
 11
133.6645006095
 21
139.975
  0
LINE
  5
25F
100
AcDbEntity
  8
0
100
AcDbLine
 62
7
  6
BYLAYER
 10
131.3772005873
 20
98.3467207961
 11
129.667972763
 21
95.575
  0
LINE
  5
260
100
AcDbEntity
  8
0
100
AcDbLine
 62
7
  6
BYLAYER
 10
139.5145006095
 20
109.075
 11
137.6645006095
 21
113.575
  0
LINE
  5
261
100
AcDbEntity
  8
0
100
AcDbLine
 62
7
  6
BYLAYER
 10
137.6645006095
 20
139.975
 11
137.6645006095
 21
139.4647603703
  0
LINE
  5
262
100
AcDbEntity
  8
0
100
AcDbLine
 62
7
  6
BYLAYER
 10
137.6645006095
 20
95.7245995366
 11
137.6645006095
 21
62.475
  0
LINE
  5
263
100
AcDbEntity
  8
0
100
AcDbLine
 62
7
  6
BYLAYER
 10
137.6645006095
 20
113.10508289
 11
137.6645006095
 21
138.975
  0
LINE
  5
264
100
AcDbEntity
  8
0
100
AcDbLine
 62
7
  6
BYLAYER
 10
139.5145006095
 20
109.075
 11
139.5145006095
 21
98.575
  0
LINE
  5
265
100
AcDbEntity
  8
0
100
AcDbLine
 62
7
  6
BYLAYER
 10
137.6645006095
 20
95.575
 11
139.5145006095
 21
98.575
  0
LINE
  5
266
100
AcDbEntity
  8
0
100
AcDbLine
 62
7
  6
BYLAYER
 10
85.4645006095
 20
167.775
 11
79.2645006095
 21
167.775
  0
LINE
  5
267
100
AcDbEntity
  8
0
100
AcDbLine
 62
7
  6
BYLAYER
 10
148.1644994941
 20
137.1137536413
 11
148.2831971808
 21
137.599460198
  0
LINE
  5
268
100
AcDbEntity
  8
0
100
AcDbLine
 62
7
  6
BYLAYER
 10
148.1645006212
 20
137.1137589909
 11
148.1645006095
 21
100.3117900741
  0
LINE
  5
269
100
AcDbEntity
  8
0
100
AcDbLine
 62
7
  6
BYLAYER
 10
149.1645006095
 20
94.075
 11
149.1645006095
 21
136.5990115161
  0
ARC
  5
26A
100
AcDbEntity
  8
0
100
AcDbCircle
 62
7
  6
BYLAYER
 10
91.2115311279
 20
-252.825250362
 40
384.3712203682
100
AcDbArc
 50
98.5502450512
 51
99.0454835356
  0
ARC
  5
26B
100
AcDbEntity
  8
0
100
AcDbCircle
 62
7
  6
BYLAYER
 10
75.8946309436
 20
-237.4810455054
 40
368.8440953392
100
AcDbArc
 50
80.9445173181
 51
81.4605370506
  0
ARC
  5
26C
100
AcDbEntity
  8
0
100
AcDbCircle
 62
7
  6
BYLAYER
 10
82.3645006095
 20
-148.2831818182
 40
280.7581818182
100
AcDbArc
 50
79.0243039496
 51
100.9757264159
  0
ARC
  5
26D
100
AcDbEntity
  8
0
100
AcDbCircle
 62
7
  6
BYLAYER
 10
82.3645006095
 20
-148.2831818182
 40
279.7581818182
100
AcDbArc
 50
80.0581204901
 51
99.9418795077
  0
ARC
  5
26E
100
AcDbEntity
  8
0
100
AcDbCircle
 62
7
  6
BYLAYER
 10
82.3645006095
 20
-132.1374154366
 40
277.6747317182
100
AcDbArc
 50
95.372924249
 51
97.8626798195
  0
ARC
  5
26F
100
AcDbEntity
  8
0
100
AcDbCircle
 62
7
  6
BYLAYER
 10
82.3645006095
 20
-132.1374154366
 40
277.6747317182
100
AcDbArc
 50
76.2418234101
 51
84.6125243063
  0
ARC
  5
270
100
AcDbEntity
  8
0
100
AcDbCircle
 62
7
  6
BYLAYER
 10
82.3645006095
 20
-132.1374154366
 40
277.1747317182
100
AcDbArc
 50
76.2671360278
 51
78.4915099858
  0
ARC
  5
271
100
AcDbEntity
  8
0
100
AcDbCircle
 62
7
  6
BYLAYER
 10
82.3645006095
 20
-132.1374154366
 40
276.6747317182
100
AcDbArc
 50
79.5805648727
 51
84.6864989283
  0
ARC
  5
272
100
AcDbEntity
  8
0
100
AcDbCircle
 62
7
  6
BYLAYER
 10
82.3645006095
 20
-132.1374154366
 40
276.6747317182
100
AcDbArc
 50
95.6089291613
 51
97.8626852316
  0
ARC
  5
273
100
AcDbEntity
  8
0
100
AcDbCircle
 62
7
  6
BYLAYER
 10
55.3228660436
 20
143.212647522
 40
1.0
100
AcDbArc
 50
0.0
 51
95.6090755805
  0
ARC
  5
274
100
AcDbEntity
  8
0
100
AcDbCircle
 62
7
  6
BYLAYER
 10
107.3645006095
 20
154.975
 40
1.0
100
AcDbArc
 50
0.0
 51
90.0
  0
ARC
  5
275
100
AcDbEntity
  8
0
100
AcDbCircle
 62
7
  6
BYLAYER
 10
57.3645006095
 20
154.975
 40
1.0
100
AcDbArc
 50
90.0
 51
180.0
  0
ARC
  5
276
100
AcDbEntity
  8
0
100
AcDbCircle
 62
7
  6
BYLAYER
 10
25.5645006095
 20
138.975
 40
1.0
100
AcDbArc
 50
90.0
 51
180.0
  0
ARC
  5
277
100
AcDbEntity
  8
0
100
AcDbCircle
 62
7
  6
BYLAYER
 10
44.5155802878
 20
141.9362359817
 40
1.0
100
AcDbArc
 50
97.8626798195
 51
139.9999999995
  0
ARC
  5
278
100
AcDbEntity
  8
0
100
AcDbCircle
 62
7
  6
BYLAYER
 10
136.6645006095
 20
138.975
 40
1.0
100
AcDbArc
 50
0.0
 51
90.0
  0
ARC
  5
279
100
AcDbEntity
  8
0
100
AcDbCircle
 62
7
  6
BYLAYER
 10
148.1645006095
 20
136.5990115161
 40
1.0
100
AcDbArc
 50
0.0
 51
76.2418302563
  0
ARC
  5
27A
100
AcDbEntity
  8
0
100
AcDbCircle
 62
7
  6
BYLAYER
 10
28.0645006095
 20
138.975
 40
1.0
100
AcDbArc
 50
90.0
 51
180.0
  0
ARC
  5
27B
100
AcDbEntity
  8
0
100
AcDbCircle
 62
7
  6
BYLAYER
 10
108.9140522597
 20
143.260589075
 40
0.9321753312
100
AcDbArc
 50
174.5935781903
 51
179.9999638476
  0
SPLINE
  5
27C
100
AcDbEntity
  8
0
100
AcDbSpline
 62
7
  6
BYLAYER
 70
0
 71
3
 72
12
 73
8
 74
0
 42
0.0000001
 43
0.0000001
 44
0.0000000001
 40
0.0
 40
0.0
 40
0.0
 40
0.0
 40
0.2027165716
 40
0.3166476572
 40
0.4395482684
 40
0.7086731431
 40
1.0
 40
1.0
 40
1.0
 40
1.0
 10
102.1387929974
 20
151.7755939342
 30
0.0
 10
101.7536608659
 20
151.7756741107
 30
0.0
 10
101.1492093474
 20
151.5911032739
 30
0.0
 10
100.4555966388
 20
151.1234333595
 30
0.0
 10
99.7674762894
 20
150.4443535176
 30
0.0
 10
99.0962761029
 20
149.3027187037
 30
0.0
 10
98.8989494291
 20
148.2284788542
 30
0.0
 10
98.8989494233
 20
147.675
 30
0.0
  0
SPLINE
  5
27D
100
AcDbEntity
  8
0
100
AcDbSpline
 62
7
  6
BYLAYER
 70
0
 71
3
 72
13
 73
9
 74
0
 42
0.0000001
 43
0.0000001
 44
0.0000000001
 40
0.0
 40
0.0
 40
0.0
 40
0.0
 40
0.233396307
 40
0.4723071792
 40
0.5961067966
 40
0.7244153817
 40
0.8590724185
 40
1.0
 40
1.0
 40
1.0
 40
1.0
 10
109.5038731742
 20
144.2078597023
 30
0.0
 10
109.3556533111
 20
144.2224094232
 30
0.0
 10
109.0514187883
 20
144.2173718443
 30
0.0
 10
108.6786939341
 20
144.120039786
 30
0.0
 10
108.3996681801
 20
143.9745243542
 30
0.0
 10
108.2049690925
 20
143.8196942372
 30
0.0
 10
108.0475747055
 20
143.6111177717
 30
0.0
 10
107.9945021181
 20
143.4379451307
 30
0.0
 10
107.9860237938
 20
143.3484185387
 30
0.0
  0
SPLINE
  5
27E
100
AcDbEntity
  8
0
100
AcDbSpline
 62
7
  6
BYLAYER
 70
0
 71
3
 72
9
 73
5
 74
0
 42
0.0000001
 43
0.0000001
 44
0.0000000001
 40
0.0
 40
0.0
 40
0.0
 40
0.0
 40
0.5431392531
 40
1.0
 40
1.0
 40
1.0
 40
1.0
 10
64.0999571571
 20
147.6750000175
 30
0.0
 10
64.0999571574
 20
148.1530697815
 30
0.0
 10
64.1559122029
 20
149.0340613067
 30
0.0
 10
64.3483055337
 20
149.9000507054
 30
0.0
 10
64.4859227221
 20
150.2778974381
 30
0.0
  0
SPLINE
  5
27F
100
AcDbEntity
  8
0
100
AcDbSpline
 62
7
  6
BYLAYER
 70
0
 71
3
 72
13
 73
9
 74
0
 42
0.0000001
 43
0.0000001
 44
0.0000000001
 40
0.0
 40
0.0
 40
0.0
 40
0.0
 40
0.292141747
 40
0.5634174641
 40
0.6865664946
 40
0.7996616267
 40
0.9034197971
 40
1.0
 40
1.0
 40
1.0
 40
1.0
 10
65.2770227684
 20
147.675
 30
0.0
 10
65.2770227684
 20
148.2149716844
 30
0.0
 10
65.119392461
 20
149.2631117194
 30
0.0
 10
64.5408490512
 20
150.4214898135
 30
0.0
 10
63.906160511
 20
151.1193557358
 30
0.0
 10
63.3942971921
 20
151.4925354709
 30
0.0
 10
62.8561530984
 20
151.721033742
 30
0.0
 10
62.4844393018
 20
151.7751205281
 30
0.0
 10
62.3059281013
 20
151.7751527829
 30
0.0
  0
SPLINE
  5
280
100
AcDbEntity
  8
0
100
AcDbSpline
 62
7
  6
BYLAYER
 70
0
 71
3
 72
22
 73
18
 74
0
 42
0.0000001
 43
0.0000001
 44
0.0000000001
 40
0.0
 40
0.0
 40
0.0
 40
0.0
 40
0.0010935285
 40
0.00436156
 40
0.0097954293
 40
0.017386471
 40
0.0271260197
 40
0.03900541
 40
0.0691363512
 40
0.1076093017
 40
0.1542170489
 40
0.2087472216
 40
0.2709186283
 40
0.4168592085
 40
0.5892499532
 40
0.7849585492
 40
1.0
 40
1.0
 40
1.0
 40
1.0
 10
137.6645006095
 20
126.1547031685
 30
0.0
 10
137.6632968961
 20
126.1553639426
 30
0.0
 10
137.6575341338
 20
126.1552419554
 30
0.0
 10
137.6457576147
 20
126.1583030868
 30
0.0
 10
137.6253873235
 20
126.1611538492
 30
0.0
 10
137.5972913022
 20
126.1661806735
 30
0.0
 10
137.5610929726
 20
126.1722072748
 30
0.0
 10
137.4970372128
 20
126.1830956283
 30
0.0
 10
137.397377248
 20
126.199912555
 30
0.0
 10
137.2547251644
 20
126.2239908109
 30
0.0
 10
137.081842134
 20
126.2530688643
 30
0.0
 10
136.8795978859
 20
126.2869863847
 30
0.0
 10
136.5543055079
 20
126.3413396642
 30
0.0
 10
136.0829566322
 20
126.4195930918
 30
0.0
 10
135.4460234453
 20
126.5243137487
 30
0.0
 10
134.723249406
 20
126.6417672506
 30
0.0
 10
134.2139759732
 20
126.7234520207
 30
0.0
 10
133.9473073904
 20
126.7659221195
 30
0.0
  0
SPLINE
  5
281
100
AcDbEntity
  8
0
100
AcDbSpline
 62
7
  6
BYLAYER
 70
0
 71
3
 72
13
 73
9
 74
0
 42
0.0000001
 43
0.0000001
 44
0.0000000001
 40
0.0
 40
0.0
 40
0.0
 40
0.0
 40
0.3150091786
 40
0.6104453929
 40
0.734676267
 40
0.8392836569
 40
0.9256354134
 40
1.0
 40
1.0
 40
1.0
 40
1.0
 10
133.9473060446
 20
126.7659398587
 30
0.0
 10
133.9638701031
 20
126.8802059952
 30
0.0
 10
133.9783129462
 20
127.1043674402
 30
0.0
 10
133.9456147254
 20
127.3748970457
 30
0.0
 10
133.8783727373
 20
127.5558620649
 30
0.0
 10
133.8170807582
 20
127.6550760578
 30
0.0
 10
133.743938826
 20
127.7215450154
 30
0.0
 10
133.6878209792
 20
127.7441251393
 30
0.0
 10
133.6610228977
 20
127.7491051683
 30
0.0
  0
SPLINE
  5
282
100
AcDbEntity
  8
0
100
AcDbSpline
 62
7
  6
BYLAYER
 70
0
 71
3
 72
13
 73
9
 74
0
 42
0.0000001
 43
0.0000001
 44
0.0000000001
 40
0.0
 40
0.0
 40
0.0
 40
0.0
 40
0.0724090952
 40
0.1547782923
 40
0.2518840738
 40
0.3661462108
 40
0.6486464359
 40
1.0
 40
1.0
 40
1.0
 40
1.0
 10
137.6645006095
 20
126.1547031685
 30
0.0
 10
137.664492319
 20
126.2105738251
 30
0.0
 10
137.6399920558
 20
126.330541777
 30
0.0
 10
137.5417675847
 20
126.5008144583
 30
0.0
 10
137.3859094086
 20
126.6673437193
 30
0.0
 10
137.0815822026
 20
126.8988111047
 30
0.0
 10
136.558023209
 20
127.153176877
 30
0.0
 10
136.0851577463
 20
127.2877107875
 30
0.0
 10
135.8190133253
 20
127.3393268732
 30
0.0
  0
SPLINE
  5
283
100
AcDbEntity
  8
0
100
AcDbSpline
 62
7
  6
BYLAYER
 70
0
 71
3
 72
10
 73
6
 74
0
 42
0.0000001
 43
0.0000001
 44
0.0000000001
 40
0.0
 40
0.0
 40
0.0
 40
0.0
 40
0.3226430672
 40
0.6140574909
 40
1.0
 40
1.0
 40
1.0
 40
1.0
 10
148.4023386303
 20
137.5703163478
 30
0.0
 10
148.4189175507
 20
137.5662570352
 30
0.0
 10
148.4367358386
 20
137.5305818179
 30
0.0
 10
148.4448217959
 20
137.4806148527
 30
0.0
 10
148.4468845005
 20
137.444117946
 30
0.0
 10
148.447022922
 20
137.4237010682
 30
0.0
  0
SPLINE
  5
284
100
AcDbEntity
  8
0
100
AcDbSpline
 62
7
  6
BYLAYER
 70
0
 71
3
 72
9
 73
5
 74
0
 42
0.0000001
 43
0.0000001
 44
0.0000000001
 40
0.0
 40
0.0
 40
0.0
 40
0.0
 40
0.4744645913
 40
1.0
 40
1.0
 40
1.0
 40
1.0
 10
148.447022922
 20
137.4237010682
 30
0.0
 10
148.4473901377
 20
137.3695375685
 30
0.0
 10
148.4369475469
 20
137.2553984943
 30
0.0
 10
148.4158554277
 20
137.1431179696
 30
0.0
 10
148.4023523122
 20
137.0846623208
 30
0.0
  0
SPLINE
  5
285
100
AcDbEntity
  8
0
100
AcDbSpline
 62
7
  6
BYLAYER
 70
0
 71
3
 72
9
 73
5
 74
0
 42
0.0000001
 43
0.0000001
 44
0.0000000001
 40
0.0
 40
0.0
 40
0.0
 40
0.0
 40
0.2468669327
 40
1.0
 40
1.0
 40
1.0
 40
1.0
 10
148.4023330474
 20
137.0846646286
 30
0.0
 10
148.3827433523
 20
137.0869792478
 30
0.0
 10
148.3034076064
 20
137.0965059153
 30
0.0
 10
148.2241724784
 20
137.1068456234
 30
0.0
 10
148.1645006095
 20
137.1146439688
 30
0.0
  0
SPLINE
  5
286
100
AcDbEntity
  8
0
100
AcDbSpline
 62
7
  6
BYLAYER
 70
0
 71
3
 72
15
 73
11
 74
0
 42
0.0000001
 43
0.0000001
 44
0.0000000001
 40
0.0
 40
0.0
 40
0.0
 40
0.0
 40
0.099488773
 40
0.2000557171
 40
0.306385268
 40
0.4225212129
 40
0.5506261511
 40
0.6911365675
 40
0.8424440842
 40
1.0
 40
1.0
 40
1.0
 40
1.0
 10
62.3059281013
 20
151.7751527829
 30
0.0
 10
62.1290241446
 20
151.7751847473
 30
0.0
 10
61.7711492788
 20
151.7228414343
 30
0.0
 10
61.2705202551
 20
151.4918786319
 30
0.0
 10
60.8244036525
 20
151.1207924895
 30
0.0
 10
60.4452593684
 20
150.6205246334
 30
0.0
 10
60.136642327
 20
150.0064682607
 30
0.0
 10
59.9069373794
 20
149.2932981674
 30
0.0
 10
59.7648862065
 20
148.5049354628
 30
0.0
 10
59.7329652799
 20
147.955154881
 30
0.0
 10
59.7329652796
 20
147.675
 30
0.0
  0
SPLINE
  5
287
100
AcDbEntity
  8
0
100
AcDbSpline
 62
7
  6
BYLAYER
 70
0
 71
3
 72
15
 73
11
 74
0
 42
0.0000001
 43
0.0000001
 44
0.0000000001
 40
0.0
 40
0.0
 40
0.0
 40
0.0
 40
0.040339388
 40
0.0684237734
 40
0.103476103
 40
0.1956620271
 40
0.3167009665
 40
0.4631658109
 40
0.6301260101
 40
1.0
 40
1.0
 40
1.0
 40
1.0
 10
149.1645006095
 20
100.1416583333
 30
0.0
 10
149.1645006095
 20
100.1556715726
 30
0.0
 10
149.1499483956
 20
100.1784085603
 30
0.0
 10
149.1207140473
 20
100.1987373545
 30
0.0
 10
149.0720528083
 20
100.2228507275
 30
0.0
 10
148.9890147528
 20
100.247325149
 30
0.0
 10
148.8661910504
 20
100.2707061765
 30
0.0
 10
148.716286445
 20
100.2890167006
 30
0.0
 10
148.4795739785
 20
100.3071524558
 30
0.0
 10
148.2929887444
 20
100.3117900741
 30
0.0
 10
148.1645006095
 20
100.3117900741
 30
0.0
  0
SPLINE
  5
288
100
AcDbEntity
  8
0
100
AcDbSpline
 62
7
  6
BYLAYER
 70
0
 71
3
 72
11
 73
7
 74
0
 42
0.0000001
 43
0.0000001
 44
0.0000000001
 40
0.0
 40
0.0
 40
0.0
 40
0.0
 40
0.3388179087
 40
0.6184017907
 40
0.8312263188
 40
1.0
 40
1.0
 40
1.0
 40
1.0
 10
148.4023335375
 20
137.0846688721
 30
0.0
 10
148.5108080793
 20
137.0713877791
 30
0.0
 10
148.7073717761
 20
137.0292602152
 30
0.0
 10
148.9542996199
 20
136.9195361158
 30
0.0
 10
149.1201691648
 20
136.7770895722
 30
0.0
 10
149.164456281
 20
136.6534525311
 30
0.0
 10
149.164500609
 20
136.5990151776
 30
0.0
  0
SPLINE
  5
289
100
AcDbEntity
  8
0
100
AcDbSpline
 62
7
  6
BYLAYER
 70
0
 71
3
 72
15
 73
11
 74
0
 42
0.0000001
 43
0.0000001
 44
0.0000000001
 40
0.0
 40
0.0
 40
0.0
 40
0.0
 40
0.3721079016
 40
0.5400828984
 40
0.6873892589
 40
0.8089281901
 40
0.900985546
 40
0.9355799988
 40
0.9628222134
 40
1.0
 40
1.0
 40
1.0
 40
1.0
 10
19.1645006095
 20
100.3569430161
 30
0.0
 10
19.0362158201
 20
100.3569430161
 30
0.0
 10
18.8499503977
 20
100.3530388809
 30
0.0
 10
18.6134446866
 20
100.3375760183
 30
0.0
 10
18.4636066485
 20
100.3218755797
 30
0.0
 10
18.3407607097
 20
100.3016020377
 30
0.0
 10
18.2576729438
 20
100.2803694575
 30
0.0
 10
18.2086643092
 20
100.2590160726
 30
0.0
 10
18.1799357619
 20
100.241588323
 30
0.0
 10
18.1645006095
 20
100.2210176316
 30
0.0
 10
18.1645006095
 20
100.2082005307
 30
0.0
  0
SPLINE
  5
28A
100
AcDbEntity
  8
0
100
AcDbSpline
 62
7
  6
BYLAYER
 70
0
 71
3
 72
15
 73
11
 74
0
 42
0.0000001
 43
0.0000001
 44
0.0000000001
 40
0.0
 40
0.0
 40
0.0
 40
0.0
 40
0.154404745
 40
0.304343461
 40
0.4454689846
 40
0.5752511982
 40
0.6929627638
 40
0.7999919244
 40
0.9006117165
 40
1.0
 40
1.0
 40
1.0
 40
1.0
 10
104.6303767497
 20
147.675
 30
0.0
 10
104.6303767497
 20
147.9476620322
 30
0.0
 10
104.602124129
 20
148.4855383398
 30
0.0
 10
104.4763629142
 20
149.2637134484
 30
0.0
 10
104.2671724168
 20
149.9792895225
 30
0.0
 10
103.9762930322
 20
150.6042394855
 30
0.0
 10
103.6098135382
 20
151.1175364582
 30
0.0
 10
103.1689804766
 20
151.4964451576
 30
0.0
 10
102.6697167427
 20
151.7257230417
 30
0.0
 10
102.3143019221
 20
151.7755573969
 30
0.0
 10
102.1387929974
 20
151.7755939342
 30
0.0
  0
SPLINE
  5
28B
100
AcDbEntity
  8
0
100
AcDbSpline
 62
7
  6
BYLAYER
 70
0
 71
3
 72
17
 73
13
 74
0
 42
0.0000001
 43
0.0000001
 44
0.0000000001
 40
0.0
 40
0.0
 40
0.0
 40
0.0
 40
0.1727097545
 40
0.3405987845
 40
0.4986222117
 40
0.6423444207
 40
0.7675789531
 40
0.8707131224
 40
0.9130341707
 40
0.9487659256
 40
0.9777301875
 40
1.0
 40
1.0
 40
1.0
 40
1.0
 10
34.0645006095
 20
95.6377774882
 30
0.0
 10
33.6727237189
 20
95.6860475097
 30
0.0
 10
32.8970402272
 20
95.756391934
 30
0.0
 10
31.7590595571
 20
95.8188425629
 30
0.0
 10
30.6864356977
 20
95.8597036269
 30
0.0
 10
29.711107448
 20
95.8928957256
 30
0.0
 10
28.8612157179
 20
95.9228956454
 30
0.0
 10
28.2428754494
 20
95.9446384255
 30
0.0
 10
27.828824884
 20
95.9512250315
 30
0.0
 10
27.5841223712
 20
95.9486905185
 30
0.0
 10
27.3857900473
 20
95.9359382774
 30
0.0
 10
27.2696618997
 20
95.9156793707
 30
0.0
 10
27.2211593746
 20
95.9002448922
 30
0.0
  0
SPLINE
  5
28C
100
AcDbEntity
  8
0
100
AcDbSpline
 62
7
  6
BYLAYER
 70
0
 71
3
 72
11
 73
7
 74
0
 42
0.0000001
 43
0.0000001
 44
0.0000000001
 40
0.0
 40
0.0
 40
0.0
 40
0.0
 40
0.2931990878
 40
0.5373441223
 40
0.7602855207
 40
1.0
 40
1.0
 40
1.0
 40
1.0
 10
27.2211593746
 20
95.9002448922
 30
0.0
 10
27.1975026731
 20
95.8927168543
 30
0.0
 10
27.1549100966
 20
95.8758719876
 30
0.0
 10
27.1020290024
 20
95.8371903631
 30
0.0
 10
27.0698736525
 20
95.7847324133
 30
0.0
 10
27.0645006095
 20
95.7448965234
 30
0.0
 10
27.0645006095
 20
95.7245995366
 30
0.0
  0
SPLINE
  5
28D
100
AcDbEntity
  8
0
100
AcDbSpline
 62
7
  6
BYLAYER
 70
0
 71
3
 72
16
 73
12
 74
0
 42
0.0000001
 43
0.0000001
 44
0.0000000001
 40
0.0
 40
0.0
 40
0.0
 40
0.0
 40
0.0534163584
 40
0.0873080717
 40
0.1266895076
 40
0.2228217681
 40
0.3422596831
 40
0.4832081639
 40
0.6425840321
 40
0.8164373394
 40
1.0
 40
1.0
 40
1.0
 40
1.0
 10
25.3013935875
 20
98.4340924681
 30
0.0
 10
25.3790039334
 20
98.3082378533
 30
0.0
 10
25.5717301016
 20
98.1451742856
 30
0.0
 10
25.8832666543
 20
97.9858314777
 30
0.0
 10
26.3261924949
 20
97.8268875954
 30
0.0
 10
27.0222109549
 20
97.6927063716
 30
0.0
 10
28.0084034369
 20
97.626325829
 30
0.0
 10
29.171310815
 20
97.6566733556
 30
0.0
 10
30.4784917563
 20
97.7850206751
 30
0.0
 10
31.8916102347
 20
98.012572068
 30
0.0
 10
32.8585431116
 20
98.2247437517
 30
0.0
 10
33.3518006318
 20
98.3467207961
 30
0.0
  0
SPLINE
  5
28E
100
AcDbEntity
  8
0
100
AcDbSpline
 62
7
  6
BYLAYER
 70
0
 71
3
 72
10
 73
6
 74
0
 42
0.0000001
 43
0.0000001
 44
0.0000000001
 40
0.0
 40
0.0
 40
0.0
 40
0.0
 40
0.2423441637
 40
0.4673583441
 40
1.0
 40
1.0
 40
1.0
 40
1.0
 10
137.6645006096
 20
95.7245995366
 30
0.0
 10
137.6645006096
 20
95.7445638438
 30
0.0
 10
137.6593450382
 20
95.7836923569
 30
0.0
 10
137.6158377919
 20
95.8562943237
 30
0.0
 10
137.5550294082
 20
95.8846828975
 30
0.0
 10
137.5133744918
 20
95.8984754798
 30
0.0
  0
SPLINE
  5
28F
100
AcDbEntity
  8
0
100
AcDbSpline
 62
7
  6
BYLAYER
 70
0
 71
3
 72
17
 73
13
 74
0
 42
0.0000001
 43
0.0000001
 44
0.0000000001
 40
0.0
 40
0.0
 40
0.0
 40
0.0
 40
0.022029408
 40
0.0507706173
 40
0.0863147228
 40
0.1284852226
 40
0.2314414232
 40
0.3566516164
 40
0.5004809289
 40
0.6587259373
 40
0.8269423581
 40
1.0
 40
1.0
 40
1.0
 40
1.0
 10
137.5133744918
 20
95.8984754798
 30
0.0
 10
137.4655365498
 20
95.9143153568
 30
0.0
 10
137.3504342933
 20
95.9351496348
 30
0.0
 10
137.153464971
 20
95.9483864854
 30
0.0
 10
136.9098357188
 20
95.9512919815
 30
0.0
 10
136.4966131616
 20
95.9449609226
 30
0.0
 10
135.8785518821
 20
95.9233108775
 30
0.0
 10
135.0281632931
 20
95.8932261992
 30
0.0
 10
134.0513141826
 20
95.8600098615
 30
0.0
 10
132.9762811221
 20
95.8191505147
 30
0.0
 10
131.835285142
 20
95.7566473032
 30
0.0
 10
131.057398243
 20
95.6861855941
 30
0.0
 10
130.6645006095
 20
95.6377774882
 30
0.0
  0
SPLINE
  5
290
100
AcDbEntity
  8
0
100
AcDbSpline
 62
7
  6
BYLAYER
 70
0
 71
3
 72
16
 73
12
 74
0
 42
0.0000001
 43
0.0000001
 44
0.0000000001
 40
0.0
 40
0.0
 40
0.0
 40
0.0
 40
0.1835520836
 40
0.3573922826
 40
0.5167680634
 40
0.6577236072
 40
0.7771737435
 40
0.8733080807
 40
0.9126890375
 40
0.9465812761
 40
1.0
 40
1.0
 40
1.0
 40
1.0
 10
131.3772005873
 20
98.3467207961
 30
0.0
 10
131.8704296291
 20
98.2247507941
 30
0.0
 10
132.8372973378
 20
98.0125850951
 30
0.0
 10
134.2503558594
 20
97.7850830688
 30
0.0
 10
135.5575099061
 20
97.6566570548
 30
0.0
 10
136.720473719
 20
97.6262789605
 30
0.0
 10
137.7067196237
 20
97.6927387911
 30
0.0
 10
138.4027771741
 20
97.8268973709
 30
0.0
 10
138.8457197267
 20
97.9858148732
 30
0.0
 10
139.1572609098
 20
98.1451643451
 30
0.0
 10
139.3499938578
 20
98.3082322945
 30
0.0
 10
139.4276076315
 20
98.4340924681
 30
0.0
  0
SPLINE
  5
291
100
AcDbEntity
  8
0
100
AcDbSpline
 62
7
  6
BYLAYER
 70
0
 71
3
 72
19
 73
15
 74
0
 42
0.0000001
 43
0.0000001
 44
0.0000000001
 40
0.0
 40
0.0
 40
0.0
 40
0.0
 40
0.0299182854
 40
0.0561987187
 40
0.0838521296
 40
0.1168429077
 40
0.1570841315
 40
0.2050930449
 40
0.2607450575
 40
0.3236213716
 40
0.4685659335
 40
0.6341270149
 40
0.8137006938
 40
1.0
 40
1.0
 40
1.0
 40
1.0
 10
27.0645006096
 20
113.10508289
 30
0.0
 10
27.064500512
 20
113.0309271714
 30
0.0
 10
27.0794612159
 20
112.8895814727
 30
0.0
 10
27.1828923559
 20
112.7018581419
 30
0.0
 10
27.3619774998
 20
112.5728463024
 30
0.0
 10
27.5998413587
 20
112.4903705695
 30
0.0
 10
27.8967120262
 20
112.4390906779
 30
0.0
 10
28.252787095
 20
112.4132790284
 30
0.0
 10
28.6657039519
 20
112.4086423081
 30
0.0
 10
29.3185798881
 20
112.4282396467
 30
0.0
 10
30.2417985138
 20
112.4988450282
 30
0.0
 10
31.4480956653
 20
112.6453123586
 30
0.0
 10
32.7457130246
 20
112.8760828325
 30
0.0
 10
33.6250649403
 20
113.1048148264
 30
0.0
 10
34.0645006095
 20
113.2466647946
 30
0.0
  0
SPLINE
  5
292
100
AcDbEntity
  8
0
100
AcDbSpline
 62
7
  6
BYLAYER
 70
0
 71
3
 72
19
 73
15
 74
0
 42
0.0000001
 43
0.0000001
 44
0.0000000001
 40
0.0
 40
0.0
 40
0.0
 40
0.0
 40
0.1882933026
 40
0.367645658
 40
0.5323160682
 40
0.6075114432
 40
0.6771523341
 40
0.797881478
 40
0.8482864224
 40
0.891730066
 40
0.9282061638
 40
0.9579108274
 40
0.9814158853
 40
1.0
 40
1.0
 40
1.0
 40
1.0
 10
34.197297157
 20
109.1764841297
 30
0.0
 10
33.6324243395
 20
109.2894901845
 30
0.0
 10
32.5243304386
 20
109.4851921224
 30
0.0
 10
30.9088582491
 20
109.6954960896
 30
0.0
 10
29.6298033219
 20
109.7988195143
 30
0.0
 10
28.6833360528
 20
109.8331575627
 30
0.0
 10
27.8708525739
 20
109.835709063
 30
0.0
 10
27.1338464575
 20
109.7993345825
 30
0.0
 10
26.4828933853
 20
109.7113838401
 30
0.0
 10
26.0920541563
 20
109.6304311801
 30
0.0
 10
25.7706263299
 20
109.532580288
 30
0.0
 10
25.5196916966
 20
109.4186981456
 30
0.0
 10
25.3391493731
 20
109.2906956377
 30
0.0
 10
25.2595284626
 20
109.1845272101
 30
0.0
 10
25.2379098075
 20
109.1319412923
 30
0.0
  0
SPLINE
  5
293
100
AcDbEntity
  8
0
100
AcDbSpline
 62
7
  6
BYLAYER
 70
0
 71
3
 72
13
 73
9
 74
0
 42
0.0000001
 43
0.0000001
 44
0.0000000001
 40
0.0
 40
0.0
 40
0.0
 40
0.0
 40
0.3189442499
 40
0.6148559105
 40
0.7381899618
 40
0.8416009383
 40
0.926764548
 40
1.0
 40
1.0
 40
1.0
 40
1.0
 10
30.7811374049
 20
126.7658486565
 30
0.0
 10
30.7643674255
 20
126.8815441411
 30
0.0
 10
30.750029707
 20
127.1073697602
 30
0.0
 10
30.7837376713
 20
127.3791589099
 30
0.0
 10
30.8517896507
 20
127.5592073483
 30
0.0
 10
30.9131447898
 20
127.6569603671
 30
0.0
 10
30.9857420735
 20
127.722061607
 30
0.0
 10
31.041088975
 20
127.7441062194
 30
0.0
 10
31.0674802108
 20
127.7490126008
 30
0.0
  0
SPLINE
  5
294
100
AcDbEntity
  8
0
100
AcDbSpline
 62
7
  6
BYLAYER
 70
0
 71
3
 72
21
 73
17
 74
0
 42
0.0000001
 43
0.0000001
 44
0.0000000001
 40
0.0
 40
0.0
 40
0.0
 40
0.0
 40
0.0012285602
 40
0.004864604
 40
0.0108926477
 40
0.019291036
 40
0.0431092426
 40
0.0761388848
 40
0.1181388412
 40
0.168627842
 40
0.2270644522
 40
0.2929071971
 40
0.444372033
 40
0.6173242252
 40
0.805316847
 40
1.0
 40
1.0
 40
1.0
 40
1.0
 10
130.8370989796
 20
128.2589738563
 30
0.0
 10
130.8375023587
 20
128.2589031516
 30
0.0
 10
130.8364850718
 20
128.2564618078
 30
0.0
 10
130.8368129598
 20
128.2536556089
 30
0.0
 10
130.8354460464
 20
128.2472580051
 30
0.0
 10
130.8337085965
 20
128.2349381187
 30
0.0
 10
130.8299061611
 20
128.2132903161
 30
0.0
 10
130.8244162742
 20
128.1809119725
 30
0.0
 10
130.8171594676
 20
128.1396628026
 30
0.0
 10
130.8084384061
 20
128.0901300062
 30
0.0
 10
130.7983094844
 20
128.0327549087
 30
0.0
 10
130.7823829618
 20
127.9422305837
 30
0.0
 10
130.760009975
 20
127.8140783263
 30
0.0
 10
130.7305518033
 20
127.6458313044
 30
0.0
 10
130.69827671
 20
127.4634515979
 30
0.0
 10
130.6759055174
 20
127.3378673161
 30
0.0
 10
130.6645007619
 20
127.2739815427
 30
0.0
  0
SPLINE
  5
295
100
AcDbEntity
  8
0
100
AcDbSpline
 62
7
  6
BYLAYER
 70
0
 71
3
 72
21
 73
17
 74
0
 42
0.0000001
 43
0.0000001
 44
0.0000000001
 40
0.0
 40
0.0
 40
0.0
 40
0.0
 40
0.1946867036
 40
0.382682702
 40
0.555638068
 40
0.7071057764
 40
0.7729497902
 40
0.8313875528
 40
0.881877596
 40
0.9238784476
 40
0.9569086396
 40
0.9807265934
 40
0.9891242305
 40
0.9951507196
 40
0.9987834109
 40
1.0
 40
1.0
 40
1.0
 40
1.0
 10
34.0645004474
 20
127.273981541
 30
0.0
 10
34.0531153805
 20
127.3378707492
 30
0.0
 10
34.0307817823
 20
127.4634615532
 30
0.0
 10
33.9985357391
 20
127.6458461414
 30
0.0
 10
33.9690518554
 20
127.8140884663
 30
0.0
 10
33.9466688356
 20
127.9422389019
 30
0.0
 10
33.9307908525
 20
128.0327716698
 30
0.0
 10
33.9206990489
 20
128.0901534705
 30
0.0
 10
33.9119994091
 20
128.1396896716
 30
0.0
 10
33.9047107679
 20
128.1809344409
 30
0.0
 10
33.8991583543
 20
128.2132985635
 30
0.0
 10
33.8951781276
 20
128.2349216156
 30
0.0
 10
33.8933700574
 20
128.2472203285
 30
0.0
 10
33.8917816486
 20
128.2535931087
 30
0.0
 10
33.8922184144
 20
128.2563902339
 30
0.0
 10
33.890895392
 20
128.2587973735
 30
0.0
 10
33.8912948327
 20
128.2588673887
 30
0.0
  0
SPLINE
  5
296
100
AcDbEntity
  8
0
100
AcDbSpline
 62
7
  6
BYLAYER
 70
0
 71
3
 72
19
 73
15
 74
0
 42
0.0000001
 43
0.0000001
 44
0.0000000001
 40
0.0
 40
0.0
 40
0.0
 40
0.0
 40
0.1862649806
 40
0.3658078841
 40
0.531374018
 40
0.6763325156
 40
0.7392226906
 40
0.7948836648
 40
0.8429018707
 40
0.8831469362
 40
0.9161443178
 40
0.943803228
 40
0.9700837262
 40
1.0
 40
1.0
 40
1.0
 40
1.0
 10
130.6645006095
 20
113.2466647946
 30
0.0
 10
131.1038525982
 20
113.1048418303
 30
0.0
 10
131.9830648588
 20
112.8762437549
 30
0.0
 10
133.2804984732
 20
112.6453561865
 30
0.0
 10
134.4867605758
 20
112.4988848185
 30
0.0
 10
135.4100550959
 20
112.4282737775
 30
0.0
 10
136.0630155417
 20
112.4086582571
 30
0.0
 10
136.4760122489
 20
112.4132000949
 30
0.0
 10
136.8321360452
 20
112.4390778121
 30
0.0
 10
137.1290532506
 20
112.4903544926
 30
0.0
 10
137.3669530488
 20
112.5728515075
 30
0.0
 10
137.5460532535
 20
112.7018850701
 30
0.0
 10
137.6495254326
 20
112.8895901414
 30
0.0
 10
137.6645006095
 20
113.0309326151
 30
0.0
 10
137.6645006095
 20
113.10508289
 30
0.0
  0
SPLINE
  5
297
100
AcDbEntity
  8
0
100
AcDbSpline
 62
7
  6
BYLAYER
 70
0
 71
3
 72
18
 73
14
 74
0
 42
0.0000001
 43
0.0000001
 44
0.0000000001
 40
0.0
 40
0.0
 40
0.0
 40
0.0
 40
0.0185817042
 40
0.0420719071
 40
0.0717496055
 40
0.1081957294
 40
0.151631513
 40
0.2020224586
 40
0.3227045766
 40
0.4675072647
 40
0.6321941674
 40
0.8116391816
 40
1.0
 40
1.0
 40
1.0
 40
1.0
 10
139.4910914115
 20
109.1319412923
 30
0.0
 10
139.4694759836
 20
109.1845193603
 30
0.0
 10
139.3899485675
 20
109.2906800828
 30
0.0
 10
139.2095108766
 20
109.4186189167
 30
0.0
 10
138.9587192232
 20
109.5322576066
 30
0.0
 10
138.6375289976
 20
109.6301539184
 30
0.0
 10
138.2468885722
 20
109.7112312296
 30
0.0
 10
137.5962112906
 20
109.7996759025
 30
0.0
 10
136.6293993539
 20
109.8467511029
 30
0.0
 10
135.3130397645
 20
109.8159251472
 30
0.0
 10
133.821298025
 20
109.6957712276
 30
0.0
 10
132.2053280119
 20
109.4852606926
 30
0.0
 10
131.0967683639
 20
109.289528492
 30
0.0
 10
130.5317040621
 20
109.1764841297
 30
0.0
  0
SPLINE
  5
298
100
AcDbEntity
  8
0
100
AcDbSpline
 62
7
  6
BYLAYER
 70
0
 71
3
 72
22
 73
18
 74
0
 42
0.0000001
 43
0.0000001
 44
0.0000000001
 40
0.0
 40
0.0
 40
0.0
 40
0.0
 40
0.2150518599
 40
0.4107731654
 40
0.5831549765
 40
0.7290907856
 40
0.7912636255
 40
0.8457964752
 40
0.8924037678
 40
0.9308745949
 40
0.9610047868
 40
0.9728832728
 40
0.9826208667
 40
0.9902094525
 40
0.995640914
 40
0.9989071351
 40
1.0
 40
1.0
 40
1.0
 40
1.0
 10
30.7812722359
 20
126.7658702633
 30
0.0
 10
30.5146206726
 20
126.7234037104
 30
0.0
 10
30.0053761988
 20
126.6417221465
 30
0.0
 10
29.2826685445
 20
126.5242635271
 30
0.0
 10
28.6458126968
 20
126.4195287115
 30
0.0
 10
28.174527895
 20
126.3413123696
 30
0.0
 10
27.8492688651
 20
126.2869900588
 30
0.0
 10
27.6470421815
 20
126.2530798382
 30
0.0
 10
27.4741807008
 20
126.2239918481
 30
0.0
 10
27.3315520364
 20
126.1998984136
 30
0.0
 10
27.2319098872
 20
126.1830717352
 30
0.0
 10
27.1678664158
 20
126.1721835931
 30
0.0
 10
27.131677419
 20
126.1661628886
 30
0.0
 10
27.1035947122
 20
126.1611375948
 30
0.0
 10
27.0832288643
 20
126.1583029461
 30
0.0
 10
27.0714685347
 20
126.1552291479
 30
0.0
 10
27.0656994344
 20
126.1553715689
 30
0.0
 10
27.0645006095
 20
126.1547039946
 30
0.0
  0
SPLINE
  5
299
100
AcDbEntity
  8
0
100
AcDbSpline
 62
7
  6
BYLAYER
 70
0
 71
3
 72
13
 73
9
 74
0
 42
0.0000001
 43
0.0000001
 44
0.0000000001
 40
0.0
 40
0.0
 40
0.0
 40
0.0
 40
0.3513353814
 40
0.6338328179
 40
0.7480989403
 40
0.8452081811
 40
0.927582177
 40
1.0
 40
1.0
 40
1.0
 40
1.0
 10
28.9096196853
 20
127.3392303042
 30
0.0
 10
28.6435334319
 20
127.2876252111
 30
0.0
 10
28.1707616442
 20
127.1531070036
 30
0.0
 10
27.6473297782
 20
126.8987355787
 30
0.0
 10
27.3430557662
 20
126.6672986656
 30
0.0
 10
27.1872208184
 20
126.5007866955
 30
0.0
 10
27.089007544
 20
126.330530432
 30
0.0
 10
27.0645091405
 20
126.2105720135
 30
0.0
 10
27.0645006095
 20
126.1547039325
 30
0.0
  0
ELLIPSE
  5
29A
100
AcDbEntity
  8
0
100
AcDbEllipse
 62
7
  6
BYLAYER
 10
35.2145006095
 20
128.6402173913
 30
0.0
 11
0.0
 21
19.5652173913
 31
0.0
 40
0.5111111111
 41
-3.2434892379
 42
-3.1415926536
  0
ELLIPSE
  5
29B
100
AcDbEntity
  8
0
100
AcDbEllipse
 62
7
  6
BYLAYER
 10
129.5145006095
 20
128.6402173913
 30
0.0
 11
0.0
 21
19.5652173913
 31
0.0
 40
0.5111111111
 41
-3.1415926536
 42
-3.0396960693
  0
ELLIPSE
  5
29C
100
AcDbEntity
  8
0
100
AcDbEllipse
 62
7
  6
BYLAYER
 10
82.3645006095
 20
181.855
 30
0.0
 11
26.0
 21
0.0
 31
0.0
 40
0.88
 41
-1.6903114156
 42
-1.451281238
  0
ELLIPSE
  5
29D
100
AcDbEntity
  8
0
100
AcDbEllipse
 62
7
  6
BYLAYER
 10
28.6776729413
 20
112.0107027577
 30
0.0
 11
9.6046008551
 21
-15.5750284137
 31
0.0
 40
0.5464971537
 41
-0.4124829606
 42
-0.3250528237
  0
ELLIPSE
  5
29E
100
AcDbEntity
  8
0
100
AcDbEllipse
 62
7
  6
BYLAYER
 10
136.0513282778
 20
112.0107027577
 30
0.0
 11
-9.6046008551
 21
-15.5750284137
 31
0.0
 40
0.5464971537
 41
0.3250528237
 42
0.4124829606
  0
ELLIPSE
  5
29F
100
AcDbEntity
  8
0
100
AcDbEllipse
 62
7
  6
BYLAYER
 10
35.2145006095
 20
85.5315217391
 30
0.0
 11
0.0
 21
13.0434782609
 31
0.0
 40
0.7666666667
 41
0.0
 42
0.1873643248
  0
ELLIPSE
  5
2A0
100
AcDbEntity
  8
0
100
AcDbEllipse
 62
7
  6
BYLAYER
 10
129.5145006095
 20
85.5315217391
 30
0.0
 11
-0.0
 21
13.0434782609
 31
0.0
 40
0.7666666667
 41
-0.1873643248
 42
0.0
  0
ELLIPSE
  5
2A1
100
AcDbEntity
  8
0
100
AcDbEllipse
 62
7
  6
BYLAYER
 10
135.8856173244
 20
91.6023412722
 30
0.0
 11
-8.8969234357
 21
21.6411651138
 31
0.0
 40
0.4273756877
 41
-0.3470148001
 42
-0.1739237121
  0
ELLIPSE
  5
2A2
100
AcDbEntity
  8
0
100
AcDbEllipse
 62
7
  6
BYLAYER
 10
28.8433838947
 20
91.6023412722
 30
0.0
 11
8.8969234357
 21
21.6411651138
 31
0.0
 40
0.4273756877
 41
0.1739237121
 42
0.3470148001
  0
ENDSEC
  0
SECTION
  2
OBJECTS
  0
DICTIONARY
  5
C
100
AcDbDictionary
280
0
281
1
  3
ACAD_GROUP
350
D
  3
ACAD_MLINESTYLE
350
17
  3
ACAD_LAYOUT
350
1A
  3
ACAD_PLOTSETTINGS
350
19
  3
ACAD_PLOTSTYLENAME
350
E
  0
DICTIONARY
  5
D
102
{ACAD_REACTORS
330
C
102
}
100
AcDbDictionary
280
0
281
1
  0
ACDBDICTIONARYWDFLT
  5
E
102
{ACAD_REACTORS
330
C
102
}
100
AcDbDictionary
281
1
  3
Normal
350
F
100
AcDbDictionaryWithDefault
340
F
  0
DICTIONARY
  5
17
102
{ACAD_REACTORS
330
C
102
}
100
AcDbDictionary
280
0
281
1
  3
Standard
350
18
  0
DICTIONARY
  5
19
102
{ACAD_REACTORS
330
C
102
}
100
AcDbDictionary
281
1
  0
DICTIONARY
  5
1A
102
{ACAD_REACTORS
330
C
102
}
100
AcDbDictionary
281
1
  3
Model
350
2A3
  3
Layout1
350
2A4
  0
ACDBPLACEHOLDER
  5
F
102
{ACAD_REACTORS
330
E
102
}
  0
MLINESTYLE
  5
18
102
{ACAD_REACTORS
330
17
102
}
100
AcDbMlineStyle
  2
STANDARD
 70
0
  3

 62
256
 51
90.0
 52
90.0
 71
2
 49
0.5
 62
256
  6
BYLAYER
 49
-0.5
 62
256
  6
BYLAYER
  0
LAYOUT
  5
2A3
102
{ACAD_REACTORS
330
1A
102
}
100
AcDbPlotSettings
  1

  2
none_device
  4

  6

 40
0.0
 41
0.0
 42
0.0
 43
0.0
 44
210.0
 45
297.0
 46
0.0
 47
0.0
 48
0.0
 49
0.0
140
0.0
141
0.0
142
1.0
143
1.0
 70
1024
 72
1
 73
0
 74
0
  7

 75
0
147
1.0
148
0.0
149
0.0
100
AcDbLayout
  1
Model
 70
0
 71
0
 10
0.0
 20
0.0
 11
210.0
 21
297.0
 12
0.0
 22
0.0
 32
0.0
 14
0.0
 24
0.0
 34
0.0
 15
0.0
 25
0.0
 35
0.0
146
0.0
 13
0.0
 23
0.0
 33
0.0
 16
1.0
 26
0.0
 36
0.0
 17
0.0
 27
1.0
 37
0.0
 76
0
330
210
345
0
346
0
  0
LAYOUT
  5
2A4
102
{ACAD_REACTORS
330
1A
102
}
100
AcDbPlotSettings
  1

  2
none_device
  4

  6

 40
0.0
 41
0.0
 42
0.0
 43
0.0
 44
210.0
 45
297.0
 46
0.0
 47
0.0
 48
0.0
 49
0.0
140
0.0
141
0.0
142
1.0
143
1.0
 70
0
 72
1
 73
0
 74
0
  7

 75
0
147
1.0
148
0.0
149
0.0
100
AcDbLayout
  1
Layout1
 70
0
 71
1
 10
0.0
 20
0.0
 11
210.0
 21
297.0
 12
0.0
 22
0.0
 32
0.0
 14
0.0
 24
0.0
 34
0.0
 15
0.0
 25
0.0
 35
0.0
146
0.0
 13
0.0
 23
0.0
 33
0.0
 16
1.0
 26
0.0
 36
0.0
 17
0.0
 27
1.0
 37
0.0
 76
0
330
211
345
0
346
0
  0
ENDSEC
  0
EOF
