999
DXF file: C:\Users\sesa63760\Dev\_Creo\CAD\MCADID0003479_3D-CAD\drw0001_1.dxf
999
Pro/ENGINEER 2019471 by Parametric Technology Corporation
  0
SECTION
  2
HEADER
  9
$ACADVER
  1
AC1024
  9
$DWGCODEPAGE
  3
ANSI_1252
  9
$EXTMAX
 10
69.960160802
 20
98.9436559915
 30
0.0
  9
$EXTMIN
 10
0.0
 20
0.0
 30
0.0
  9
$LIMMIN
 10
0.0
 20
0.0
  9
$LIMMAX
 10
69.960160802
 20
98.9436559915
  9
$VIEWCTR
 10
34.980080401
 20
49.4718279957
  9
$VIEWSIZE
 40
98.9436559915
  9
$CLAYER
  8
0
  9
$LTSCALE
 40
6.4496605387
  9
$CELTYPE
  6
BYLAYER
  9
$DIMSCALE
 40
1.0
  9
$DIMASZ
 40
0.8328590572
  9
$DIMEXO
 40
1.0
  9
$DIMDLI
 40
4.4561290995
  9
$DIMEXE
 40
1.0
  9
$DIMCEN
 40
1.0553989972
  9
$DIMLFAC
 40
1.0
  9
$DIMBLK
  1
_FILLED
  9
$DIMALT
 70
0
  9
$DIMALTF
 40
0.0393700787
  9
$DIMTXT
 40
1.16600268
  9
$DIMTOL
 70
1
  9
$DIMLIM
 70
0
  9
$DIMTFAC
 40
1.0
  9
$DIMTP
 40
0.01
  9
$DIMTM
 40
0.01
  9
$DIMGAP
 40
0.625
  9
$DIMDSEP
 70
46
  9
$AUNITS
 70
0
  9
$PDMODE
 70
3
  9
$PDSIZE
 40
0.3125
  9
$HANDSEED
  5
2FF
  9
$TILEMODE
 70
1
  9
$MEASUREMENT
 70
1
  9
$INSUNITS
 70
4
  0
ENDSEC
  0
SECTION
  2
CLASSES
  0
CLASS
  1
ACDBDICTIONARYWDFLT
  2
AcDbDictionaryWithDefault
  3
AutoCAD 2000
 90
0
 91
1
280
0
281
0
  0
CLASS
  1
ACDBPLACEHOLDER
  2
AcDbPlaceHolder
  3
AutoCAD 2000
 90
0
 91
1
280
0
281
0
  0
CLASS
  1
LAYOUT
  2
AcDbLayout
  3
AutoCAD 2000
 90
0
 91
0
280
0
281
0
  0
ENDSEC
  0
SECTION
  2
TABLES
  0
TABLE
  2
VPORT
  5
8
100
AcDbSymbolTable
 70
2
  0
VPORT
  5
1F4
100
AcDbSymbolTableRecord
100
AcDbViewportTableRecord
  2
*ACTIVE
 70
0
 10
0.0
 20
0.0
 11
1.0
 21
1.0
 12
34.980080401
 22
49.4718279957
 13
0.0
 23
0.0
 14
1.0
 24
1.0
 15
0.0
 25
0.0
 16
0.0
 26
0.0
 36
1.0
 17
0.0
 27
0.0
 37
0.0
 40
98.9436559915
 41
0.7070707071
 42
50.0
 43
0.0
 44
0.0
 50
0.0
 51
0.0
 71
0
 72
100
 73
1
 74
1
 75
0
 76
0
 77
0
 78
0
  0
ENDTAB
  0
TABLE
  2
LTYPE
  5
5
100
AcDbSymbolTable
 70
6
  0
LTYPE
  5
14
100
AcDbSymbolTableRecord
100
AcDbLinetypeTableRecord
  2
BYBLOCK
 70
0
  3

 72
65
 73
0
 40
0.0
  0
LTYPE
  5
15
100
AcDbSymbolTableRecord
100
AcDbLinetypeTableRecord
  2
BYLAYER
 70
0
  3

 72
65
 73
0
 40
0.0
  0
LTYPE
  5
16
100
AcDbSymbolTableRecord
100
AcDbLinetypeTableRecord
  2
CONTINUOUS
 70
64
  3
Solid line
 72
65
 73
0
 40
0.0
  0
LTYPE
  5
1F5
100
AcDbSymbolTableRecord
100
AcDbLinetypeTableRecord
  2
CENTER
 70
64
  3
____ _ ____ _ ____ _ ____ _ ____ _ ____ _ ____
 72
65
 73
4
 40
0.6
 49
0.375
 74
0
 49
-0.075
 74
0
 49
0.075
 74
0
 49
-0.075
 74
0
  0
LTYPE
  5
1F6
100
AcDbSymbolTableRecord
100
AcDbLinetypeTableRecord
  2
HIDDEN
 70
64
  3
- - - - - - - - - - - - - - - - - - - -
 72
65
 73
2
 40
0.2
 49
0.1
 74
0
 49
-0.1
 74
0
  0
LTYPE
  5
1F7
100
AcDbSymbolTableRecord
100
AcDbLinetypeTableRecord
  2
PHANTOM
 70
64
  3
_____ _ _ _____ _ _ _____ _ _ _____
 72
65
 73
6
 40
0.8
 49
0.45
 74
0
 49
-0.05
 74
0
 49
0.1
 74
0
 49
-0.05
 74
0
 49
0.1
 74
0
 49
-0.05
 74
0
  0
LTYPE
  5
1F8
100
AcDbSymbolTableRecord
100
AcDbLinetypeTableRecord
  2
DOT
 70
64
  3
. . . . . . . . . . . . . . . . . . . .
 72
65
 73
2
 40
0.2
 49
0.1
 74
0
 49
-0.1
 74
0
  0
LTYPE
  5
1F9
100
AcDbSymbolTableRecord
100
AcDbLinetypeTableRecord
  2
DASHED
 70
64
  3
- - - - - - - - - - - - - - - - - - - -
 72
65
 73
2
 40
0.2
 49
0.1
 74
0
 49
-0.1
 74
0
  0
ENDTAB
  0
TABLE
  2
LAYER
  5
2
100
AcDbSymbolTable
 70
36
  0
LAYER
  5
10
100
AcDbSymbolTableRecord
100
AcDbLayerTableRecord
  2
0
 70
0
 62
7
  6
CONTINUOUS
370
-3
390
F
  0
LAYER
  5
1FA
100
AcDbSymbolTableRecord
100
AcDbLayerTableRecord
  2
DEFAULT_1
 70
0
 62
7
  6
CENTER
370
-3
390
F
  0
LAYER
  5
1FB
100
AcDbSymbolTableRecord
100
AcDbLayerTableRecord
  2
DEFAULT_2
 70
0
 62
7
  6
HIDDEN
370
-3
390
F
  0
LAYER
  5
1FC
100
AcDbSymbolTableRecord
100
AcDbLayerTableRecord
  2
DEFAULT_3
 70
0
 62
7
  6
PHANTOM
370
-3
390
F
  0
LAYER
  5
1FD
100
AcDbSymbolTableRecord
100
AcDbLayerTableRecord
  2
00_COMPONENTS
 70
0
 62
7
  6
CONTINUOUS
370
-3
390
F
  0
LAYER
  5
1FE
100
AcDbSymbolTableRecord
100
AcDbLayerTableRecord
  2
01_1_DEFAULT_DATUMS
 70
0
 62
7
  6
CONTINUOUS
370
-3
390
F
  0
LAYER
  5
1FF
100
AcDbSymbolTableRecord
100
AcDbLayerTableRecord
  2
01_PLANES
 70
0
 62
7
  6
CONTINUOUS
370
-3
390
F
  0
LAYER
  5
200
100
AcDbSymbolTableRecord
100
AcDbLayerTableRecord
  2
02_COORD_SYS
 70
0
 62
7
  6
CONTINUOUS
370
-3
390
F
  0
LAYER
  5
201
100
AcDbSymbolTableRecord
100
AcDbLayerTableRecord
  2
03_AXES
 70
0
 62
7
  6
CONTINUOUS
370
-3
390
F
  0
LAYER
  5
202
100
AcDbSymbolTableRecord
100
AcDbLayerTableRecord
  2
04_POINTS
 70
0
 62
7
  6
CONTINUOUS
370
-3
390
F
  0
LAYER
  5
203
100
AcDbSymbolTableRecord
100
AcDbLayerTableRecord
  2
05_CURVES
 70
0
 62
7
  6
CONTINUOUS
370
-3
390
F
  0
LAYER
  5
204
100
AcDbSymbolTableRecord
100
AcDbLayerTableRecord
  2
06_SURFS
 70
0
 62
7
  6
CONTINUOUS
370
-3
390
F
  0
LAYER
  5
205
100
AcDbSymbolTableRecord
100
AcDbLayerTableRecord
  2
07_COSMETICS
 70
0
 62
7
  6
CONTINUOUS
370
-3
390
F
  0
LAYER
  5
206
100
AcDbSymbolTableRecord
100
AcDbLayerTableRecord
  2
10_NOTES
 70
0
 62
7
  6
CONTINUOUS
370
-3
390
F
  0
LAYER
  5
207
100
AcDbSymbolTableRecord
100
AcDbLayerTableRecord
  2
11_NOTES_PUB
 70
0
 62
7
  6
CONTINUOUS
370
-3
390
F
  0
LAYER
  5
208
100
AcDbSymbolTableRecord
100
AcDbLayerTableRecord
  2
13_REF_GTOL
 70
0
 62
7
  6
CONTINUOUS
370
-3
390
F
  0
LAYER
  5
209
100
AcDbSymbolTableRecord
100
AcDbLayerTableRecord
  2
16_MISC
 70
0
 62
7
  6
CONTINUOUS
370
-3
390
F
  0
LAYER
  5
20A
100
AcDbSymbolTableRecord
100
AcDbLayerTableRecord
  2
17_NO_PRINT
 70
0
 62
7
  6
CONTINUOUS
370
-3
390
F
  0
LAYER
  5
20B
100
AcDbSymbolTableRecord
100
AcDbLayerTableRecord
  2
18_DATUM_CAMS_JOINTS
 70
0
 62
7
  6
CONTINUOUS
370
-3
390
F
  0
LAYER
  5
20C
100
AcDbSymbolTableRecord
100
AcDbLayerTableRecord
  2
19_DATUM_FUNCTIONAL
 70
0
 62
7
  6
CONTINUOUS
370
-3
390
F
  0
LAYER
  5
20D
100
AcDbSymbolTableRecord
100
AcDbLayerTableRecord
  2
20_DATUM_KINEMATIC_SCHEME
 70
0
 62
7
  6
CONTINUOUS
370
-3
390
F
  0
ENDTAB
  0
TABLE
  2
STYLE
  5
3
100
AcDbSymbolTable
 70
1
  0
STYLE
  5
11
100
AcDbSymbolTableRecord
100
AcDbTextStyleTableRecord
  2
STANDARD
 70
0
 40
0.0
 41
1.0
 50
0.0
 71
0
 42
0.2
  3
ARIAL.TTF
  4

  0
STYLE
  5
20E
100
AcDbSymbolTableRecord
100
AcDbTextStyleTableRecord
  2
TEXTSTYLE_1
 70
0
 40
0.0
 41
0.8
 50
0.0
 71
0
 42
0.2
  3
gdt
  4

  0
ENDTAB
  0
TABLE
  2
VIEW
  5
6
100
AcDbSymbolTable
 70
0
  0
ENDTAB
  0
TABLE
  2
UCS
  5
7
100
AcDbSymbolTable
 70
0
  0
ENDTAB
  0
TABLE
  2
APPID
  5
9
100
AcDbSymbolTable
 70
1
  0
APPID
  5
20F
100
AcDbSymbolTableRecord
100
AcDbRegAppTableRecord
  2
ACAD
 70
0
  0
ENDTAB
  0
TABLE
  2
BLOCK_RECORD
  5
1
100
AcDbSymbolTable
 70
0
  0
BLOCK_RECORD
  5
210
100
AcDbSymbolTableRecord
100
AcDbBlockTableRecord
  2
*Model_Space
  0
BLOCK_RECORD
  5
211
100
AcDbSymbolTableRecord
100
AcDbBlockTableRecord
  2
*Paper_Space
  0
BLOCK_RECORD
  5
212
100
AcDbSymbolTableRecord
100
AcDbBlockTableRecord
  2
_FILLED
  0
ENDTAB
  0
TABLE
  2
DIMSTYLE
  5
A
100
AcDbSymbolTable
 70
1
100
AcDbDimStyleTable
 71
0
  0
DIMSTYLE
105
213
100
AcDbSymbolTableRecord
100
AcDbDimStyleTableRecord
  2
STANDARD
 70
0
  3

  4

 40
1.0
 41
0.8328590572
 42
1.0
 43
0.38
 44
1.0
 45
0.0
 46
0.0
 47
0.01
 48
0.01
140
1.16600268
141
0.09
142
0.0
143
25.4
144
1.0
145
0.0
146
1.0
147
0.625
 71
1
 72
0
 73
0
 74
0
 75
0
 76
0
 77
1
 78
8
 79
2
170
0
171
1
172
0
173
0
174
0
175
0
176
0
177
0
178
0
270
2
179
2
271
2
272
2
273
2
274
2
275
0
280
0
281
0
282
0
283
1
284
8
285
0
286
0
287
3
288
0
340
11
278
46
341
212
342
212
343
212
344
212
  0
ENDTAB
  0
ENDSEC
  0
SECTION
  2
BLOCKS
  0
BLOCK
  5
20
100
AcDbEntity
  8
0
100
AcDbBlockBegin
  2
*Model_Space
 70
0
 10
0.0
 20
0.0
 30
0.0
  3
*Model_Space
  1

  0
ENDBLK
  5
21
100
AcDbEntity
  8
0
100
AcDbBlockEnd
  0
BLOCK
  5
1C
100
AcDbEntity
  8
0
100
AcDbBlockBegin
  2
*Paper_Space
 70
0
 10
0.0
 20
0.0
 30
0.0
  3
*Paper_Space
  1

  0
ENDBLK
  5
1D
100
AcDbEntity
  8
0
100
AcDbBlockEnd
  0
BLOCK
  5
214
100
AcDbEntity
  8
0
100
AcDbBlockBegin
  2
_FILLED
 70
64
 10
0.0
 20
0.0
  3
_FILLED
  1

  0
SOLID
  5
215
100
AcDbEntity
  8
0
  6
BYBLOCK
 62
0
100
AcDbTrace
 10
0.0
 20
0.0
 11
-1.0
 21
0.25
 12
-1.0
 22
-0.25
 13
-1.0
 23
-0.25
  0
ENDBLK
  5
216
100
AcDbEntity
  8
0
  6
BYBLOCK
 62
0
100
AcDbBlockEnd
  0
ENDSEC
  0
SECTION
  2
ENTITIES
  0
LINE
  5
217
100
AcDbEntity
  8
0
100
AcDbLine
 62
7
  6
BYLAYER
 10
35.7785987881
 20
91.2939911691
 11
33.3037353578
 21
89.8651366305
  0
LINE
  5
218
100
AcDbEntity
  8
0
100
AcDbLine
 62
7
  6
BYLAYER
 10
14.3101917331
 20
19.8838135343
 11
35.5234834875
 21
7.6365908987
  0
LINE
  5
219
100
AcDbEntity
  8
0
100
AcDbLine
 62
7
  6
BYLAYER
 10
35.5234834875
 20
9.2695957329
 11
14.3101917331
 21
21.5168183685
  0
LINE
  5
21A
100
AcDbEntity
  8
0
100
AcDbLine
 62
7
  6
BYLAYER
 10
35.5234834875
 20
9.3512459746
 11
14.3101917331
 21
21.5984686103
  0
LINE
  5
21B
100
AcDbEntity
  8
0
100
AcDbLine
 62
7
  6
BYLAYER
 10
39.4124559693
 20
91.0828058571
 11
38.8779863396
 21
90.7742315145
  0
LINE
  5
21C
100
AcDbEntity
  8
0
100
AcDbLine
 62
7
  6
BYLAYER
 10
34.8162810274
 20
88.429218857
 11
32.6949695158
 21
87.2044863954
  0
LINE
  5
21D
100
AcDbEntity
  8
0
100
AcDbLine
 62
7
  6
BYLAYER
 10
31.4953298046
 20
84.1030444134
 11
19.613485232
 21
77.2430991993
  0
LINE
  5
21E
100
AcDbEntity
  8
0
100
AcDbLine
 62
7
  6
BYLAYER
 10
41.8873400073
 20
89.6539632163
 11
40.6902377957
 21
88.9628200577
  0
LINE
  5
21F
100
AcDbEntity
  8
0
100
AcDbLine
 62
7
  6
BYLAYER
 10
37.2911650654
 20
87.0003762162
 11
35.1698535538
 21
85.7756437545
  0
LINE
  5
220
100
AcDbEntity
  8
0
100
AcDbLine
 62
7
  6
BYLAYER
 10
38.1397667799
 20
10.8617477758
 11
38.2104780689
 21
10.8209235176
  0
LINE
  5
221
100
AcDbEntity
  8
0
100
AcDbLine
 62
7
  6
BYLAYER
 10
19.613485232
 20
73.5688383222
 11
19.6240918801
 21
73.5749620368
  0
LINE
  5
222
100
AcDbEntity
  8
0
100
AcDbLine
 62
7
  6
BYLAYER
 10
35.1698535538
 20
82.3463336026
 11
37.1143891061
 21
83.4690050257
  0
LINE
  5
223
100
AcDbEntity
  8
0
100
AcDbLine
 62
7
  6
BYLAYER
 10
17.8457109192
 20
71.32343054
 11
19.613485232
 21
72.3440494231
  0
LINE
  5
224
100
AcDbEntity
  8
0
100
AcDbLine
 62
7
  6
BYLAYER
 10
41.2785741653
 20
81.7676975115
 11
39.7139808456
 21
80.8643845293
  0
LINE
  5
225
100
AcDbEntity
  8
0
100
AcDbLine
 62
7
  6
BYLAYER
 10
24.5632533081
 20
70.7111530406
 11
24.5703243464
 21
70.7152354821
  0
LINE
  5
226
100
AcDbEntity
  8
0
100
AcDbLine
 62
7
  6
BYLAYER
 10
19.1538639107
 20
67.3021754756
 11
20.672911217
 21
68.1791926117
  0
LINE
  5
227
100
AcDbEntity
  8
0
100
AcDbLine
 62
7
  6
BYLAYER
 10
21.6589697038
 20
67.115485512
 11
19.1538639107
 21
65.6691706413
  0
LINE
  5
228
100
AcDbEntity
  8
0
100
AcDbLine
 62
7
  6
BYLAYER
 10
14.3101917331
 20
57.842230898
 11
14.3101917331
 21
21.5984686103
  0
LINE
  5
229
100
AcDbEntity
  8
0
100
AcDbLine
 62
7
  6
BYLAYER
 10
14.3101917331
 20
21.5168183685
 11
14.3101917331
 21
19.8838135343
  0
LINE
  5
22A
100
AcDbEntity
  8
0
100
AcDbLine
 62
7
  6
BYLAYER
 10
16.9971863145
 20
59.8107549241
 11
16.9971863145
 21
59.3345846318
  0
LINE
  5
22B
100
AcDbEntity
  8
0
100
AcDbLine
 62
7
  6
BYLAYER
 10
32.2540878173
 20
86.2750378023
 11
31.852575682
 21
85.472594153
  0
LINE
  5
22C
100
AcDbEntity
  8
0
100
AcDbLine
 62
7
  6
BYLAYER
 10
24.5632533081
 20
67.445143372
 11
24.5703243464
 21
67.4492258136
  0
LINE
  5
22D
100
AcDbEntity
  8
0
100
AcDbLine
 62
7
  6
BYLAYER
 10
20.6741498198
 20
63.0359728223
 11
22.7569531306
 21
64.2384726965
  0
LINE
  5
22E
100
AcDbEntity
  8
0
100
AcDbLine
 62
7
  6
BYLAYER
 10
17.8457109192
 20
71.32343054
 11
17.8457109192
 21
60.3006479087
  0
LINE
  5
22F
100
AcDbEntity
  8
0
100
AcDbLine
 62
7
  6
BYLAYER
 10
19.1538639107
 20
67.3021754756
 11
19.1538639107
 21
65.6691706413
  0
LINE
  5
230
100
AcDbEntity
  8
0
100
AcDbLine
 62
7
  6
BYLAYER
 10
19.613485232
 20
73.5688383222
 11
19.613485232
 21
70.3028286537
  0
LINE
  5
231
100
AcDbEntity
  8
0
100
AcDbLine
 62
7
  6
BYLAYER
 10
19.613485232
 20
76.0183455736
 11
19.613485232
 21
77.2430991993
  0
LINE
  5
232
100
AcDbEntity
  8
0
100
AcDbLine
 62
7
  6
BYLAYER
 10
19.6276273677
 20
73.5688383562
 11
19.6276273677
 21
76.0183456076
  0
LINE
  5
233
100
AcDbEntity
  8
0
100
AcDbLine
 62
7
  6
BYLAYER
 10
24.2618419383
 20
61.1105724044
 11
24.6193625996
 21
61.3715440434
  0
LINE
  5
234
100
AcDbEntity
  8
0
100
AcDbLine
 62
7
  6
BYLAYER
 10
22.9015585894
 20
63.505471891
 11
21.3812595449
 21
62.6277320678
  0
LINE
  5
235
100
AcDbEntity
  8
0
100
AcDbLine
 62
7
  6
BYLAYER
 10
17.8457109192
 20
60.3006479087
 11
16.9971863145
 21
59.8107549241
  0
LINE
  5
236
100
AcDbEntity
  8
0
100
AcDbLine
 62
7
  6
BYLAYER
 10
14.3101917331
 20
57.842230898
 11
16.9264759308
 21
59.3527342673
  0
LINE
  5
237
100
AcDbEntity
  8
0
100
AcDbLine
 62
7
  6
BYLAYER
 10
27.1013812369
 20
64.8260097317
 11
25.4571928991
 21
63.8767428187
  0
LINE
  5
238
100
AcDbEntity
  8
0
100
AcDbLine
 62
7
  6
BYLAYER
 10
25.4630914611
 20
63.8665261485
 11
27.3738197585
 21
64.9696790604
  0
LINE
  5
239
100
AcDbEntity
  8
0
100
AcDbLine
 62
7
  6
BYLAYER
 10
18.2275245444
 20
59.0187867346
 11
19.1467595327
 21
59.5495041346
  0
LINE
  5
23A
100
AcDbEntity
  8
0
100
AcDbLine
 62
7
  6
BYLAYER
 10
32.3414602847
 20
66.2205047408
 11
32.3485313231
 21
66.2245871824
  0
LINE
  5
23B
100
AcDbEntity
  8
0
100
AcDbLine
 62
7
  6
BYLAYER
 10
25.463124011
 20
63.866542858
 11
25.0852986816
 21
63.6614533719
  0
LINE
  5
23C
100
AcDbEntity
  8
0
100
AcDbLine
 62
7
  6
BYLAYER
 10
27.1014149455
 20
64.8259513421
 11
27.3738197585
 21
64.9696790604
  0
LINE
  5
23D
100
AcDbEntity
  8
0
100
AcDbLine
 62
7
  6
BYLAYER
 10
22.1944357288
 20
65.3969856963
 11
22.1944357288
 21
65.5467402312
  0
LINE
  5
23E
100
AcDbEntity
  8
0
100
AcDbLine
 62
7
  6
BYLAYER
 10
31.8524353683
 20
85.4726063066
 11
29.8747192253
 21
77.8877212175
  0
LINE
  5
23F
100
AcDbEntity
  8
0
100
AcDbLine
 62
7
  6
BYLAYER
 10
24.1331246839
 20
59.691826303
 11
23.8806068343
 21
59.5171270426
  0
LINE
  5
240
100
AcDbEntity
  8
0
100
AcDbLine
 62
7
  6
BYLAYER
 10
27.6904763438
 20
62.5805736949
 11
29.6012048872
 21
63.6837267489
  0
LINE
  5
241
100
AcDbEntity
  8
0
100
AcDbLine
 62
7
  6
BYLAYER
 10
21.1899510674
 20
58.5050896849
 11
18.2710545815
 21
56.8198740724
  0
LINE
  5
242
100
AcDbEntity
  8
0
100
AcDbLine
 62
7
  6
BYLAYER
 10
54.9688242911
 20
77.2431841831
 11
37.2912283607
 21
67.0370803363
  0
LINE
  5
243
100
AcDbEntity
  8
0
100
AcDbLine
 62
7
  6
BYLAYER
 10
54.9688242911
 20
76.0184305574
 11
37.2912283607
 21
65.8123267106
  0
LINE
  5
244
100
AcDbEntity
  8
0
100
AcDbLine
 62
7
  6
BYLAYER
 10
24.5632533081
 20
67.445143372
 11
24.5632533081
 21
70.7111530406
  0
LINE
  5
245
100
AcDbEntity
  8
0
100
AcDbLine
 62
7
  6
BYLAYER
 10
24.5703243464
 20
70.7152354821
 11
24.5703243464
 21
67.4492258136
  0
LINE
  5
246
100
AcDbEntity
  8
0
100
AcDbLine
 62
7
  6
BYLAYER
 10
37.2912283018
 20
63.3709843083
 11
42.233884124
 21
66.2246109438
  0
LINE
  5
247
100
AcDbEntity
  8
0
100
AcDbLine
 62
7
  6
BYLAYER
 10
50.0120263333
 20
70.7152966364
 11
54.9546821554
 21
73.568923272
  0
LINE
  5
248
100
AcDbEntity
  8
0
100
AcDbLine
 62
7
  6
BYLAYER
 10
37.2912283607
 20
63.3628194592
 11
42.2409552212
 21
66.2205285363
  0
LINE
  5
249
100
AcDbEntity
  8
0
100
AcDbLine
 62
7
  6
BYLAYER
 10
50.0190974306
 20
70.7112142289
 11
54.9688242911
 21
73.568923306
  0
LINE
  5
24A
100
AcDbEntity
  8
0
100
AcDbLine
 62
7
  6
BYLAYER
 10
28.6857181869
 20
58.3205248846
 11
31.4169263066
 21
59.8973792152
  0
LINE
  5
24B
100
AcDbEntity
  8
0
100
AcDbLine
 62
7
  6
BYLAYER
 10
27.2794560661
 20
58.5802183889
 11
27.236325036
 21
58.5594374806
  0
LINE
  5
24C
100
AcDbEntity
  8
0
100
AcDbLine
 62
7
  6
BYLAYER
 10
42.233884124
 20
62.9586012753
 11
50.0120263333
 21
67.4492869679
  0
LINE
  5
24D
100
AcDbEntity
  8
0
100
AcDbLine
 62
7
  6
BYLAYER
 10
37.2912283607
 20
60.0968097907
 11
42.2409552212
 21
62.9545188678
  0
LINE
  5
24E
100
AcDbEntity
  8
0
100
AcDbLine
 62
7
  6
BYLAYER
 10
50.0190974306
 20
67.4452045604
 11
54.9688242911
 21
70.3029136375
  0
LINE
  5
24F
100
AcDbEntity
  8
0
100
AcDbLine
 62
7
  6
BYLAYER
 10
34.7102778639
 20
58.3208788761
 11
36.2293251702
 21
59.1978960123
  0
LINE
  5
250
100
AcDbEntity
  8
0
100
AcDbLine
 62
7
  6
BYLAYER
 10
36.3320625701
 20
59.1074565888
 11
34.7102778639
 21
58.1711243413
  0
LINE
  5
251
100
AcDbEntity
  8
0
100
AcDbLine
 62
7
  6
BYLAYER
 10
39.0590026736
 20
59.0762079044
 11
56.7365986039
 21
69.2823117512
  0
LINE
  5
252
100
AcDbEntity
  8
0
100
AcDbLine
 62
7
  6
BYLAYER
 10
32.6062962934
 20
55.2244672946
 11
29.1986107687
 21
53.2570508835
  0
LINE
  5
253
100
AcDbEntity
  8
0
100
AcDbLine
 62
7
  6
BYLAYER
 10
34.4484680327
 20
58.0803386747
 11
34.7102778639
 21
58.1711243413
  0
LINE
  5
254
100
AcDbEntity
  8
0
100
AcDbLine
 62
7
  6
BYLAYER
 10
23.771357087
 20
59.2999210074
 11
23.7908394308
 21
59.2466563273
  0
LINE
  5
255
100
AcDbEntity
  8
0
100
AcDbLine
 62
7
  6
BYLAYER
 10
32.3414602847
 20
66.2205047408
 11
32.3414602847
 21
62.9544950723
  0
LINE
  5
256
100
AcDbEntity
  8
0
100
AcDbLine
 62
7
  6
BYLAYER
 10
32.6949695158
 20
83.7751762434
 11
32.6949695158
 21
87.2044863954
  0
LINE
  5
257
100
AcDbEntity
  8
0
100
AcDbLine
 62
7
  6
BYLAYER
 10
35.5234540478
 20
54.4629169774
 11
37.7508496821
 21
55.7488967701
  0
LINE
  5
258
100
AcDbEntity
  8
0
100
AcDbLine
 62
7
  6
BYLAYER
 10
37.7508628175
 20
54.932416046
 11
36.230563773
 21
54.0546762228
  0
LINE
  5
259
100
AcDbEntity
  8
0
100
AcDbLine
 62
7
  6
BYLAYER
 10
15.6112403467
 20
57.5082833652
 11
34.3702241764
 21
46.6780240146
  0
LINE
  5
25A
100
AcDbEntity
  8
0
100
AcDbLine
 62
7
  6
BYLAYER
 10
35.5234834875
 20
45.6500729375
 11
34.3702241764
 21
46.6780240146
  0
LINE
  5
25B
100
AcDbEntity
  8
0
100
AcDbLine
 62
7
  6
BYLAYER
 10
34.7102778639
 20
58.3208788761
 11
34.7102778639
 21
58.1711243413
  0
LINE
  5
25C
100
AcDbEntity
  8
0
100
AcDbLine
 62
7
  6
BYLAYER
 10
35.1698535538
 20
85.7756437545
 11
35.1698535538
 21
82.3463336026
  0
LINE
  5
25D
100
AcDbEntity
  8
0
100
AcDbLine
 62
7
  6
BYLAYER
 10
35.5234834875
 20
7.6365908987
 11
35.5234834875
 21
9.2695957329
  0
LINE
  5
25E
100
AcDbEntity
  8
0
100
AcDbLine
 62
7
  6
BYLAYER
 10
35.5234834875
 20
9.3512459746
 11
35.5234834875
 21
45.6500729375
  0
LINE
  5
25F
100
AcDbEntity
  8
0
100
AcDbLine
 62
7
  6
BYLAYER
 10
31.6402301301
 20
49.1013515869
 11
35.1825832748
 21
51.1465179206
  0
LINE
  5
260
100
AcDbEntity
  8
0
100
AcDbLine
 62
7
  6
BYLAYER
 10
38.2104780689
 20
47.5635322885
 11
37.0572187578
 21
48.2293517993
  0
LINE
  5
261
100
AcDbEntity
  8
0
100
AcDbLine
 62
7
  6
BYLAYER
 10
18.2982349281
 20
59.05961115
 11
16.9971863145
 21
59.8107549241
  0
LINE
  5
262
100
AcDbEntity
  8
0
100
AcDbLine
 62
7
  6
BYLAYER
 10
36.9865083741
 20
48.1885273839
 11
38.1397676852
 21
47.1605763068
  0
LINE
  5
263
100
AcDbEntity
  8
0
100
AcDbLine
 62
7
  6
BYLAYER
 10
31.4169263066
 20
59.8973792152
 11
32.6062962934
 21
55.2244672946
  0
LINE
  5
264
100
AcDbEntity
  8
0
100
AcDbLine
 62
7
  6
BYLAYER
 10
37.2911650654
 20
87.0003762162
 11
37.2911650654
 21
83.3669456869
  0
LINE
  5
265
100
AcDbEntity
  8
0
100
AcDbLine
 62
7
  6
BYLAYER
 10
37.2912283607
 20
67.0370803363
 11
37.2912283018
 21
63.3709843083
  0
LINE
  5
266
100
AcDbEntity
  8
0
100
AcDbLine
 62
7
  6
BYLAYER
 10
37.2912283607
 20
60.0968097907
 11
37.2912283607
 21
63.3628194592
  0
LINE
  5
267
100
AcDbEntity
  8
0
100
AcDbLine
 62
7
  6
BYLAYER
 10
37.7508496821
 20
54.9324387975
 11
37.7508496821
 21
56.5654436317
  0
LINE
  5
268
100
AcDbEntity
  8
0
100
AcDbLine
 62
7
  6
BYLAYER
 10
38.1397676852
 20
47.1605763068
 11
38.1397676852
 21
10.861749344
  0
LINE
  5
269
100
AcDbEntity
  8
0
100
AcDbLine
 62
7
  6
BYLAYER
 10
38.2104780689
 20
10.8209235176
 11
38.2104780689
 21
47.5635322885
  0
LINE
  5
26A
100
AcDbEntity
  8
0
100
AcDbLine
 62
7
  6
BYLAYER
 10
39.0590026736
 20
48.0534252731
 11
39.0590026736
 21
59.0762079044
  0
LINE
  5
26B
100
AcDbEntity
  8
0
100
AcDbLine
 62
7
  6
BYLAYER
 10
36.9865083741
 20
48.1885273839
 11
37.9057433625
 21
48.719244784
  0
LINE
  5
26C
100
AcDbEntity
  8
0
100
AcDbLine
 62
7
  6
BYLAYER
 10
38.2104780689
 20
47.5635322885
 11
39.0590026736
 21
48.0534252731
  0
LINE
  5
26D
100
AcDbEntity
  8
0
100
AcDbLine
 62
7
  6
BYLAYER
 10
35.5234834875
 20
45.6500729375
 11
38.1397676852
 21
47.1605763068
  0
LINE
  5
26E
100
AcDbEntity
  8
0
100
AcDbLine
 62
7
  6
BYLAYER
 10
15.6112403467
 20
57.5082833652
 11
14.3101917331
 21
57.842230898
  0
LINE
  5
26F
100
AcDbEntity
  8
0
100
AcDbLine
 62
7
  6
BYLAYER
 10
39.0590026736
 20
48.0534252731
 11
37.9057433625
 21
48.719244784
  0
LINE
  5
270
100
AcDbEntity
  8
0
100
AcDbLine
 62
7
  6
BYLAYER
 10
19.1467595327
 20
59.5495041346
 11
17.8457109192
 21
60.3006479087
  0
LINE
  5
271
100
AcDbEntity
  8
0
100
AcDbLine
 62
7
  6
BYLAYER
 10
24.1331246839
 20
59.691826303
 11
24.2038279327
 21
59.6510066867
  0
LINE
  5
272
100
AcDbEntity
  8
0
100
AcDbLine
 62
7
  6
BYLAYER
 10
25.7708709951
 20
58.7462944201
 11
27.2515516117
 21
57.8914424069
  0
LINE
  5
273
100
AcDbEntity
  8
0
100
AcDbLine
 62
7
  6
BYLAYER
 10
35.1825832748
 20
51.1465179206
 11
37.9057433625
 21
48.719244784
  0
LINE
  5
274
100
AcDbEntity
  8
0
100
AcDbLine
 62
7
  6
BYLAYER
 10
40.0135148387
 20
79.917190587
 11
40.0135148387
 21
81.0373195286
  0
LINE
  5
275
100
AcDbEntity
  8
0
100
AcDbLine
 62
7
  6
BYLAYER
 10
41.8873400073
 20
86.7985752373
 11
41.8873400073
 21
89.6539632163
  0
LINE
  5
276
100
AcDbEntity
  8
0
100
AcDbLine
 62
7
  6
BYLAYER
 10
16.9264759308
 20
59.3527342673
 11
18.2275245444
 21
59.0187867346
  0
LINE
  5
277
100
AcDbEntity
  8
0
100
AcDbLine
 62
7
  6
BYLAYER
 10
19.1467595327
 20
59.5495041346
 11
21.4071435454
 21
58.9693185395
  0
LINE
  5
278
100
AcDbEntity
  8
0
100
AcDbLine
 62
7
  6
BYLAYER
 10
20.6741498198
 20
63.0359728223
 11
21.3812595449
 21
62.6277320678
  0
LINE
  5
279
100
AcDbEntity
  8
0
100
AcDbLine
 62
7
  6
BYLAYER
 10
35.5234540478
 20
54.4629169774
 11
36.230563773
 21
54.0546762228
  0
LINE
  5
27A
100
AcDbEntity
  8
0
100
AcDbLine
 62
7
  6
BYLAYER
 10
42.2409552212
 20
66.2205285363
 11
42.2409552212
 21
62.9545188678
  0
LINE
  5
27B
100
AcDbEntity
  8
0
100
AcDbLine
 62
7
  6
BYLAYER
 10
27.6274116783
 20
62.7584939025
 11
25.5980453806
 21
63.930122575
  0
LINE
  5
27C
100
AcDbEntity
  8
0
100
AcDbLine
 62
7
  6
BYLAYER
 10
39.0590026736
 20
59.0762079044
 11
37.2912283607
 21
60.0968097907
  0
LINE
  5
27D
100
AcDbEntity
  8
0
100
AcDbLine
 62
7
  6
BYLAYER
 10
32.3414602847
 20
62.9544950723
 11
24.5632533081
 21
67.445143372
  0
LINE
  5
27E
100
AcDbEntity
  8
0
100
AcDbLine
 62
7
  6
BYLAYER
 10
19.613485232
 20
70.3028286537
 11
17.8457109192
 21
71.32343054
  0
LINE
  5
27F
100
AcDbEntity
  8
0
100
AcDbLine
 62
7
  6
BYLAYER
 10
24.5703243464
 20
67.4492258136
 11
32.3485313231
 21
62.9585775138
  0
LINE
  5
280
100
AcDbEntity
  8
0
100
AcDbLine
 62
7
  6
BYLAYER
 10
37.2912283607
 20
63.3628194592
 11
32.3414602847
 21
66.2205047408
  0
LINE
  5
281
100
AcDbEntity
  8
0
100
AcDbLine
 62
7
  6
BYLAYER
 10
24.5632533081
 20
70.7111530406
 11
19.613485232
 21
73.5688383222
  0
LINE
  5
282
100
AcDbEntity
  8
0
100
AcDbLine
 62
7
  6
BYLAYER
 10
19.6276273677
 20
73.5688383562
 11
24.5703243464
 21
70.7152354821
  0
LINE
  5
283
100
AcDbEntity
  8
0
100
AcDbLine
 62
7
  6
BYLAYER
 10
32.3485313231
 20
66.2245871824
 11
37.2912283018
 21
63.3709843083
  0
LINE
  5
284
100
AcDbEntity
  8
0
100
AcDbLine
 62
7
  6
BYLAYER
 10
50.0120263333
 20
67.4492869679
 11
50.0120263333
 21
70.7152966364
  0
LINE
  5
285
100
AcDbEntity
  8
0
100
AcDbLine
 62
7
  6
BYLAYER
 10
50.0190974306
 20
67.4452045604
 11
50.0190974306
 21
70.7112142289
  0
LINE
  5
286
100
AcDbEntity
  8
0
100
AcDbLine
 62
7
  6
BYLAYER
 10
14.3809039275
 20
21.5576438293
 11
14.3101917331
 21
21.5168183685
  0
LINE
  5
287
100
AcDbEntity
  8
0
100
AcDbLine
 62
7
  6
BYLAYER
 10
37.2912283607
 20
65.8123267106
 11
19.613485232
 21
76.0183455736
  0
LINE
  5
288
100
AcDbEntity
  8
0
100
AcDbLine
 62
7
  6
BYLAYER
 10
19.613485232
 20
77.2430991993
 11
37.2912283607
 21
67.0370803363
  0
LINE
  5
289
100
AcDbEntity
  8
0
100
AcDbLine
 62
7
  6
BYLAYER
 10
42.7298741548
 20
85.4726063066
 11
44.7075902978
 21
77.8877212175
  0
LINE
  5
28A
100
AcDbEntity
  8
0
100
AcDbLine
 62
7
  6
BYLAYER
 10
42.233884124
 20
66.2246109438
 11
42.2409552212
 21
66.2205285363
  0
LINE
  5
28B
100
AcDbEntity
  8
0
100
AcDbLine
 62
7
  6
BYLAYER
 10
54.9546821554
 20
73.568923272
 11
54.9546821554
 21
76.0184305234
  0
LINE
  5
28C
100
AcDbEntity
  8
0
100
AcDbLine
 62
7
  6
BYLAYER
 10
54.9688242911
 20
73.568923306
 11
54.9688242911
 21
70.3029136375
  0
LINE
  5
28D
100
AcDbEntity
  8
0
100
AcDbLine
 62
7
  6
BYLAYER
 10
54.9688242911
 20
76.0184305574
 11
54.9688242911
 21
77.2431841831
  0
LINE
  5
28E
100
AcDbEntity
  8
0
100
AcDbLine
 62
7
  6
BYLAYER
 10
56.7365986039
 20
69.2823117512
 11
56.7365986039
 21
19.8839155148
  0
LINE
  5
28F
100
AcDbEntity
  8
0
100
AcDbLine
 62
7
  6
BYLAYER
 10
50.0190974306
 20
67.4452045604
 11
50.0120263333
 21
67.4492869679
  0
LINE
  5
290
100
AcDbEntity
  8
0
100
AcDbLine
 62
7
  6
BYLAYER
 10
50.0190974306
 20
70.7112142289
 11
50.0120263333
 21
70.7152966364
  0
LINE
  5
291
100
AcDbEntity
  8
0
100
AcDbLine
 62
7
  6
BYLAYER
 10
40.3514314444
 20
77.1909412642
 11
43.8672628408
 21
75.1611209818
  0
LINE
  5
292
100
AcDbEntity
  8
0
100
AcDbLine
 62
7
  6
BYLAYER
 10
54.9688242911
 20
70.3029136375
 11
56.7365986039
 21
69.2823117512
  0
LINE
  5
293
100
AcDbEntity
  8
0
100
AcDbLine
 62
7
  6
BYLAYER
 10
32.6949695158
 20
83.7751762434
 11
35.1698535538
 21
82.3463336026
  0
LINE
  5
294
100
AcDbEntity
  8
0
100
AcDbLine
 62
7
  6
BYLAYER
 10
39.8642165911
 20
80.0033860204
 11
40.0135148387
 21
79.917190587
  0
LINE
  5
295
100
AcDbEntity
  8
0
100
AcDbLine
 62
7
  6
BYLAYER
 10
32.2540878173
 20
86.2750378023
 11
32.6949695158
 21
86.0205003934
  0
LINE
  5
296
100
AcDbEntity
  8
0
100
AcDbLine
 62
7
  6
BYLAYER
 10
37.1143891061
 20
83.4690050257
 11
39.499806357
 21
82.09181489
  0
LINE
  5
297
100
AcDbEntity
  8
0
100
AcDbLine
 62
7
  6
BYLAYER
 10
54.9582175841
 20
73.5750469526
 11
54.9688242911
 21
73.568923306
  0
LINE
  5
298
100
AcDbEntity
  8
0
100
AcDbLine
 62
7
  6
BYLAYER
 10
32.6949695158
 20
87.2044863954
 11
35.1698535538
 21
85.7756437545
  0
LINE
  5
299
100
AcDbEntity
  8
0
100
AcDbLine
 62
7
  6
BYLAYER
 10
38.1397676852
 20
10.861749344
 11
35.5234834875
 21
9.3512459746
  0
LINE
  5
29A
100
AcDbEntity
  8
0
100
AcDbLine
 62
7
  6
BYLAYER
 10
34.8162810274
 20
88.429218857
 11
37.2911650654
 21
87.0003762162
  0
LINE
  5
29B
100
AcDbEntity
  8
0
100
AcDbLine
 62
7
  6
BYLAYER
 10
54.9688242911
 20
77.2431841831
 11
43.0869886993
 21
84.1030099704
  0
LINE
  5
29C
100
AcDbEntity
  8
0
100
AcDbLine
 62
7
  6
BYLAYER
 10
35.5234834875
 20
9.2695957329
 11
38.2104780689
 21
10.8209235176
  0
LINE
  5
29D
100
AcDbEntity
  8
0
100
AcDbLine
 62
7
  6
BYLAYER
 10
35.5234834875
 20
7.6365908987
 11
56.7365986039
 21
19.8839155148
  0
LINE
  5
29E
100
AcDbEntity
  8
0
100
AcDbLine
 62
7
  6
BYLAYER
 10
41.8873400073
 20
89.6539632163
 11
39.4124559693
 21
91.0828058571
  0
ARC
  5
29F
100
AcDbEntity
  8
0
100
AcDbCircle
 62
7
  6
BYLAYER
 10
-1651.7227512582
 20
-214.4955085033
 40
1717.0317149458
100
AcDbArc
 50
9.6549655827
 51
9.9467356003
  0
ARC
  5
2A0
100
AcDbEntity
  8
0
100
AcDbCircle
 62
7
  6
BYLAYER
 10
-1476.3174061485
 20
-184.3136194973
 40
1542.1700505007
100
AcDbArc
 50
9.6862601939
 51
10.0113414898
  0
ARC
  5
2A1
100
AcDbEntity
  8
0
100
AcDbCircle
 62
7
  6
BYLAYER
 10
228.9307952643
 20
269.4580325304
 40
295.7712431682
100
AcDbArc
 50
228.1611601462
 51
228.3242311965
  0
ARC
  5
2A2
100
AcDbEntity
  8
0
100
AcDbCircle
 62
7
  6
BYLAYER
 10
29.0290348968
 20
56.8341062972
 40
7.8849888711
100
AcDbArc
 50
120.0117743132
 51
141.8669503881
  0
ARC
  5
2A3
100
AcDbEntity
  8
0
100
AcDbCircle
 62
7
  6
BYLAYER
 10
39.1464233452
 20
87.5131571439
 40
6.9918102459
100
AcDbArc
 50
190.0988007719
 51
190.3198137295
  0
ARC
  5
2A4
100
AcDbEntity
  8
0
100
AcDbCircle
 62
7
  6
BYLAYER
 10
23.6903333008
 20
58.6184221684
 40
3.64657878
100
AcDbArc
 50
358.7879212689
 51
359.1211098962
  0
ARC
  5
2A5
100
AcDbEntity
  8
0
100
AcDbCircle
 62
7
  6
BYLAYER
 10
27.2402298868
 20
60.2880264668
 40
3.1637884532
100
AcDbArc
 50
190.0339175204
 51
190.8620509692
  0
ARC
  5
2A6
100
AcDbEntity
  8
0
100
AcDbCircle
 62
7
  6
BYLAYER
 10
26.7941279138
 20
59.5139879479
 40
3.088550658
100
AcDbArc
 50
180.532612753
 51
183.9997514959
  0
ARC
  5
2A7
100
AcDbEntity
  8
0
100
AcDbCircle
 62
7
  6
BYLAYER
 10
24.7554514761
 20
61.6403788774
 40
3.0819371526
100
AcDbArc
 50
17.7623323071
 51
21.2720186189
  0
ARC
  5
2A8
100
AcDbEntity
  8
0
100
AcDbCircle
 62
7
  6
BYLAYER
 10
26.7186126596
 20
59.5129436572
 40
3.0130289786
100
AcDbArc
 50
179.6214050666
 51
180.5261040022
  0
ARC
  5
2A9
100
AcDbEntity
  8
0
100
AcDbCircle
 62
7
  6
BYLAYER
 10
26.7132621059
 20
59.8786630775
 40
2.9900253004
100
AcDbArc
 50
192.1948970895
 51
194.6136285786
  0
ARC
  5
2AA
100
AcDbEntity
  8
0
100
AcDbCircle
 62
7
  6
BYLAYER
 10
24.363961953
 20
59.0711758519
 40
2.8587692255
100
AcDbArc
 50
29.4857875881
 51
35.8900395892
  0
ARC
  5
2AB
100
AcDbEntity
  8
0
100
AcDbCircle
 62
7
  6
BYLAYER
 10
26.2435796939
 20
59.5674930364
 40
2.534045605
100
AcDbArc
 50
165.618371076
 51
169.4187600471
  0
ARC
  5
2AC
100
AcDbEntity
  8
0
100
AcDbCircle
 62
7
  6
BYLAYER
 10
24.9576715727
 20
58.3715845372
 40
2.3495596214
100
AcDbArc
 50
338.458541746
 51
340.6543794888
  0
ARC
  5
2AD
100
AcDbEntity
  8
0
100
AcDbCircle
 62
7
  6
BYLAYER
 10
25.3636413274
 20
60.9431175714
 40
1.7283825203
100
AcDbArc
 50
204.4965681782
 51
209.2311911812
  0
ARC
  5
2AE
100
AcDbEntity
  8
0
100
AcDbCircle
 62
7
  6
BYLAYER
 10
26.1467010266
 20
62.5908833737
 40
1.4472679974
100
AcDbArc
 50
112.2777894965
 51
118.1851509303
  0
ARC
  5
2AF
100
AcDbEntity
  8
0
100
AcDbCircle
 62
7
  6
BYLAYER
 10
25.3279150147
 20
60.1312847905
 40
1.4331483978
100
AcDbArc
 50
119.9928096712
 51
123.4747051424
  0
ARC
  5
2B0
100
AcDbEntity
  8
0
100
AcDbCircle
 62
7
  6
BYLAYER
 10
25.3115486672
 20
60.1594690282
 40
1.4005569714
100
AcDbArc
 50
116.1060986985
 51
119.9893060376
  0
ARC
  5
2B1
100
AcDbEntity
  8
0
100
AcDbCircle
 62
7
  6
BYLAYER
 10
26.03022143
 20
58.2246061761
 40
1.3515263336
100
AcDbArc
 50
254.191621085
 51
254.8285111613
  0
ARC
  5
2B2
100
AcDbEntity
  8
0
100
AcDbCircle
 62
7
  6
BYLAYER
 10
24.9551438211
 20
59.8932938572
 40
1.2112664851
100
AcDbArc
 50
159.0172862373
 51
164.015822678
  0
SPLINE
  5
2B3
100
AcDbEntity
  8
0
100
AcDbSpline
 62
7
  6
BYLAYER
 70
0
 71
3
 72
25
 73
21
 74
0
 42
0.0000001
 43
0.0000001
 44
0.0000000001
 40
0.0
 40
0.0
 40
0.0
 40
0.0
 40
0.0213322312
 40
0.042893134
 40
0.0648986772
 40
0.0875442488
 40
0.1353194457
 40
0.1872202048
 40
0.243658152
 40
0.304605509
 40
0.3696918747
 40
0.4382880336
 40
0.5095740547
 40
0.5825981136
 40
0.6563283658
 40
0.7297046081
 40
0.8016828642
 40
0.8712696237
 40
0.9376259994
 40
1.0
 40
1.0
 40
1.0
 40
1.0
 10
33.1824156775
 20
85.1762960225
 30
0.0
 10
33.2008445739
 20
85.1869353165
 30
0.0
 10
33.2393191171
 20
85.2059673665
 30
0.0
 10
33.3006535236
 20
85.2271746896
 30
0.0
 10
33.3654085877
 20
85.2409898258
 30
0.0
 10
33.4573825621
 20
85.2496100133
 30
0.0
 10
33.5800102478
 20
85.2406152423
 30
0.0
 10
33.731206487
 20
85.2004301773
 30
0.0
 10
33.886202304
 20
85.1319305445
 30
0.0
 10
34.0418581453
 20
85.036696256
 30
0.0
 10
34.1950314413
 20
84.9167834084
 30
0.0
 10
34.3425363257
 20
84.7747281529
 30
0.0
 10
34.4812654973
 20
84.6135366985
 30
0.0
 10
34.6082780284
 20
84.4366408485
 30
0.0
 10
34.7208737732
 20
84.2478140265
 30
0.0
 10
34.8166479986
 20
84.0510774538
 30
0.0
 10
34.8935430748
 20
83.850631592
 30
0.0
 10
34.949959202
 20
83.6507127506
 30
0.0
 10
34.9846346363
 20
83.4556131943
 30
0.0
 10
34.9930761225
 20
83.3271161419
 30
0.0
 10
34.9930761225
 20
83.2648962084
 30
0.0
  0
SPLINE
  5
2B4
100
AcDbEntity
  8
0
100
AcDbSpline
 62
7
  6
BYLAYER
 70
0
 71
3
 72
15
 73
11
 74
0
 42
0.0000001
 43
0.0000001
 44
0.0000000001
 40
0.0
 40
0.0
 40
0.0
 40
0.0
 40
0.148584779
 40
0.2895073258
 40
0.422722055
 40
0.548641303
 40
0.6680002597
 40
0.7819375788
 40
0.8919870085
 40
1.0
 40
1.0
 40
1.0
 40
1.0
 10
42.417689965
 20
84.2855201904
 30
0.0
 10
42.417689965
 20
84.1422824575
 30
0.0
 10
42.4061389484
 20
83.8630012192
 30
0.0
 10
42.3511683732
 20
83.4585686956
 30
0.0
 10
42.2593302875
 20
83.0831847024
 30
0.0
 10
42.1313580449
 20
82.740489473
 30
0.0
 10
41.9682263946
 20
82.4337825013
 30
0.0
 10
41.7712085168
 20
82.1661966975
 30
0.0
 10
41.5421246139
 20
81.9407426171
 30
0.0
 10
41.3687463131
 20
81.8197667353
 30
0.0
 10
41.2785703626
 20
81.7677040991
 30
0.0
  0
SPLINE
  5
2B5
100
AcDbEntity
  8
0
100
AcDbSpline
 62
7
  6
BYLAYER
 70
0
 71
3
 72
15
 73
11
 74
0
 42
0.0000001
 43
0.0000001
 44
0.0000000001
 40
0.0
 40
0.0
 40
0.0
 40
0.0
 40
0.1080125182
 40
0.2180615573
 40
0.331998721
 40
0.4513577595
 40
0.5772770837
 40
0.7104921081
 40
0.8514152096
 40
1.0
 40
1.0
 40
1.0
 40
1.0
 10
33.3037391885
 20
89.865129994
 30
0.0
 10
33.2135635761
 20
89.8130676921
 30
0.0
 10
33.0401862575
 20
89.6920918992
 30
0.0
 10
32.8111024186
 20
89.4666392482
 30
0.0
 10
32.614084638
 20
89.1990538744
 30
0.0
 10
32.4509529363
 20
88.8923469807
 30
0.0
 10
32.3229797331
 20
88.549651656
 30
0.0
 10
32.2311413871
 20
88.1742667881
 30
0.0
 10
32.1761707618
 20
87.7698334582
 30
0.0
 10
32.1646195581
 20
87.4905516904
 30
0.0
 10
32.1646195581
 20
87.3473139516
 30
0.0
  0
SPLINE
  5
2B6
100
AcDbEntity
  8
0
100
AcDbSpline
 62
7
  6
BYLAYER
 70
0
 71
3
 72
28
 73
24
 74
0
 42
0.0000001
 43
0.0000001
 44
0.0000000001
 40
0.0
 40
0.0
 40
0.0
 40
0.0
 40
0.0213295221
 40
0.0428875098
 40
0.0648901279
 40
0.0875322602
 40
0.1109787414
 40
0.1353628305
 40
0.1872572734
 40
0.2149176095
 40
0.2437249864
 40
0.3046650081
 40
0.369744318
 40
0.4383326965
 40
0.5096098559
 40
0.5826246423
 40
0.6563466512
 40
0.7297144682
 40
0.801681617
 40
0.8712659323
 40
0.9375960088
 40
0.9693348018
 40
1.0
 40
1.0
 40
1.0
 40
1.0
 10
35.7786025907
 20
91.2939845815
 30
0.0
 10
35.8461744319
 20
91.3329968477
 30
0.0
 10
35.9872284897
 20
91.402819232
 30
0.0
 10
36.2121373522
 20
91.4805449286
 30
0.0
 10
36.4495561956
 20
91.5312043303
 30
0.0
 10
36.6980755326
 20
91.5544961672
 30
0.0
 10
36.9563273088
 20
91.5504410251
 30
0.0
 10
37.3191344259
 20
91.5077623234
 30
0.0
 10
37.6887922027
 20
91.4096153899
 30
0.0
 10
38.0578707176
 20
91.2644367143
 30
0.0
 10
38.4454405378
 20
91.0785370461
 30
0.0
 10
38.929935432
 20
90.7821153804
 30
0.0
 10
39.4915189404
 20
90.3424572585
 30
0.0
 10
40.0323843138
 20
89.8215628947
 30
0.0
 10
40.5410632484
 20
89.2305329073
 30
0.0
 10
41.0067882464
 20
88.5819150136
 30
0.0
 10
41.4196332297
 20
87.8895342589
 30
0.0
 10
41.7707889677
 20
87.168166193
 30
0.0
 10
42.0527786865
 20
86.4331658183
 30
0.0
 10
42.2595597953
 20
85.7002451216
 30
0.0
 10
42.3671643464
 20
85.0951866103
 30
0.0
 10
42.4102768539
 20
84.6260301449
 30
0.0
 10
42.417689965
 20
84.3976958901
 30
0.0
 10
42.417689965
 20
84.2855201904
 30
0.0
  0
SPLINE
  5
2B7
100
AcDbEntity
  8
0
100
AcDbSpline
 62
7
  6
BYLAYER
 70
0
 71
3
 72
9
 73
5
 74
0
 42
0.0000001
 43
0.0000001
 44
0.0000000001
 40
0.0
 40
0.0
 40
0.0
 40
0.0
 40
0.4876183952
 40
1.0
 40
1.0
 40
1.0
 40
1.0
 10
32.1646195581
 20
87.3473139516
 30
0.0
 10
32.1646195581
 20
87.1740924
 30
0.0
 10
32.1823705193
 20
86.8187123017
 30
0.0
 10
32.2310223799
 20
86.4663688023
 30
0.0
 10
32.2629382623
 20
86.287170346
 30
0.0
  0
SPLINE
  5
2B8
100
AcDbEntity
  8
0
100
AcDbSpline
 62
7
  6
BYLAYER
 70
0
 71
3
 72
14
 73
10
 74
0
 42
0.0000001
 43
0.0000001
 44
0.0000000001
 40
0.0
 40
0.0
 40
0.0
 40
0.0
 40
0.2876356534
 40
0.4208805529
 40
0.5471973056
 40
0.667204779
 40
0.7818179048
 40
0.8922428274
 40
1.0
 40
1.0
 40
1.0
 40
1.0
 10
34.9930761225
 20
83.2648962084
 30
0.0
 10
34.9930761225
 20
83.1932823675
 30
0.0
 10
34.9851768105
 20
83.0880548337
 30
0.0
 10
34.9549492501
 20
82.9550116672
 30
0.0
 10
34.9241297567
 20
82.865450762
 30
0.0
 10
34.8847997217
 20
82.7843882908
 30
0.0
 10
34.8372598991
 20
82.7124972551
 30
0.0
 10
34.7818636984
 20
82.6504841254
 30
0.0
 10
34.7396616202
 20
82.6158611862
 30
0.0
 10
34.7176242591
 20
82.6005596655
 30
0.0
  0
SPLINE
  5
2B9
100
AcDbEntity
  8
0
100
AcDbSpline
 62
7
  6
BYLAYER
 70
0
 71
3
 72
11
 73
7
 74
0
 42
0.0000001
 43
0.0000001
 44
0.0000000001
 40
0.0
 40
0.0
 40
0.0
 40
0.0
 40
0.2663726662
 40
0.5252507396
 40
0.7712669428
 40
1.0
 40
1.0
 40
1.0
 40
1.0
 10
33.1473428343
 20
83.5069589563
 30
0.0
 10
33.1038285785
 20
83.5873951522
 30
0.0
 10
33.0263048475
 20
83.7506598621
 30
0.0
 10
32.939310684
 20
84.0013439848
 30
0.0
 10
32.8852133934
 20
84.2479550948
 30
0.0
 10
32.8717469471
 20
84.4110890171
 30
0.0
 10
32.8717469471
 20
84.4896184719
 30
0.0
  0
SPLINE
  5
2BA
100
AcDbEntity
  8
0
100
AcDbSpline
 62
7
  6
BYLAYER
 70
0
 71
3
 72
10
 73
6
 74
0
 42
0.0000001
 43
0.0000001
 44
0.0000000001
 40
0.0
 40
0.0
 40
0.0
 40
0.0
 40
0.4725006005
 40
0.7294279126
 40
1.0
 40
1.0
 40
1.0
 40
1.0
 10
39.6587799957
 20
81.3359551708
 30
0.0
 10
39.7573615754
 20
81.5603334103
 30
0.0
 10
39.8634027483
 20
81.9280224555
 30
0.0
 10
39.9317047972
 20
82.4424438319
 30
0.0
 10
39.9428265347
 20
82.7163237132
 30
0.0
 10
39.9428265347
 20
82.8566656519
 30
0.0
  0
SPLINE
  5
2BB
100
AcDbEntity
  8
0
100
AcDbSpline
 62
7
  6
BYLAYER
 70
0
 71
3
 72
10
 73
6
 74
0
 42
0.0000001
 43
0.0000001
 44
0.0000000001
 40
0.0
 40
0.0
 40
0.0
 40
0.0
 40
0.4697653815
 40
0.7274175511
 40
1.0
 40
1.0
 40
1.0
 40
1.0
 10
33.4946923051
 20
85.2428497419
 30
0.0
 10
33.4624989183
 20
85.1784354329
 30
0.0
 10
33.4278700706
 20
85.0707278656
 30
0.0
 10
33.4056962519
 20
84.9189676962
 30
0.0
 10
33.402074825
 20
84.8375862705
 30
0.0
 10
33.402074825
 20
84.7958015873
 30
0.0
  0
SPLINE
  5
2BC
100
AcDbEntity
  8
0
100
AcDbSpline
 62
7
  6
BYLAYER
 70
0
 71
3
 72
28
 73
24
 74
0
 42
0.0000001
 43
0.0000001
 44
0.0000000001
 40
0.0
 40
0.0
 40
0.0
 40
0.0
 40
0.030665167
 40
0.0624038228
 40
0.1287336025
 40
0.1983177129
 40
0.2702847971
 40
0.3436527767
 40
0.4173750271
 40
0.4903899912
 40
0.5616672949
 40
0.6302558388
 40
0.6953352879
 40
0.7562753457
 40
0.7850826972
 40
0.812742992
 40
0.8646373477
 40
0.8890214056
 40
0.9124678633
 40
0.9351099759
 40
0.9571125691
 40
0.9786705212
 40
1.0
 40
1.0
 40
1.0
 40
1.0
 10
39.9428265347
 20
82.8566656519
 30
0.0
 10
39.9428265347
 20
82.9688412371
 30
0.0
 10
39.9354135687
 20
83.1971748789
 30
0.0
 10
39.8923011855
 20
83.6663296473
 30
0.0
 10
39.7846973232
 20
84.2713858808
 30
0.0
 10
39.5779174594
 20
85.0043047708
 30
0.0
 10
39.2959284381
 20
85.739304993
 30
0.0
 10
38.9447727222
 20
86.4606744532
 30
0.0
 10
38.5319269941
 20
87.1530572503
 30
0.0
 10
38.0662009806
 20
87.8016769579
 30
0.0
 10
37.5575209333
 20
88.3927083457
 30
0.0
 10
37.0166543212
 20
88.9136037994
 30
0.0
 10
36.4550696726
 20
89.3532624982
 30
0.0
 10
35.9705741304
 20
89.6496841662
 30
0.0
 10
35.5830042759
 20
89.8355835008
 30
0.0
 10
35.2139261664
 20
89.9807616748
 30
0.0
 10
34.8442688822
 20
90.0789081207
 30
0.0
 10
34.4814622616
 20
90.1215866213
 30
0.0
 10
34.2232107567
 20
90.1256414849
 30
0.0
 10
33.9746916755
 20
90.1023496127
 30
0.0
 10
33.7372731615
 20
90.0516900867
 30
0.0
 10
33.5123646734
 20
89.9739644615
 30
0.0
 10
33.3713109377
 20
89.9041421028
 30
0.0
 10
33.3037391885
 20
89.865129994
 30
0.0
  0
SPLINE
  5
2BD
100
AcDbEntity
  8
0
100
AcDbSpline
 62
7
  6
BYLAYER
 70
0
 71
3
 72
15
 73
11
 74
0
 42
0.0000001
 43
0.0000001
 44
0.0000000001
 40
0.0
 40
0.0
 40
0.0
 40
0.0
 40
0.1485255495
 40
0.2894998107
 40
0.4227406409
 40
0.5486451861
 40
0.6679968704
 40
0.781941124
 40
0.8919887057
 40
1.0
 40
1.0
 40
1.0
 40
1.0
 10
32.8717469471
 20
84.4896184719
 30
0.0
 10
32.8717469471
 20
84.5286676123
 30
0.0
 10
32.8749097294
 20
84.6048319794
 30
0.0
 10
32.8898823913
 20
84.7151389673
 30
0.0
 10
32.9149389396
 20
84.8175309081
 30
0.0
 10
32.9498348001
 20
84.9109968845
 30
0.0
 10
32.9943395853
 20
84.9946308872
 30
0.0
 10
33.0480562328
 20
85.0676194433
 30
0.0
 10
33.1105450633
 20
85.1290963665
 30
0.0
 10
33.1578223901
 20
85.1620979279
 30
0.0
 10
33.1824156775
 20
85.1762960225
 30
0.0
  0
SPLINE
  5
2BE
100
AcDbEntity
  8
0
100
AcDbSpline
 62
7
  6
BYLAYER
 70
0
 71
3
 72
21
 73
17
 74
0
 42
0.0000001
 43
0.0000001
 44
0.0000000001
 40
0.0
 40
0.0
 40
0.0
 40
0.0
 40
0.0589498252
 40
0.1211932036
 40
0.1862166951
 40
0.2534976471
 40
0.3921500135
 40
0.4622103407
 40
0.531769594
 40
0.6001184042
 40
0.6665885587
 40
0.7305768589
 40
0.7915663272
 40
0.8491653603
 40
0.9031361355
 40
1.0
 40
1.0
 40
1.0
 40
1.0
 10
33.402074825
 20
84.7958015873
 30
0.0
 10
33.402074825
 20
84.7434317686
 30
0.0
 10
33.4080479239
 20
84.63570993
 30
0.0
 10
33.4329023789
 20
84.4719469553
 30
0.0
 10
33.4735877066
 20
84.3037517368
 30
0.0
 10
33.5488015201
 20
84.0748914913
 30
0.0
 10
33.6517147747
 20
83.8511822152
 30
0.0
 10
33.7783847513
 20
83.6387193343
 30
0.0
 10
33.8842602916
 20
83.4870956936
 30
0.0
 10
33.9990134601
 20
83.3461736141
 30
0.0
 10
34.1208854803
 20
83.2180878966
 30
0.0
 10
34.2480227257
 20
83.1047927007
 30
0.0
 10
34.3784782584
 20
83.0080437016
 30
0.0
 10
34.5104068936
 20
82.9292637933
 30
0.0
 10
34.6791161264
 20
82.8526980962
 30
0.0
 10
34.8118361463
 20
82.8202717321
 30
0.0
 10
34.8977436065
 20
82.8152884013
 30
0.0
  0
SPLINE
  5
2BF
100
AcDbEntity
  8
0
100
AcDbSpline
 62
7
  6
BYLAYER
 70
0
 71
3
 72
9
 73
5
 74
0
 42
0.0000001
 43
0.0000001
 44
0.0000000001
 40
0.0
 40
0.0
 40
0.0
 40
0.0
 40
0.2492942338
 40
1.0
 40
1.0
 40
1.0
 40
1.0
 10
25.0309107054
 20
61.530055455
 30
0.0
 10
25.0019674638
 20
61.5244705418
 30
0.0
 10
24.8866508419
 20
61.4981387889
 30
0.0
 10
24.7749689828
 20
61.4561927022
 30
0.0
 10
24.6952549226
 20
61.4171422172
 30
0.0
  0
SPLINE
  5
2C0
100
AcDbEntity
  8
0
100
AcDbSpline
 62
7
  6
BYLAYER
 70
0
 71
3
 72
9
 73
5
 74
0
 42
0.0000001
 43
0.0000001
 44
0.0000000001
 40
0.0
 40
0.0
 40
0.0
 40
0.0
 40
0.2438657728
 40
1.0
 40
1.0
 40
1.0
 40
1.0
 10
27.2811017283
 20
57.9956972077
 30
0.0
 10
27.289307306
 20
58.0395390802
 30
0.0
 10
27.3189452188
 20
58.2200553133
 30
0.0
 10
27.3331704488
 20
58.4030190857
 30
0.0
 10
27.3360961454
 20
58.5412854063
 30
0.0
  0
SPLINE
  5
2C1
100
AcDbEntity
  8
0
100
AcDbSpline
 62
7
  6
BYLAYER
 70
0
 71
3
 72
11
 73
7
 74
0
 42
0.0000001
 43
0.0000001
 44
0.0000000001
 40
0.0
 40
0.0
 40
0.0
 40
0.0
 40
0.2481359747
 40
0.5008146372
 40
0.7531977668
 40
1.0
 40
1.0
 40
1.0
 40
1.0
 10
27.3364830673
 20
58.5624875718
 30
0.0
 10
27.3390184417
 20
58.7277375628
 30
0.0
 10
27.321572389
 20
59.0619486322
 30
0.0
 10
27.232067414
 20
59.5568893165
 30
0.0
 10
27.0796328096
 20
60.0353729055
 30
0.0
 10
26.9351132572
 20
60.3364109949
 30
0.0
 10
26.8523791017
 20
60.4784539764
 30
0.0
  0
SPLINE
  5
2C2
100
AcDbEntity
  8
0
100
AcDbSpline
 62
7
  6
BYLAYER
 70
0
 71
3
 72
19
 73
15
 74
0
 42
0.0000001
 43
0.0000001
 44
0.0000000001
 40
0.0
 40
0.0
 40
0.0
 40
0.0
 40
0.0428394104
 40
0.0874448899
 40
0.1352571039
 40
0.1871950253
 40
0.2436735499
 40
0.3046656819
 40
0.4382689093
 40
0.5825434307
 40
0.7296392143
 40
0.871166535
 40
0.9376088396
 40
1.0
 40
1.0
 40
1.0
 40
1.0
 10
19.5991583001
 20
68.2864089057
 30
0.0
 10
19.6521605186
 20
68.3170149084
 30
0.0
 10
19.7690128414
 20
68.3655355695
 30
0.0
 10
19.9618707436
 20
68.3938467026
 30
0.0
 10
20.1689807137
 20
68.3785713912
 30
0.0
 10
20.3857316228
 20
68.3209986817
 30
0.0
 10
20.6078917426
 20
68.2228398315
 30
0.0
 10
20.9145530625
 20
68.0351190105
 30
0.0
 10
21.279884104
 20
67.7115923795
 30
0.0
 10
21.6553736942
 20
67.2308613243
 30
0.0
 10
21.9510432621
 20
66.684494584
 30
0.0
 10
22.1146488367
 20
66.2009512343
 30
0.0
 10
22.18229038
 20
65.8200679933
 30
0.0
 10
22.1944357288
 20
65.6358779044
 30
0.0
 10
22.1944357288
 20
65.5467402312
 30
0.0
  0
SPLINE
  5
2C3
100
AcDbEntity
  8
0
100
AcDbSpline
 62
7
  6
BYLAYER
 70
0
 71
3
 72
9
 73
5
 74
0
 42
0.0000001
 43
0.0000001
 44
0.0000000001
 40
0.0
 40
0.0
 40
0.0
 40
0.0
 40
0.508040386
 40
1.0
 40
1.0
 40
1.0
 40
1.0
 10
23.7908372446
 20
60.2264632238
 30
0.0
 10
23.779964293
 20
60.2466763626
 30
0.0
 10
23.7646114363
 20
60.2903643113
 30
0.0
 10
23.7674873954
 20
60.3368453219
 30
0.0
 10
23.7731408927
 20
60.3583397209
 30
0.0
  0
SPLINE
  5
2C4
100
AcDbEntity
  8
0
100
AcDbSpline
 62
7
  6
BYLAYER
 70
0
 71
3
 72
10
 73
6
 74
0
 42
0.0000001
 43
0.0000001
 44
0.0000000001
 40
0.0
 40
0.0
 40
0.0
 40
0.0
 40
0.2334214053
 40
0.4849892618
 40
1.0
 40
1.0
 40
1.0
 40
1.0
 10
27.236325036
 20
58.5594374806
 30
0.0
 10
27.2028651852
 20
58.5433175141
 30
0.0
 10
27.1296328042
 20
58.5172911822
 30
0.0
 10
26.9727259493
 20
58.4888082897
 30
0.0
 10
26.8486215626
 20
58.4931964461
 30
0.0
 10
26.7679626463
 20
58.5076581559
 30
0.0
  0
SPLINE
  5
2C5
100
AcDbEntity
  8
0
100
AcDbSpline
 62
7
  6
BYLAYER
 70
0
 71
3
 72
11
 73
7
 74
0
 42
0.0000001
 43
0.0000001
 44
0.0000000001
 40
0.0
 40
0.0
 40
0.0
 40
0.0
 40
0.2865323442
 40
0.5418742004
 40
0.7743014207
 40
1.0
 40
1.0
 40
1.0
 40
1.0
 10
23.8806068343
 20
59.5171270426
 30
0.0
 10
23.8603804969
 20
59.5031327535
 30
0.0
 10
23.8244628261
 20
59.4729074326
 30
0.0
 10
23.7850123051
 20
59.4183844297
 30
0.0
 10
23.7655907564
 20
59.3591069856
 30
0.0
 10
23.7672038163
 20
59.318873898
 30
0.0
 10
23.7711522398
 20
59.2999067933
 30
0.0
  0
SPLINE
  5
2C6
100
AcDbEntity
  8
0
100
AcDbSpline
 62
7
  6
BYLAYER
 70
0
 71
3
 72
19
 73
15
 74
0
 42
0.0000001
 43
0.0000001
 44
0.0000000001
 40
0.0
 40
0.0
 40
0.0
 40
0.0
 40
0.0428394104
 40
0.0874448899
 40
0.1352571039
 40
0.1871950253
 40
0.2436735499
 40
0.3046656819
 40
0.4382689093
 40
0.5825434307
 40
0.7296392143
 40
0.871166535
 40
0.9376088396
 40
1.0
 40
1.0
 40
1.0
 40
1.0
 10
35.1555722533
 20
59.3051123062
 30
0.0
 10
35.2085744718
 20
59.3357183089
 30
0.0
 10
35.3254267947
 20
59.3842389701
 30
0.0
 10
35.5182846968
 20
59.4125501032
 30
0.0
 10
35.7253946669
 20
59.3972747918
 30
0.0
 10
35.942145576
 20
59.3397020822
 30
0.0
 10
36.1643056959
 20
59.2415432321
 30
0.0
 10
36.4709670158
 20
59.0538224111
 30
0.0
 10
36.8362980572
 20
58.7302957801
 30
0.0
 10
37.2117876474
 20
58.2495647248
 30
0.0
 10
37.5074572153
 20
57.7031979845
 30
0.0
 10
37.6710627899
 20
57.2196546349
 30
0.0
 10
37.7387043332
 20
56.8387713939
 30
0.0
 10
37.7508496821
 20
56.654581305
 30
0.0
 10
37.7508496821
 20
56.5654436317
 30
0.0
  0
SPLINE
  5
2C7
100
AcDbEntity
  8
0
100
AcDbSpline
 62
7
  6
BYLAYER
 70
0
 71
3
 72
9
 73
5
 74
0
 42
0.0000001
 43
0.0000001
 44
0.0000000001
 40
0.0
 40
0.0
 40
0.0
 40
0.0
 40
0.4835547437
 40
1.0
 40
1.0
 40
1.0
 40
1.0
 10
23.855357324
 20
60.0990882462
 30
0.0
 10
23.906991229
 20
60.0066499206
 30
0.0
 10
24.0306421471
 20
59.8245643024
 30
0.0
 10
24.1805641399
 20
59.6639385541
 30
0.0
 10
24.2624161537
 20
59.5859122154
 30
0.0
  0
SPLINE
  5
2C8
100
AcDbEntity
  8
0
100
AcDbSpline
 62
7
  6
BYLAYER
 70
0
 71
3
 72
22
 73
18
 74
0
 42
0.0000001
 43
0.0000001
 44
0.0000000001
 40
0.0
 40
0.0
 40
0.0
 40
0.0
 40
0.0524767399
 40
0.1065717385
 40
0.134184277
 40
0.1620822557
 40
0.1903087741
 40
0.2189548287
 40
0.2774465649
 40
0.3371304793
 40
0.398359213
 40
0.4294719572
 40
0.4608353179
 40
0.5245218108
 40
0.5895669325
 40
0.7227856625
 40
1.0
 40
1.0
 40
1.0
 40
1.0
 10
24.2624161537
 20
59.5859122154
 30
0.0
 10
24.2974518578
 20
59.5525140423
 30
0.0
 10
24.3702338287
 20
59.4863485444
 30
0.0
 10
24.4668750814
 20
59.4089078344
 30
0.0
 10
24.547949466
 20
59.3485059314
 30
0.0
 10
24.610629961
 20
59.3033668073
 30
0.0
 10
24.6750221955
 20
59.2589967385
 30
0.0
 10
24.7642886421
 20
59.2010475722
 30
0.0
 10
24.8807597349
 20
59.131881981
 30
0.0
 10
25.0252471674
 20
59.0511317668
 30
0.0
 10
25.1511112502
 20
58.9891796244
 30
0.0
 10
25.254718015
 20
58.9413759953
 30
0.0
 10
25.3610007843
 20
58.8939725932
 30
0.0
 10
25.4975835041
 20
58.8377120969
 30
0.0
 10
25.7246499605
 20
58.7549820659
 30
0.0
 10
26.1433293957
 20
58.6236141533
 30
0.0
 10
26.5151585206
 20
58.5460265077
 30
0.0
 10
26.7679626463
 20
58.5076581559
 30
0.0
  0
SPLINE
  5
2C9
100
AcDbEntity
  8
0
100
AcDbSpline
 62
7
  6
BYLAYER
 70
0
 71
3
 72
11
 73
7
 74
0
 42
0.0000001
 43
0.0000001
 44
0.0000000001
 40
0.0
 40
0.0
 40
0.0
 40
0.0
 40
0.2708298928
 40
0.5258929718
 40
0.7675255043
 40
1.0
 40
1.0
 40
1.0
 40
1.0
 10
20.9600736511
 20
58.0137585583
 30
0.0
 10
20.9046320112
 20
57.8955493279
 30
0.0
 10
20.7837682079
 20
57.6718171911
 30
0.0
 10
20.5652019517
 20
57.3716863726
 30
0.0
 10
20.3160054631
 20
57.1216494113
 30
0.0
 10
20.1282337014
 20
56.9888514701
 30
0.0
 10
20.0311575345
 20
56.9328441575
 30
0.0
  0
SPLINE
  5
2CA
100
AcDbEntity
  8
0
100
AcDbSpline
 62
7
  6
BYLAYER
 70
0
 71
3
 72
11
 73
7
 74
0
 42
0.0000001
 43
0.0000001
 44
0.0000000001
 40
0.0
 40
0.0
 40
0.0
 40
0.0
 40
0.2897033281
 40
0.5490895198
 40
0.7822165953
 40
1.0
 40
1.0
 40
1.0
 40
1.0
 10
37.7508496821
 20
54.9324387975
 30
0.0
 10
37.7508496821
 20
54.823502287
 30
0.0
 10
37.7343333043
 20
54.6163281322
 30
0.0
 10
37.6504302572
 20
54.3316817002
 30
0.0
 10
37.5091653912
 20
54.1007072178
 30
0.0
 10
37.3764748037
 20
53.9891544164
 30
0.0
 10
37.3055535963
 20
53.9482083139
 30
0.0
  0
SPLINE
  5
2CB
100
AcDbEntity
  8
0
100
AcDbSpline
 62
7
  6
BYLAYER
 70
0
 71
3
 72
11
 73
7
 74
0
 42
0.0000001
 43
0.0000001
 44
0.0000000001
 40
0.0
 40
0.0
 40
0.0
 40
0.0
 40
0.2897033281
 40
0.5490895198
 40
0.7822165953
 40
1.0
 40
1.0
 40
1.0
 40
1.0
 10
22.901545454
 20
63.5054946424
 30
0.0
 10
22.901545454
 20
63.3965581319
 30
0.0
 10
22.8850290762
 20
63.1893839771
 30
0.0
 10
22.8011260291
 20
62.9047375451
 30
0.0
 10
22.6598611631
 20
62.6737630627
 30
0.0
 10
22.5271705756
 20
62.5622102613
 30
0.0
 10
22.4562493682
 20
62.5212641588
 30
0.0
  0
SPLINE
  5
2CC
100
AcDbEntity
  8
0
100
AcDbSpline
 62
7
  6
BYLAYER
 70
0
 71
3
 72
11
 73
7
 74
0
 42
0.0000001
 43
0.0000001
 44
0.0000000001
 40
0.0
 40
0.0
 40
0.0
 40
0.0
 40
0.2623101792
 40
0.5232787045
 40
0.7721956439
 40
1.0
 40
1.0
 40
1.0
 40
1.0
 10
22.1944357288
 20
65.3969856963
 30
0.0
 10
22.3033179112
 20
65.2545321565
 30
0.0
 10
22.4994248998
 20
64.9536304911
 30
0.0
 10
22.7224456991
 20
64.4732283125
 30
0.0
 10
22.864563627
 20
63.9874259262
 30
0.0
 10
22.901545454
 20
63.6612081045
 30
0.0
 10
22.901545454
 20
63.5054946424
 30
0.0
  0
SPLINE
  5
2CD
100
AcDbEntity
  8
0
100
AcDbSpline
 62
7
  6
BYLAYER
 70
0
 71
3
 72
10
 73
6
 74
0
 42
0.0000001
 43
0.0000001
 44
0.0000000001
 40
0.0
 40
0.0
 40
0.0
 40
0.0
 40
0.2336747645
 40
0.4767668851
 40
1.0
 40
1.0
 40
1.0
 40
1.0
 10
42.7298523623
 20
85.4726044425
 30
0.0
 10
42.7036764024
 20
85.5730472414
 30
0.0
 10
42.6337204602
 20
85.7740117356
 30
0.0
 10
42.4272636887
 20
86.1686092128
 30
0.0
 10
42.2082239162
 20
86.4351060915
 30
0.0
 10
42.043124861
 20
86.5986928956
 30
0.0
  0
SPLINE
  5
2CE
100
AcDbEntity
  8
0
100
AcDbSpline
 62
7
  6
BYLAYER
 70
0
 71
3
 72
17
 73
13
 74
0
 42
0.0000001
 43
0.0000001
 44
0.0000000001
 40
0.0
 40
0.0
 40
0.0
 40
0.0
 40
0.0541170101
 40
0.1081779106
 40
0.1629710272
 40
0.2188880982
 40
0.3351888561
 40
0.4597279787
 40
0.5919985388
 40
0.7290381595
 40
0.8664893086
 40
1.0
 40
1.0
 40
1.0
 40
1.0
 10
26.7048030376
 20
56.8792144015
 30
0.0
 10
26.6355142941
 20
56.8485500864
 30
0.0
 10
26.4905916896
 20
56.800779849
 30
0.0
 10
26.2631220508
 20
56.7712581931
 30
0.0
 10
26.031587381
 20
56.781709059
 30
0.0
 10
25.7190355559
 20
56.8451616418
 30
0.0
 10
25.3340551269
 20
57.0137641079
 30
0.0
 10
24.9090982461
 20
57.3226903038
 30
0.0
 10
24.5250209335
 20
57.7218810622
 30
0.0
 10
24.197003874
 20
58.1900747211
 30
0.0
 10
23.9405259652
 20
58.7027133295
 30
0.0
 10
23.8238305197
 20
59.0657884088
 30
0.0
 10
23.7824262409
 20
59.2480778264
 30
0.0
  0
SPLINE
  5
2CF
100
AcDbEntity
  8
0
100
AcDbSpline
 62
7
  6
BYLAYER
 70
0
 71
3
 72
11
 73
7
 74
0
 42
0.0000001
 43
0.0000001
 44
0.0000000001
 40
0.0
 40
0.0
 40
0.0
 40
0.0
 40
0.2551129599
 40
0.505611459
 40
0.7532336443
 40
1.0
 40
1.0
 40
1.0
 40
1.0
 10
23.7731205317
 20
60.3583399012
 30
0.0
 10
23.7928528491
 20
60.4335075492
 30
0.0
 10
23.842209816
 20
60.5800954894
 30
0.0
 10
23.9490897454
 20
60.7842894268
 30
0.0
 10
24.0878759289
 20
60.9652984569
 30
0.0
 10
24.2011251065
 20
61.0662522494
 30
0.0
 10
24.2618419382
 20
61.1105724043
 30
0.0
  0
SPLINE
  5
2D0
100
AcDbEntity
  8
0
100
AcDbSpline
 62
7
  6
BYLAYER
 70
0
 71
3
 72
9
 73
5
 74
0
 42
0.0000001
 43
0.0000001
 44
0.0000000001
 40
0.0
 40
0.0
 40
0.0
 40
0.0
 40
0.2464874687
 40
1.0
 40
1.0
 40
1.0
 40
1.0
 10
26.5007798525
 20
56.7013567651
 30
0.0
 10
26.519737469
 20
56.7123019797
 30
0.0
 10
26.5953879044
 20
56.7588694947
 30
0.0
 10
26.6657415802
 20
56.8139290297
 30
0.0
 10
26.7151536947
 20
56.8590575906
 30
0.0
  0
SPLINE
  5
2D1
100
AcDbEntity
  8
0
100
AcDbSpline
 62
7
  6
BYLAYER
 70
0
 71
3
 72
9
 73
5
 74
0
 42
0.0000001
 43
0.0000001
 44
0.0000000001
 40
0.0
 40
0.0
 40
0.0
 40
0.0
 40
0.4785349353
 40
1.0
 40
1.0
 40
1.0
 40
1.0
 10
26.7151536947
 20
56.8590575906
 30
0.0
 10
26.8073900238
 20
56.9432979198
 30
0.0
 10
26.9755770957
 20
57.1470724301
 30
0.0
 10
27.0931263117
 20
57.3822770104
 30
0.0
 10
27.14311946
 20
57.508886475
 30
0.0
  0
SPLINE
  5
2D2
100
AcDbEntity
  8
0
100
AcDbSpline
 62
7
  6
BYLAYER
 70
0
 71
3
 72
9
 73
5
 74
0
 42
0.0000001
 43
0.0000001
 44
0.0000000001
 40
0.0
 40
0.0
 40
0.0
 40
0.0
 40
0.2439239278
 40
1.0
 40
1.0
 40
1.0
 40
1.0
 10
27.1745691548
 20
57.5932558631
 30
0.0
 10
27.1857975434
 20
57.6252079584
 30
0.0
 10
27.2290920778
 20
57.7571541357
 30
0.0
 10
27.2617892115
 20
57.8925116749
 30
0.0
 10
27.2811017283
 20
57.9956972077
 30
0.0
  0
SPLINE
  5
2D3
100
AcDbEntity
  8
0
100
AcDbSpline
 62
7
  6
BYLAYER
 70
0
 71
3
 72
9
 73
5
 74
0
 42
0.0000001
 43
0.0000001
 44
0.0000000001
 40
0.0
 40
0.0
 40
0.0
 40
0.0
 40
0.5063036286
 40
1.0
 40
1.0
 40
1.0
 40
1.0
 10
26.7679549195
 20
57.527856581
 30
0.0
 10
26.8334124189
 20
57.5161204031
 30
0.0
 10
26.965710463
 20
57.5080772525
 30
0.0
 10
27.0968468614
 20
57.5296903311
 30
0.0
 10
27.1586910681
 20
57.549189471
 30
0.0
  0
SPLINE
  5
2D4
100
AcDbEntity
  8
0
100
AcDbSpline
 62
7
  6
BYLAYER
 70
0
 71
3
 72
9
 73
5
 74
0
 42
0.0000001
 43
0.0000001
 44
0.0000000001
 40
0.0
 40
0.0
 40
0.0
 40
0.0
 40
0.2451060593
 40
1.0
 40
1.0
 40
1.0
 40
1.0
 10
23.7526241999
 20
60.0328185728
 30
0.0
 10
23.7450706459
 20
59.9924604207
 30
0.0
 10
23.7181558277
 20
59.8270895976
 30
0.0
 10
23.7064863452
 20
59.6593060758
 30
0.0
 10
23.7056494583
 20
59.5328527887
 30
0.0
  0
SPLINE
  5
2D5
100
AcDbEntity
  8
0
100
AcDbSpline
 62
7
  6
BYLAYER
 70
0
 71
3
 72
13
 73
9
 74
0
 42
0.0000001
 43
0.0000001
 44
0.0000000001
 40
0.0
 40
0.0
 40
0.0
 40
0.0
 40
0.1286606319
 40
0.2594142086
 40
0.4560560871
 40
0.6485377249
 40
0.8313180977
 40
1.0
 40
1.0
 40
1.0
 40
1.0
 10
23.7130998755
 20
59.2985549081
 30
0.0
 10
23.7220814121
 20
59.169461066
 30
0.0
 10
23.7561272381
 20
58.9100304519
 30
0.0
 10
23.8680771192
 20
58.4643259907
 30
0.0
 10
24.0658817429
 20
57.9775031877
 30
0.0
 10
24.3693114733
 20
57.4855639113
 30
0.0
 10
24.7347833614
 20
57.0746723738
 30
0.0
 10
25.0195048022
 20
56.8595937387
 30
0.0
 10
25.1664346369
 20
56.7747656781
 30
0.0
  0
SPLINE
  5
2D6
100
AcDbEntity
  8
0
100
AcDbSpline
 62
7
  6
BYLAYER
 70
0
 71
3
 72
11
 73
7
 74
0
 42
0.0000001
 43
0.0000001
 44
0.0000000001
 40
0.0
 40
0.0
 40
0.0
 40
0.0
 40
0.2177843137
 40
0.4509117637
 40
0.7102976701
 40
1.0
 40
1.0
 40
1.0
 40
1.0
 10
22.4562493682
 20
62.5212641588
 30
0.0
 10
22.3853297608
 20
62.4803189801
 30
0.0
 10
22.2223809371
 20
62.4211835175
 30
0.0
 10
21.9517257178
 20
62.4143305795
 30
0.0
 10
21.6632706849
 20
62.4839873276
 30
0.0
 10
21.4755990166
 20
62.5732663805
 30
0.0
 10
21.3812595449
 20
62.6277320678
 30
0.0
  0
SPLINE
  5
2D7
100
AcDbEntity
  8
0
100
AcDbSpline
 62
7
  6
BYLAYER
 70
0
 71
3
 72
11
 73
7
 74
0
 42
0.0000001
 43
0.0000001
 44
0.0000000001
 40
0.0
 40
0.0
 40
0.0
 40
0.0
 40
0.2352282791
 40
0.4749554977
 40
0.7279466671
 40
1.0
 40
1.0
 40
1.0
 40
1.0
 10
20.0311575345
 20
56.9328441575
 30
0.0
 10
19.90792852
 20
56.8617481701
 30
0.0
 10
19.6410930261
 20
56.7470259542
 30
0.0
 10
19.2033839475
 20
56.6726737692
 30
0.0
 10
18.7383046336
 20
56.6953532827
 30
0.0
 10
18.427745713
 20
56.7696734405
 30
0.0
 10
18.2710534687
 20
56.8198807823
 30
0.0
  0
SPLINE
  5
2D8
100
AcDbEntity
  8
0
100
AcDbSpline
 62
7
  6
BYLAYER
 70
0
 71
3
 72
28
 73
24
 74
0
 42
0.0000001
 43
0.0000001
 44
0.0000000001
 40
0.0
 40
0.0
 40
0.0
 40
0.0
 40
0.1492487651
 40
0.2220983892
 40
0.2934866295
 40
0.3286184224
 40
0.3633518256
 40
0.3975862817
 40
0.4313109228
 40
0.4646377116
 40
0.4975242819
 40
0.5298137457
 40
0.5615843744
 40
0.6237337773
 40
0.653906627
 40
0.6836156757
 40
0.7128509167
 40
0.7414750502
 40
0.769512618
 40
0.7970533088
 40
0.8506280681
 40
0.9022087414
 40
1.0
 40
1.0
 40
1.0
 40
1.0
 10
26.7679549195
 20
57.527856581
 30
0.0
 10
26.5924972489
 20
57.5544859788
 30
0.0
 10
26.3327637107
 20
57.6043653482
 30
0.0
 10
25.994827014
 20
57.6917598422
 30
0.0
 10
25.7908707088
 20
57.7544238838
 30
0.0
 10
25.6320080939
 20
57.808977002
 30
0.0
 10
25.5157892087
 20
57.8516152337
 30
0.0
 10
25.4023305439
 20
57.8968051407
 30
0.0
 10
25.291800654
 20
57.9446704513
 30
0.0
 10
25.1837159686
 20
57.9940691457
 30
0.0
 10
25.078208234
 20
58.0449652748
 30
0.0
 10
24.9761684124
 20
58.0986555279
 30
0.0
 10
24.8454935098
 20
58.1724450963
 30
0.0
 10
24.7190290113
 20
58.2486940067
 30
0.0
 10
24.599599274
 20
58.3311619792
 30
0.0
 10
24.5139378307
 20
58.3935501562
 30
0.0
 10
24.4313705217
 20
58.4570238385
 30
0.0
 10
24.3529843151
 20
58.5225527346
 30
0.0
 10
24.2788308638
 20
58.5898624809
 30
0.0
 10
24.1856333371
 20
58.6802106744
 30
0.0
 10
24.0782749613
 20
58.796121424
 30
0.0
 10
23.929772179
 20
58.9865297744
 30
0.0
 10
23.8390264507
 20
59.1408302488
 30
0.0
 10
23.7908394308
 20
59.2466563273
 30
0.0
  0
SPLINE
  5
2D9
100
AcDbEntity
  8
0
100
AcDbSpline
 62
7
  6
BYLAYER
 70
0
 71
3
 72
9
 73
5
 74
0
 42
0.0000001
 43
0.0000001
 44
0.0000000001
 40
0.0
 40
0.0
 40
0.0
 40
0.0
 40
0.4919123015
 40
1.0
 40
1.0
 40
1.0
 40
1.0
 10
23.8199665609
 20
59.1242810879
 30
0.0
 10
23.8615916627
 20
58.9643953314
 30
0.0
 10
23.971812186
 20
58.6457010241
 30
0.0
 10
24.1247162898
 20
58.345388097
 30
0.0
 10
24.2121421587
 20
58.1988361454
 30
0.0
  0
SPLINE
  5
2DA
100
AcDbEntity
  8
0
100
AcDbSpline
 62
7
  6
BYLAYER
 70
0
 71
3
 72
9
 73
5
 74
0
 42
0.0000001
 43
0.0000001
 44
0.0000000001
 40
0.0
 40
0.0
 40
0.0
 40
0.0
 40
0.5117125503
 40
1.0
 40
1.0
 40
1.0
 40
1.0
 10
24.2121421587
 20
58.1988361454
 30
0.0
 10
24.3058500303
 20
58.0417536751
 30
0.0
 10
24.5112075224
 20
57.7474830255
 30
0.0
 10
24.7588409867
 20
57.487194932
 30
0.0
 10
24.8900262569
 20
57.3720710433
 30
0.0
  0
SPLINE
  5
2DB
100
AcDbEntity
  8
0
100
AcDbSpline
 62
7
  6
BYLAYER
 70
0
 71
3
 72
9
 73
5
 74
0
 42
0.0000001
 43
0.0000001
 44
0.0000000001
 40
0.0
 40
0.0
 40
0.0
 40
0.0
 40
0.5312128514
 40
1.0
 40
1.0
 40
1.0
 40
1.0
 10
24.8900262569
 20
57.3720710433
 30
0.0
 10
25.0095236536
 20
57.267204049
 30
0.0
 10
25.2511714043
 20
57.0876037441
 30
0.0
 10
25.5270400642
 20
56.9624163246
 30
0.0
 10
25.6620373307
 20
56.9241970484
 30
0.0
  0
SPLINE
  5
2DC
100
AcDbEntity
  8
0
100
AcDbSpline
 62
7
  6
BYLAYER
 70
0
 71
3
 72
15
 73
11
 74
0
 42
0.0000001
 43
0.0000001
 44
0.0000000001
 40
0.0
 40
0.0
 40
0.0
 40
0.0
 40
0.1370076448
 40
0.2646954243
 40
0.3852563505
 40
0.5018189203
 40
0.6180873829
 40
0.737898817
 40
0.8645375141
 40
1.0
 40
1.0
 40
1.0
 40
1.0
 10
25.6765149047
 20
56.9201848008
 30
0.0
 10
25.738589024
 20
56.9033539137
 30
0.0
 10
25.8611324461
 20
56.8793794266
 30
0.0
 10
26.042940164
 20
56.8754374189
 30
0.0
 10
26.2127611184
 20
56.9057267683
 30
0.0
 10
26.367252242
 20
56.9698794759
 30
0.0
 10
26.5030047694
 20
57.0670502016
 30
0.0
 10
26.6173698052
 20
57.1949208062
 30
0.0
 10
26.708226139
 20
57.35066224
 30
0.0
 10
26.751056085
 20
57.4666767643
 30
0.0
 10
26.7686342255
 20
57.5277890267
 30
0.0
  0
SPLINE
  5
2DD
100
AcDbEntity
  8
0
100
AcDbSpline
 62
7
  6
BYLAYER
 70
0
 71
3
 72
9
 73
5
 74
0
 42
0.0000001
 43
0.0000001
 44
0.0000000001
 40
0.0
 40
0.0
 40
0.0
 40
0.0
 40
0.5012826211
 40
1.0
 40
1.0
 40
1.0
 40
1.0
 10
25.2749375801
 20
61.5582562488
 30
0.0
 10
25.233831438
 20
61.5574196156
 30
0.0
 10
25.151836689
 20
61.552167943
 30
0.0
 10
25.0707953193
 20
61.5386000771
 30
0.0
 10
25.0308022864
 20
61.530014301
 30
0.0
  0
SPLINE
  5
2DE
100
AcDbEntity
  8
0
100
AcDbSpline
 62
7
  6
BYLAYER
 70
0
 71
3
 72
21
 73
17
 74
0
 42
0.0000001
 43
0.0000001
 44
0.0000000001
 40
0.0
 40
0.0
 40
0.0
 40
0.0
 40
0.0731221604
 40
0.1490735365
 40
0.3040924408
 40
0.455242047
 40
0.526480676
 40
0.5934865805
 40
0.6556078453
 40
0.7125860234
 40
0.7646477688
 40
0.8126549237
 40
0.8581359505
 40
0.9031281594
 40
0.9498232056
 40
1.0
 40
1.0
 40
1.0
 40
1.0
 10
26.7686342255
 20
58.5075747424
 30
0.0
 10
26.7458902287
 20
58.6129157882
 30
0.0
 10
26.6876298544
 20
58.825246794
 30
0.0
 10
26.5273756506
 20
59.2443728507
 30
0.0
 10
26.254015213
 20
59.7404120692
 30
0.0
 10
25.9013189775
 20
60.1751937544
 30
0.0
 10
25.584323269
 20
60.4616614752
 30
0.0
 10
25.3435905827
 20
60.6339588114
 30
0.0
 10
25.1008935091
 20
60.763663965
 30
0.0
 10
24.861776506
 20
60.8476456775
 30
0.0
 10
24.631487482
 20
60.883262001
 30
0.0
 10
24.415415249
 20
60.8686359371
 30
0.0
 10
24.2196262212
 20
60.8027480241
 30
0.0
 10
24.0508886819
 20
60.6867570139
 30
0.0
 10
23.9148433915
 20
60.525093075
 30
0.0
 10
23.8507066974
 20
60.3960685753
 30
0.0
 10
23.8241982284
 20
60.3270317553
 30
0.0
  0
SPLINE
  5
2DF
100
AcDbEntity
  8
0
100
AcDbSpline
 62
7
  6
BYLAYER
 70
0
 71
3
 72
10
 73
6
 74
0
 42
0.0000001
 43
0.0000001
 44
0.0000000001
 40
0.0
 40
0.0
 40
0.0
 40
0.0
 40
0.2503000933
 40
0.6250790492
 40
1.0
 40
1.0
 40
1.0
 40
1.0
 10
18.2710545815
 20
56.8198740724
 30
0.0
 10
18.219630134
 20
56.8329794377
 30
0.0
 10
18.0911659281
 20
56.8655470965
 30
0.0
 10
17.8858528836
 20
56.9184461074
 30
0.0
 10
17.7318302746
 20
56.9577158063
 30
0.0
 10
17.6548361331
 20
56.9774783296
 30
0.0
  0
SPLINE
  5
2E0
100
AcDbEntity
  8
0
100
AcDbSpline
 62
7
  6
BYLAYER
 70
0
 71
3
 72
10
 73
6
 74
0
 42
0.0000001
 43
0.0000001
 44
0.0000000001
 40
0.0
 40
0.0
 40
0.0
 40
0.0
 40
0.2719742234
 40
0.5292390908
 40
1.0
 40
1.0
 40
1.0
 40
1.0
 10
25.9774933661
 20
61.3209964878
 30
0.0
 10
25.918917339
 20
61.3548146077
 30
0.0
 10
25.8019503759
 20
61.415737389
 30
0.0
 10
25.571200481
 20
61.5089077243
 30
0.0
 10
25.3922019574
 20
61.5490010173
 30
0.0
 10
25.2755057151
 20
61.5583949694
 30
0.0
  0
SPLINE
  5
2E1
100
AcDbEntity
  8
0
100
AcDbSpline
 62
7
  6
BYLAYER
 70
0
 71
3
 72
13
 73
9
 74
0
 42
0.0000001
 43
0.0000001
 44
0.0000000001
 40
0.0
 40
0.0
 40
0.0
 40
0.0
 40
0.2911068755
 40
0.5491821178
 40
0.6677600441
 40
0.7810596821
 40
0.8910360441
 40
1.0
 40
1.0
 40
1.0
 40
1.0
 10
25.5590355634
 20
61.0371267775
 30
0.0
 10
25.4436508654
 20
61.1037426569
 30
0.0
 10
25.2144967945
 20
61.2113411253
 30
0.0
 10
24.9118505473
 20
61.2760557379
 30
0.0
 10
24.6867738164
 20
61.2726908471
 30
0.0
 10
24.5320168135
 20
61.2448896405
 30
0.0
 10
24.3886878982
 20
61.1917621976
 30
0.0
 10
24.3021324181
 20
61.1399613596
 30
0.0
 10
24.2618460088
 20
61.1105659062
 30
0.0
  0
SPLINE
  5
2E2
100
AcDbEntity
  8
0
100
AcDbSpline
 62
7
  6
BYLAYER
 70
0
 71
3
 72
9
 73
5
 74
0
 42
0.0000001
 43
0.0000001
 44
0.0000000001
 40
0.0
 40
0.0
 40
0.0
 40
0.0
 40
0.2466431529
 40
1.0
 40
1.0
 40
1.0
 40
1.0
 10
24.5374350887
 20
61.3267160168
 30
0.0
 10
24.5134549557
 20
61.3108641134
 30
0.0
 10
24.4181426302
 20
61.2437265869
 30
0.0
 10
24.330747593
 20
61.1654904989
 30
0.0
 10
24.2701761655
 20
61.1019260997
 30
0.0
  0
SPLINE
  5
2E3
100
AcDbEntity
  8
0
100
AcDbSpline
 62
7
  6
BYLAYER
 70
0
 71
3
 72
9
 73
5
 74
0
 42
0.0000001
 43
0.0000001
 44
0.0000000001
 40
0.0
 40
0.0
 40
0.0
 40
0.0
 40
0.5017755661
 40
1.0
 40
1.0
 40
1.0
 40
1.0
 10
28.6857188797
 20
58.3205086636
 30
0.0
 10
28.5797276755
 20
59.0452300906
 30
0.0
 10
28.3121756256
 20
60.4818965709
 30
0.0
 10
27.9215593729
 20
61.8910267246
 30
0.0
 10
27.690473174
 20
62.5805832411
 30
0.0
  0
SPLINE
  5
2E4
100
AcDbEntity
  8
0
100
AcDbSpline
 62
7
  6
BYLAYER
 70
0
 71
3
 72
10
 73
6
 74
0
 42
0.0000001
 43
0.0000001
 44
0.0000000001
 40
0.0
 40
0.0
 40
0.0
 40
0.0
 40
0.5130955164
 40
0.7591315941
 40
1.0
 40
1.0
 40
1.0
 40
1.0
 10
26.0256501512
 20
61.3487996546
 30
0.0
 10
25.9091300644
 20
61.4160710362
 30
0.0
 10
25.7238249896
 20
61.4962112868
 30
0.0
 10
25.4665772964
 20
61.5500132588
 30
0.0
 10
25.3386663662
 20
61.5586189928
 30
0.0
 10
25.2755057151
 20
61.5583949694
 30
0.0
  0
SPLINE
  5
2E5
100
AcDbEntity
  8
0
100
AcDbSpline
 62
7
  6
BYLAYER
 70
0
 71
3
 72
12
 73
8
 74
0
 42
0.0000001
 43
0.0000001
 44
0.0000000001
 40
0.0
 40
0.0
 40
0.0
 40
0.0
 40
0.1179136688
 40
0.2403304252
 40
0.3659624136
 40
0.4936741219
 40
1.0
 40
1.0
 40
1.0
 40
1.0
 10
31.6402309965
 20
49.1013555654
 30
0.0
 10
31.4920457571
 20
49.2244012834
 30
0.0
 10
31.2016242274
 20
49.4894730822
 30
0.0
 10
30.7957030775
 20
49.9291331315
 30
0.0
 10
30.4175817222
 20
50.4138543136
 30
0.0
 10
29.7370829898
 20
51.4508864119
 30
0.0
 10
29.3432663636
 20
52.4429932649
 30
0.0
 10
29.1985673365
 20
53.2573176571
 30
0.0
  0
SPLINE
  5
2E6
100
AcDbEntity
  8
0
100
AcDbSpline
 62
7
  6
BYLAYER
 70
0
 71
3
 72
9
 73
5
 74
0
 42
0.0000001
 43
0.0000001
 44
0.0000000001
 40
0.0
 40
0.0
 40
0.0
 40
0.0
 40
0.516351552
 40
1.0
 40
1.0
 40
1.0
 40
1.0
 10
26.6794810211
 20
60.747827784
 30
0.0
 10
26.5880043995
 20
60.871279354
 30
0.0
 10
26.3901843756
 20
61.0960616547
 30
0.0
 10
26.1502878471
 20
61.2768416753
 30
0.0
 10
26.0256501512
 20
61.3487996546
 30
0.0
  0
SPLINE
  5
2E7
100
AcDbEntity
  8
0
100
AcDbSpline
 62
7
  6
BYLAYER
 70
0
 71
3
 72
15
 73
11
 74
0
 42
0.0000001
 43
0.0000001
 44
0.0000000001
 40
0.0
 40
0.0
 40
0.0
 40
0.0
 40
0.1228070721
 40
0.2508169092
 40
0.3817212302
 40
0.5132490777
 40
0.6429925678
 40
0.7686472397
 40
0.8882388003
 40
1.0
 40
1.0
 40
1.0
 40
1.0
 10
27.2369939286
 20
58.5597597589
 30
0.0
 10
27.2129921951
 20
58.6832322397
 30
0.0
 10
27.1490149137
 20
58.9326669818
 30
0.0
 10
27.0130095001
 20
59.2998721517
 30
0.0
 10
26.8379543265
 20
59.6601219098
 30
0.0
 10
26.6286859585
 20
60.0036894206
 30
0.0
 10
26.3907115031
 20
60.321368926
 30
0.0
 10
26.1304224005
 20
60.6047608951
 30
0.0
 10
25.8547696094
 20
60.8461312573
 30
0.0
 10
25.6581701266
 20
60.9798927056
 30
0.0
 10
25.5590355634
 20
61.0371267775
 30
0.0
  0
SPLINE
  5
2E8
100
AcDbEntity
  8
0
100
AcDbSpline
 62
7
  6
BYLAYER
 70
0
 71
3
 72
12
 73
8
 74
0
 42
0.0000001
 43
0.0000001
 44
0.0000000001
 40
0.0
 40
0.0
 40
0.0
 40
0.0
 40
0.2489513455
 40
0.5056021955
 40
0.7593058692
 40
0.8819359668
 40
1.0
 40
1.0
 40
1.0
 40
1.0
 10
32.6062962934
 20
55.2244672946
 30
0.0
 10
32.7115442785
 20
54.832403294
 30
0.0
 10
32.9922913405
 20
54.0530404139
 30
0.0
 10
33.5785128467
 20
52.9582086277
 30
0.0
 10
34.1927684194
 20
52.1234144156
 30
0.0
 10
34.743364996
 20
51.5336219093
 30
0.0
 10
35.0342941398
 20
51.2692914332
 30
0.0
 10
35.1825832748
 20
51.1465179206
 30
0.0
  0
SPLINE
  5
2E9
100
AcDbEntity
  8
0
100
AcDbSpline
 62
7
  6
BYLAYER
 70
0
 71
3
 72
9
 73
5
 74
0
 42
0.0000001
 43
0.0000001
 44
0.0000000001
 40
0.0
 40
0.0
 40
0.0
 40
0.0
 40
0.5038473318
 40
1.0
 40
1.0
 40
1.0
 40
1.0
 10
29.6012048872
 20
63.6837267489
 30
0.0
 10
29.9694175771
 20
63.0811441034
 30
0.0
 10
30.6404843739
 20
61.8476583417
 30
0.0
 10
31.1833117381
 20
60.5523565248
 30
0.0
 10
31.4169263066
 20
59.8973792152
 30
0.0
  0
SPLINE
  5
2EA
100
AcDbEntity
  8
0
100
AcDbSpline
 62
7
  6
BYLAYER
 70
0
 71
3
 72
15
 73
11
 74
0
 42
0.0000001
 43
0.0000001
 44
0.0000000001
 40
0.0
 40
0.0
 40
0.0
 40
0.0
 40
0.0911051406
 40
0.1890151596
 40
0.2975694681
 40
0.4184667451
 40
0.5513696995
 40
0.6944827339
 40
0.8452116219
 40
1.0
 40
1.0
 40
1.0
 40
1.0
 10
27.3738197585
 20
64.9696790604
 30
0.0
 10
27.4489524539
 20
65.0086524356
 30
0.0
 10
27.6196823894
 20
65.0630998334
 30
0.0
 10
27.8995195404
 20
65.0637384323
 30
0.0
 10
28.1968460847
 20
64.9886013163
 30
0.0
 10
28.5020799701
 20
64.842485211
 30
0.0
 10
28.805722699
 20
64.6309041658
 30
0.0
 10
29.0979157678
 20
64.3613382031
 30
0.0
 10
29.3684504331
 20
64.0431108744
 30
0.0
 10
29.5274380469
 20
63.8071683011
 30
0.0
 10
29.6012048872
 20
63.6837267489
 30
0.0
  0
SPLINE
  5
2EB
100
AcDbEntity
  8
0
100
AcDbSpline
 62
7
  6
BYLAYER
 70
0
 71
3
 72
20
 73
16
 74
0
 42
0.0000001
 43
0.0000001
 44
0.0000000001
 40
0.0
 40
0.0
 40
0.0
 40
0.0
 40
0.0442086608
 40
0.0882340753
 40
0.1335937452
 40
0.1815911789
 40
0.2331670006
 40
0.2888512969
 40
0.3488091738
 40
0.4129020625
 40
0.4807459874
 40
0.5517746196
 40
0.7003466707
 40
0.8521155799
 40
1.0
 40
1.0
 40
1.0
 40
1.0
 10
31.852433344
 20
85.4726065216
 30
0.0
 10
31.8166172425
 20
85.335220301
 30
0.0
 10
31.7751450391
 20
85.0519444602
 30
0.0
 10
31.8137411059
 20
84.6208942713
 30
0.0
 10
31.952228206
 20
84.1982483199
 30
0.0
 10
32.1864282202
 20
83.7926495748
 30
0.0
 10
32.5106465215
 20
83.4108010472
 30
0.0
 10
32.9183723046
 20
83.0585107437
 30
0.0
 10
33.4023102599
 20
82.7412179764
 30
0.0
 10
33.9540779135
 20
82.4640763156
 30
0.0
 10
34.5641405935
 20
82.2315847504
 30
0.0
 10
35.4542218147
 20
81.9828753413
 30
0.0
 10
36.6400912223
 20
81.8099892365
 30
0.0
 10
38.0844211255
 20
81.8206297651
 30
0.0
 10
39.0393931784
 20
81.9752596009
 30
0.0
 10
39.499806357
 20
82.09181489
 30
0.0
  0
SPLINE
  5
2EC
100
AcDbEntity
  8
0
100
AcDbSpline
 62
7
  6
BYLAYER
 70
0
 71
3
 72
10
 73
6
 74
0
 42
0.0000001
 43
0.0000001
 44
0.0000000001
 40
0.0
 40
0.0
 40
0.0
 40
0.0
 40
0.2640457016
 40
0.5196321821
 40
1.0
 40
1.0
 40
1.0
 40
1.0
 10
26.6794810211
 20
60.747827784
 30
0.0
 10
26.6248445359
 20
60.8062753184
 30
0.0
 10
26.5141330277
 20
60.918437452
 30
0.0
 10
26.2868018298
 20
61.1189414043
 30
0.0
 10
26.1035485229
 20
61.2482201555
 30
0.0
 10
25.9774933661
 20
61.3209964878
 30
0.0
  0
SPLINE
  5
2ED
100
AcDbEntity
  8
0
100
AcDbSpline
 62
7
  6
BYLAYER
 70
0
 71
3
 72
12
 73
8
 74
0
 42
0.0000001
 43
0.0000001
 44
0.0000000001
 40
0.0
 40
0.0
 40
0.0
 40
0.0
 40
0.2894941049
 40
0.5486496671
 40
0.781581992
 40
0.8917812395
 40
1.0
 40
1.0
 40
1.0
 40
1.0
 10
34.0031681388
 20
57.0961147964
 30
0.0
 10
34.0031681388
 20
57.2050556108
 30
0.0
 10
34.0197140946
 20
57.4122536708
 30
0.0
 10
34.1034440958
 20
57.6967632621
 30
0.0
 10
34.2238516265
 20
57.8930705308
 30
0.0
 10
34.3454044788
 20
58.012668107
 30
0.0
 10
34.413190595
 20
58.0599924307
 30
0.0
 10
34.4484678295
 20
58.0803390268
 30
0.0
  0
SPLINE
  5
2EE
100
AcDbEntity
  8
0
100
AcDbSpline
 62
7
  6
BYLAYER
 70
0
 71
3
 72
24
 73
20
 74
0
 42
0.0000001
 43
0.0000001
 44
0.0000000001
 40
0.0
 40
0.0
 40
0.0
 40
0.0
 40
0.0707285004
 40
0.1439987025
 40
0.2188724895
 40
0.2944293304
 40
0.3696794608
 40
0.4436560802
 40
0.515444065
 40
0.5842186252
 40
0.6492928951
 40
0.7101722471
 40
0.766615936
 40
0.7932078308
 40
0.8187559006
 40
0.8669871383
 40
0.9123056934
 40
0.9560948535
 40
1.0
 40
1.0
 40
1.0
 40
1.0
 10
40.9882304424
 20
73.4757193214
 30
0.0
 10
40.6777519697
 20
73.3741618568
 30
0.0
 10
40.0351909585
 20
73.1983085662
 30
0.0
 10
39.0393599565
 20
73.0179500364
 30
0.0
 10
38.0097497414
 20
72.9189697366
 30
0.0
 10
36.9664280732
 20
72.9031277167
 30
0.0
 10
35.929314486
 20
72.9708416074
 30
0.0
 10
34.9184020278
 20
73.1207604267
 30
0.0
 10
33.9530735056
 20
73.350001132
 30
0.0
 10
33.0518092615
 20
73.6542208672
 30
0.0
 10
32.2317411074
 20
74.0277854066
 30
0.0
 10
31.5085345934
 20
74.4637306761
 30
0.0
 10
30.987690778
 20
74.8808153147
 30
0.0
 10
30.6359541143
 20
75.2390662567
 30
0.0
 10
30.3400360607
 20
75.5964594773
 30
0.0
 10
30.0474977882
 20
76.0667634569
 30
0.0
 10
29.8321561291
 20
76.6691632393
 30
0.0
 10
29.7664222458
 20
77.2858747141
 30
0.0
 10
29.8235658394
 20
77.6914994764
 30
0.0
 10
29.8747206723
 20
77.8877210885
 30
0.0
  0
SPLINE
  5
2EF
100
AcDbEntity
  8
0
100
AcDbSpline
 62
7
  6
BYLAYER
 70
0
 71
3
 72
15
 73
11
 74
0
 42
0.0000001
 43
0.0000001
 44
0.0000000001
 40
0.0
 40
0.0
 40
0.0
 40
0.0
 40
0.1141232787
 40
0.2373467935
 40
0.3669716251
 40
0.4999988493
 40
0.6330262331
 40
0.7626515288
 40
0.885875802
 40
1.0
 40
1.0
 40
1.0
 40
1.0
 10
35.5234540478
 20
54.4629169774
 30
0.0
 10
35.4194073635
 20
54.5229869996
 30
0.0
 10
35.2138503976
 20
54.6671354405
 30
0.0
 10
34.9309561332
 20
54.9317070568
 30
0.0
 10
34.6703121004
 20
55.2445730488
 30
0.0
 10
34.4416320947
 20
55.5937891533
 30
0.0
 10
34.2535400497
 20
55.966439419
 30
0.0
 10
34.1129096174
 20
56.3485973716
 30
0.0
 10
34.0252281118
 20
56.7258784246
 30
0.0
 10
34.0031681388
 20
56.9759717456
 30
0.0
 10
34.0031681388
 20
57.0961147964
 30
0.0
  0
SPLINE
  5
2F0
100
AcDbEntity
  8
0
100
AcDbSpline
 62
7
  6
BYLAYER
 70
0
 71
3
 72
9
 73
5
 74
0
 42
0.0000001
 43
0.0000001
 44
0.0000000001
 40
0.0
 40
0.0
 40
0.0
 40
0.0
 40
0.2570768492
 40
1.0
 40
1.0
 40
1.0
 40
1.0
 10
42.3705279359
 20
83.7820146957
 30
0.0
 10
42.3965195609
 20
83.8181472169
 30
0.0
 10
42.4941081988
 20
83.9611705029
 30
0.0
 10
42.5770844009
 20
84.1143504449
 30
0.0
 10
42.6280603089
 20
84.2324466366
 30
0.0
  0
SPLINE
  5
2F1
100
AcDbEntity
  8
0
100
AcDbSpline
 62
7
  6
BYLAYER
 70
0
 71
3
 72
11
 73
7
 74
0
 42
0.0000001
 43
0.0000001
 44
0.0000000001
 40
0.0
 40
0.0
 40
0.0
 40
0.0
 40
0.2557137792
 40
0.504507007
 40
0.751011074
 40
1.0
 40
1.0
 40
1.0
 40
1.0
 10
42.6280603089
 20
84.2324466366
 30
0.0
 10
42.6708464555
 20
84.331569559
 30
0.0
 10
42.7406990713
 20
84.5339060309
 30
0.0
 10
42.7938515374
 20
84.8479802289
 30
0.0
 10
42.7928154706
 20
85.1637148767
 30
0.0
 10
42.756362759
 20
85.3708783372
 30
0.0
 10
42.7298523623
 20
85.4726044425
 30
0.0
  0
SPLINE
  5
2F2
100
AcDbEntity
  8
0
100
AcDbSpline
 62
7
  6
BYLAYER
 70
0
 71
3
 72
11
 73
7
 74
0
 42
0.0000001
 43
0.0000001
 44
0.0000000001
 40
0.0
 40
0.0
 40
0.0
 40
0.0
 40
0.2897016594
 40
0.5490895814
 40
0.7822189142
 40
1.0
 40
1.0
 40
1.0
 40
1.0
 10
34.7102778639
 20
58.3208788761
 30
0.0
 10
34.7102778639
 20
58.4298150029
 30
0.0
 10
34.726794067
 20
58.6369894916
 30
0.0
 10
34.8106928602
 20
58.9216384808
 30
0.0
 10
34.9519608564
 20
59.152614838
 30
0.0
 10
35.08465475
 20
59.2641611657
 30
0.0
 10
35.1555722533
 20
59.3051123062
 30
0.0
  0
SPLINE
  5
2F3
100
AcDbEntity
  8
0
100
AcDbSpline
 62
7
  6
BYLAYER
 70
0
 71
3
 72
11
 73
7
 74
0
 42
0.0000001
 43
0.0000001
 44
0.0000000001
 40
0.0
 40
0.0
 40
0.0
 40
0.0
 40
0.2897016594
 40
0.5490895814
 40
0.7822189142
 40
1.0
 40
1.0
 40
1.0
 40
1.0
 10
19.1538639107
 20
67.3021754756
 30
0.0
 10
19.1538639107
 20
67.4111116024
 30
0.0
 10
19.1703801137
 20
67.6182860911
 30
0.0
 10
19.254278907
 20
67.9029350803
 30
0.0
 10
19.3955469031
 20
68.1339114375
 30
0.0
 10
19.5282407968
 20
68.2454577652
 30
0.0
 10
19.5991583001
 20
68.2864089057
 30
0.0
  0
SPLINE
  5
2F4
100
AcDbEntity
  8
0
100
AcDbSpline
 62
7
  6
BYLAYER
 70
0
 71
3
 72
15
 73
11
 74
0
 42
0.0000001
 43
0.0000001
 44
0.0000000001
 40
0.0
 40
0.0
 40
0.0
 40
0.0
 40
0.1141232787
 40
0.2373467935
 40
0.3669716251
 40
0.4999988493
 40
0.6330262331
 40
0.7626515288
 40
0.885875802
 40
1.0
 40
1.0
 40
1.0
 40
1.0
 10
20.6741498198
 20
63.0359728223
 30
0.0
 10
20.5701031354
 20
63.0960428446
 30
0.0
 10
20.3645461695
 20
63.2401912855
 30
0.0
 10
20.0816519051
 20
63.5047629017
 30
0.0
 10
19.8210078723
 20
63.8176288938
 30
0.0
 10
19.5923278666
 20
64.1668449983
 30
0.0
 10
19.4042358216
 20
64.5394952639
 30
0.0
 10
19.2636053893
 20
64.9216532165
 30
0.0
 10
19.1759238837
 20
65.2989342695
 30
0.0
 10
19.1538639107
 20
65.5490275906
 30
0.0
 10
19.1538639107
 20
65.6691706413
 30
0.0
  0
SPLINE
  5
2F5
100
AcDbEntity
  8
0
100
AcDbSpline
 62
7
  6
BYLAYER
 70
0
 71
3
 72
14
 73
10
 74
0
 42
0.0000001
 43
0.0000001
 44
0.0000000001
 40
0.0
 40
0.0
 40
0.0
 40
0.0
 40
0.119465259
 40
0.2376380118
 40
0.3560647243
 40
0.4762670044
 40
0.5996827931
 40
0.7275852601
 40
1.0
 40
1.0
 40
1.0
 40
1.0
 10
44.7075659154
 20
77.8877191022
 30
0.0
 10
44.7375386406
 20
77.7727643022
 30
0.0
 10
44.7819275951
 20
77.5397588957
 30
0.0
 10
44.7987880969
 20
77.1849506538
 30
0.0
 10
44.7653930806
 20
76.8305250796
 30
0.0
 10
44.6819712377
 20
76.4791626871
 30
0.0
 10
44.549202612
 20
76.1332479182
 30
0.0
 10
44.3029151322
 20
75.6731868056
 30
0.0
 10
44.05382375
 20
75.3575342739
 30
0.0
 10
43.8672628408
 20
75.1611209818
 30
0.0
  0
SPLINE
  5
2F6
100
AcDbEntity
  8
0
100
AcDbSpline
 62
7
  6
BYLAYER
 70
0
 71
3
 72
13
 73
9
 74
0
 42
0.0000001
 43
0.0000001
 44
0.0000000001
 40
0.0
 40
0.0
 40
0.0
 40
0.0
 40
0.2741445942
 40
0.5268043157
 40
0.6472494424
 40
0.7652668967
 40
0.8823330314
 40
1.0
 40
1.0
 40
1.0
 40
1.0
 10
25.1664346369
 20
56.7747656781
 30
0.0
 10
25.2772318483
 20
56.7107983254
 30
0.0
 10
25.5025281143
 20
56.6073368295
 30
0.0
 10
25.8022673457
 20
56.547750055
 30
0.0
 10
26.0321479816
 20
56.5505309105
 30
0.0
 10
26.1966509121
 20
56.5763972593
 30
0.0
 10
26.3542912263
 20
56.6258004769
 30
0.0
 10
26.4532243299
 20
56.6739004969
 30
0.0
 10
26.5007798525
 20
56.7013567651
 30
0.0
  0
SPLINE
  5
2F7
100
AcDbEntity
  8
0
100
AcDbSpline
 62
7
  6
BYLAYER
 70
0
 71
3
 72
17
 73
13
 74
0
 42
0.0000001
 43
0.0000001
 44
0.0000000001
 40
0.0
 40
0.0
 40
0.0
 40
0.0
 40
0.1401465869
 40
0.2074855779
 40
0.2727908987
 40
0.3978835048
 40
0.5186679467
 40
0.6395870889
 40
0.7617714559
 40
0.822824184
 40
0.8832431723
 40
1.0
 40
1.0
 40
1.0
 40
1.0
 10
27.6274061775
 20
62.7584970783
 30
0.0
 10
27.5815547582
 20
62.8760445997
 30
0.0
 10
27.5109939593
 20
63.0491506188
 30
0.0
 10
27.4043130387
 20
63.2704976226
 30
0.0
 10
27.291879442
 20
63.4735420071
 30
0.0
 10
27.1265371242
 20
63.7022222234
 30
0.0
 10
26.8670825406
 20
63.914752333
 30
0.0
 10
26.5559635417
 20
64.0325300293
 30
0.0
 10
26.2810277743
 20
64.060406646
 30
0.0
 10
26.0617271672
 20
64.047904497
 30
0.0
 10
25.8495089964
 20
64.0154881513
 30
0.0
 10
25.6953371152
 20
63.9699280363
 30
0.0
 10
25.598050867
 20
63.9301194075
 30
0.0
  0
SPLINE
  5
2F8
100
AcDbEntity
  8
0
100
AcDbSpline
 62
7
  6
BYLAYER
 70
0
 71
3
 72
11
 73
7
 74
0
 42
0.0000001
 43
0.0000001
 44
0.0000000001
 40
0.0
 40
0.0
 40
0.0
 40
0.0
 40
0.2177843137
 40
0.4509117637
 40
0.7102976701
 40
1.0
 40
1.0
 40
1.0
 40
1.0
 10
37.3055535963
 20
53.9482083139
 30
0.0
 10
37.2346339889
 20
53.9072631352
 30
0.0
 10
37.0716851652
 20
53.8481276725
 30
0.0
 10
36.8010299458
 20
53.8412747346
 30
0.0
 10
36.512574913
 20
53.9109314827
 30
0.0
 10
36.3249032447
 20
54.0002105356
 30
0.0
 10
36.230563773
 20
54.0546762228
 30
0.0
  0
ELLIPSE
  5
2F9
100
AcDbEntity
  8
0
100
AcDbEllipse
 62
7
  6
BYLAYER
 10
41.5950045665
 20
68.1005265486
 30
0.0
 11
21.3039755961
 21
22.8557691574
 31
0.0
 40
0.3616549068
 41
-4.118797571
 42
-3.9557780713
  0
ELLIPSE
  5
2FA
100
AcDbEntity
  8
0
100
AcDbEllipse
 62
7
  6
BYLAYER
 10
51.4980662066
 20
62.3831205899
 30
0.0
 11
3.3237895269
 21
31.7025986536
 31
0.0
 40
0.7130685124
 41
-4.5096268252
 42
-4.3466073255
  0
ELLIPSE
  5
2FB
100
AcDbEntity
  8
0
100
AcDbEllipse
 62
7
  6
BYLAYER
 10
53.8711052422
 20
61.0130768584
 30
0.0
 11
80.871298258
 21
-69.6368352819
 31
0.0
 40
0.2213038987
 41
-1.6480076218
 42
-1.6216383784
  0
ELLIPSE
  5
2FC
100
AcDbEntity
  8
0
100
AcDbEllipse
 62
7
  6
BYLAYER
 10
39.257800714
 20
69.4498812955
 30
0.0
 11
80.6637608157
 21
-16.6265911261
 31
0.0
 40
0.2066353302
 41
-1.8254718555
 42
-1.799102612
  0
ENDSEC
  0
SECTION
  2
OBJECTS
  0
DICTIONARY
  5
C
100
AcDbDictionary
280
0
281
1
  3
ACAD_GROUP
350
D
  3
ACAD_MLINESTYLE
350
17
  3
ACAD_LAYOUT
350
1A
  3
ACAD_PLOTSETTINGS
350
19
  3
ACAD_PLOTSTYLENAME
350
E
  0
DICTIONARY
  5
D
102
{ACAD_REACTORS
330
C
102
}
100
AcDbDictionary
280
0
281
1
  0
ACDBDICTIONARYWDFLT
  5
E
102
{ACAD_REACTORS
330
C
102
}
100
AcDbDictionary
281
1
  3
Normal
350
F
100
AcDbDictionaryWithDefault
340
F
  0
DICTIONARY
  5
17
102
{ACAD_REACTORS
330
C
102
}
100
AcDbDictionary
280
0
281
1
  3
Standard
350
18
  0
DICTIONARY
  5
19
102
{ACAD_REACTORS
330
C
102
}
100
AcDbDictionary
281
1
  0
DICTIONARY
  5
1A
102
{ACAD_REACTORS
330
C
102
}
100
AcDbDictionary
281
1
  3
Model
350
2FD
  3
Layout1
350
2FE
  0
ACDBPLACEHOLDER
  5
F
102
{ACAD_REACTORS
330
E
102
}
  0
MLINESTYLE
  5
18
102
{ACAD_REACTORS
330
17
102
}
100
AcDbMlineStyle
  2
STANDARD
 70
0
  3

 62
256
 51
90.0
 52
90.0
 71
2
 49
0.5
 62
256
  6
BYLAYER
 49
-0.5
 62
256
  6
BYLAYER
  0
LAYOUT
  5
2FD
102
{ACAD_REACTORS
330
1A
102
}
100
AcDbPlotSettings
  1

  2
none_device
  4

  6

 40
0.0
 41
0.0
 42
0.0
 43
0.0
 44
210.0
 45
297.0
 46
0.0
 47
0.0
 48
0.0
 49
0.0
140
0.0
141
0.0
142
1.0
143
1.0
 70
1024
 72
1
 73
0
 74
0
  7

 75
0
147
1.0
148
0.0
149
0.0
100
AcDbLayout
  1
Model
 70
0
 71
0
 10
0.0
 20
0.0
 11
210.0
 21
297.0
 12
0.0
 22
0.0
 32
0.0
 14
0.0
 24
0.0
 34
0.0
 15
0.0
 25
0.0
 35
0.0
146
0.0
 13
0.0
 23
0.0
 33
0.0
 16
1.0
 26
0.0
 36
0.0
 17
0.0
 27
1.0
 37
0.0
 76
0
330
210
345
0
346
0
  0
LAYOUT
  5
2FE
102
{ACAD_REACTORS
330
1A
102
}
100
AcDbPlotSettings
  1

  2
none_device
  4

  6

 40
0.0
 41
0.0
 42
0.0
 43
0.0
 44
210.0
 45
297.0
 46
0.0
 47
0.0
 48
0.0
 49
0.0
140
0.0
141
0.0
142
1.0
143
1.0
 70
0
 72
1
 73
0
 74
0
  7

 75
0
147
1.0
148
0.0
149
0.0
100
AcDbLayout
  1
Layout1
 70
0
 71
1
 10
0.0
 20
0.0
 11
210.0
 21
297.0
 12
0.0
 22
0.0
 32
0.0
 14
0.0
 24
0.0
 34
0.0
 15
0.0
 25
0.0
 35
0.0
146
0.0
 13
0.0
 23
0.0
 33
0.0
 16
1.0
 26
0.0
 36
0.0
 17
0.0
 27
1.0
 37
0.0
 76
0
330
211
345
0
346
0
  0
ENDSEC
  0
EOF
