999
DXF file: C:\Users\sesa63760\Dev\_Creo\CAD\MCADPP0000419_3D-CAD\drw0001_7.dxf
999
Pro/ENGINEER 2019471 by Parametric Technology Corporation
  0
SECTION
  2
HEADER
  9
$ACADVER
  1
AC1024
  9
$DWGCODEPAGE
  3
ANSI_1252
  9
$EXTMAX
 10
132.0945781668
 20
186.8194748359
 30
0.0
  9
$EXTMIN
 10
0.0
 20
0.0
 30
0.0
  9
$LIMMIN
 10
0.0
 20
0.0
  9
$LIMMAX
 10
132.0945781668
 20
186.8194748359
  9
$VIEWCTR
 10
66.0472890834
 20
93.4097374179
  9
$VIEWSIZE
 40
186.8194748359
  9
$CLAYER
  8
0
  9
$LTSCALE
 40
12.1778620634
  9
$CELTYPE
  6
BYLAYER
  9
$DIMSCALE
 40
1.0
  9
$DIMASZ
 40
1.572554502
  9
$DIMEXO
 40
1.0
  9
$DIMDLI
 40
8.4137956074
  9
$DIMEXE
 40
1.0
  9
$DIMCEN
 40
1.9927410649
  9
$DIMLFAC
 40
1.0
  9
$DIMBLK
  1
_FILLED
  9
$DIMALT
 70
0
  9
$DIMALTF
 40
0.0393700787
  9
$DIMTXT
 40
2.2015763028
  9
$DIMTOL
 70
1
  9
$DIMLIM
 70
0
  9
$DIMTFAC
 40
1.0
  9
$DIMTP
 40
0.01
  9
$DIMTM
 40
0.01
  9
$DIMGAP
 40
0.625
  9
$DIMDSEP
 70
46
  9
$AUNITS
 70
0
  9
$PDMODE
 70
3
  9
$PDSIZE
 40
0.3125
  9
$HANDSEED
  5
281
  9
$TILEMODE
 70
1
  9
$MEASUREMENT
 70
1
  9
$INSUNITS
 70
4
  0
ENDSEC
  0
SECTION
  2
CLASSES
  0
CLASS
  1
ACDBDICTIONARYWDFLT
  2
AcDbDictionaryWithDefault
  3
AutoCAD 2000
 90
0
 91
1
280
0
281
0
  0
CLASS
  1
ACDBPLACEHOLDER
  2
AcDbPlaceHolder
  3
AutoCAD 2000
 90
0
 91
1
280
0
281
0
  0
CLASS
  1
LAYOUT
  2
AcDbLayout
  3
AutoCAD 2000
 90
0
 91
0
280
0
281
0
  0
ENDSEC
  0
SECTION
  2
TABLES
  0
TABLE
  2
VPORT
  5
8
100
AcDbSymbolTable
 70
2
  0
VPORT
  5
1F4
100
AcDbSymbolTableRecord
100
AcDbViewportTableRecord
  2
*ACTIVE
 70
0
 10
0.0
 20
0.0
 11
1.0
 21
1.0
 12
66.0472890834
 22
93.4097374179
 13
0.0
 23
0.0
 14
1.0
 24
1.0
 15
0.0
 25
0.0
 16
0.0
 26
0.0
 36
1.0
 17
0.0
 27
0.0
 37
0.0
 40
186.8194748359
 41
0.7070707071
 42
50.0
 43
0.0
 44
0.0
 50
0.0
 51
0.0
 71
0
 72
100
 73
1
 74
1
 75
0
 76
0
 77
0
 78
0
  0
ENDTAB
  0
TABLE
  2
LTYPE
  5
5
100
AcDbSymbolTable
 70
6
  0
LTYPE
  5
14
100
AcDbSymbolTableRecord
100
AcDbLinetypeTableRecord
  2
BYBLOCK
 70
0
  3

 72
65
 73
0
 40
0.0
  0
LTYPE
  5
15
100
AcDbSymbolTableRecord
100
AcDbLinetypeTableRecord
  2
BYLAYER
 70
0
  3

 72
65
 73
0
 40
0.0
  0
LTYPE
  5
16
100
AcDbSymbolTableRecord
100
AcDbLinetypeTableRecord
  2
CONTINUOUS
 70
64
  3
Solid line
 72
65
 73
0
 40
0.0
  0
LTYPE
  5
1F5
100
AcDbSymbolTableRecord
100
AcDbLinetypeTableRecord
  2
CENTER
 70
64
  3
____ _ ____ _ ____ _ ____ _ ____ _ ____ _ ____
 72
65
 73
4
 40
0.6
 49
0.375
 74
0
 49
-0.075
 74
0
 49
0.075
 74
0
 49
-0.075
 74
0
  0
LTYPE
  5
1F6
100
AcDbSymbolTableRecord
100
AcDbLinetypeTableRecord
  2
HIDDEN
 70
64
  3
- - - - - - - - - - - - - - - - - - - -
 72
65
 73
2
 40
0.2
 49
0.1
 74
0
 49
-0.1
 74
0
  0
LTYPE
  5
1F7
100
AcDbSymbolTableRecord
100
AcDbLinetypeTableRecord
  2
PHANTOM
 70
64
  3
_____ _ _ _____ _ _ _____ _ _ _____
 72
65
 73
6
 40
0.8
 49
0.45
 74
0
 49
-0.05
 74
0
 49
0.1
 74
0
 49
-0.05
 74
0
 49
0.1
 74
0
 49
-0.05
 74
0
  0
LTYPE
  5
1F8
100
AcDbSymbolTableRecord
100
AcDbLinetypeTableRecord
  2
DOT
 70
64
  3
. . . . . . . . . . . . . . . . . . . .
 72
65
 73
2
 40
0.2
 49
0.1
 74
0
 49
-0.1
 74
0
  0
LTYPE
  5
1F9
100
AcDbSymbolTableRecord
100
AcDbLinetypeTableRecord
  2
DASHED
 70
64
  3
- - - - - - - - - - - - - - - - - - - -
 72
65
 73
2
 40
0.2
 49
0.1
 74
0
 49
-0.1
 74
0
  0
ENDTAB
  0
TABLE
  2
LAYER
  5
2
100
AcDbSymbolTable
 70
36
  0
LAYER
  5
10
100
AcDbSymbolTableRecord
100
AcDbLayerTableRecord
  2
0
 70
0
 62
7
  6
CONTINUOUS
370
-3
390
F
  0
LAYER
  5
1FA
100
AcDbSymbolTableRecord
100
AcDbLayerTableRecord
  2
DEFAULT_1
 70
0
 62
7
  6
CENTER
370
-3
390
F
  0
LAYER
  5
1FB
100
AcDbSymbolTableRecord
100
AcDbLayerTableRecord
  2
DEFAULT_2
 70
0
 62
8
  6
HIDDEN
370
-3
390
F
  0
LAYER
  5
1FC
100
AcDbSymbolTableRecord
100
AcDbLayerTableRecord
  2
DEFAULT_3
 70
0
 62
7
  6
PHANTOM
370
-3
390
F
  0
LAYER
  5
1FD
100
AcDbSymbolTableRecord
100
AcDbLayerTableRecord
  2
00_COMPONENTS
 70
0
 62
7
  6
CONTINUOUS
370
-3
390
F
  0
LAYER
  5
1FE
100
AcDbSymbolTableRecord
100
AcDbLayerTableRecord
  2
01_1_DEFAULT_DATUMS
 70
0
 62
7
  6
CONTINUOUS
370
-3
390
F
  0
LAYER
  5
1FF
100
AcDbSymbolTableRecord
100
AcDbLayerTableRecord
  2
01_PLANES
 70
0
 62
7
  6
CONTINUOUS
370
-3
390
F
  0
LAYER
  5
200
100
AcDbSymbolTableRecord
100
AcDbLayerTableRecord
  2
02_COORD_SYS
 70
0
 62
7
  6
CONTINUOUS
370
-3
390
F
  0
LAYER
  5
201
100
AcDbSymbolTableRecord
100
AcDbLayerTableRecord
  2
03_AXES
 70
0
 62
7
  6
CONTINUOUS
370
-3
390
F
  0
LAYER
  5
202
100
AcDbSymbolTableRecord
100
AcDbLayerTableRecord
  2
04_POINTS
 70
0
 62
7
  6
CONTINUOUS
370
-3
390
F
  0
LAYER
  5
203
100
AcDbSymbolTableRecord
100
AcDbLayerTableRecord
  2
05_CURVES
 70
0
 62
7
  6
CONTINUOUS
370
-3
390
F
  0
LAYER
  5
204
100
AcDbSymbolTableRecord
100
AcDbLayerTableRecord
  2
06_SURFS
 70
0
 62
7
  6
CONTINUOUS
370
-3
390
F
  0
LAYER
  5
205
100
AcDbSymbolTableRecord
100
AcDbLayerTableRecord
  2
07_COSMETICS
 70
0
 62
7
  6
CONTINUOUS
370
-3
390
F
  0
LAYER
  5
206
100
AcDbSymbolTableRecord
100
AcDbLayerTableRecord
  2
10_NOTES
 70
0
 62
7
  6
CONTINUOUS
370
-3
390
F
  0
LAYER
  5
207
100
AcDbSymbolTableRecord
100
AcDbLayerTableRecord
  2
11_NOTES_PUB
 70
0
 62
7
  6
CONTINUOUS
370
-3
390
F
  0
LAYER
  5
208
100
AcDbSymbolTableRecord
100
AcDbLayerTableRecord
  2
13_REF_GTOL
 70
0
 62
7
  6
CONTINUOUS
370
-3
390
F
  0
LAYER
  5
209
100
AcDbSymbolTableRecord
100
AcDbLayerTableRecord
  2
16_MISC
 70
0
 62
7
  6
CONTINUOUS
370
-3
390
F
  0
LAYER
  5
20A
100
AcDbSymbolTableRecord
100
AcDbLayerTableRecord
  2
17_NO_PRINT
 70
0
 62
7
  6
CONTINUOUS
370
-3
390
F
  0
LAYER
  5
20B
100
AcDbSymbolTableRecord
100
AcDbLayerTableRecord
  2
18_DATUM_CAMS_JOINTS
 70
0
 62
7
  6
CONTINUOUS
370
-3
390
F
  0
LAYER
  5
20C
100
AcDbSymbolTableRecord
100
AcDbLayerTableRecord
  2
19_DATUM_FUNCTIONAL
 70
0
 62
7
  6
CONTINUOUS
370
-3
390
F
  0
LAYER
  5
20D
100
AcDbSymbolTableRecord
100
AcDbLayerTableRecord
  2
20_DATUM_KINEMATIC_SCHEME
 70
0
 62
7
  6
CONTINUOUS
370
-3
390
F
  0
ENDTAB
  0
TABLE
  2
STYLE
  5
3
100
AcDbSymbolTable
 70
1
  0
STYLE
  5
11
100
AcDbSymbolTableRecord
100
AcDbTextStyleTableRecord
  2
STANDARD
 70
0
 40
0.0
 41
0.8
 50
0.0
 71
0
 42
0.2
  3
txt
  4

  0
STYLE
  5
20E
100
AcDbSymbolTableRecord
100
AcDbTextStyleTableRecord
  2
TEXTSTYLE_1
 70
0
 40
0.0
 41
0.8
 50
0.0
 71
0
 42
0.2
  3
gdt
  4

  0
ENDTAB
  0
TABLE
  2
VIEW
  5
6
100
AcDbSymbolTable
 70
0
  0
ENDTAB
  0
TABLE
  2
UCS
  5
7
100
AcDbSymbolTable
 70
0
  0
ENDTAB
  0
TABLE
  2
APPID
  5
9
100
AcDbSymbolTable
 70
1
  0
APPID
  5
20F
100
AcDbSymbolTableRecord
100
AcDbRegAppTableRecord
  2
ACAD
 70
0
  0
ENDTAB
  0
TABLE
  2
BLOCK_RECORD
  5
1
100
AcDbSymbolTable
 70
0
  0
BLOCK_RECORD
  5
210
100
AcDbSymbolTableRecord
100
AcDbBlockTableRecord
  2
*Model_Space
  0
BLOCK_RECORD
  5
211
100
AcDbSymbolTableRecord
100
AcDbBlockTableRecord
  2
*Paper_Space
  0
BLOCK_RECORD
  5
212
100
AcDbSymbolTableRecord
100
AcDbBlockTableRecord
  2
_FILLED
  0
ENDTAB
  0
TABLE
  2
DIMSTYLE
  5
A
100
AcDbSymbolTable
 70
1
100
AcDbDimStyleTable
 71
0
  0
DIMSTYLE
105
213
100
AcDbSymbolTableRecord
100
AcDbDimStyleTableRecord
  2
STANDARD
 70
0
  3

  4

 40
1.0
 41
1.572554502
 42
1.0
 43
0.38
 44
1.0
 45
0.0
 46
0.0
 47
0.01
 48
0.01
140
2.2015763028
141
0.09
142
0.0
143
25.4
144
1.0
145
0.0
146
1.0
147
0.625
 71
1
 72
0
 73
0
 74
0
 75
0
 76
0
 77
1
 78
8
 79
2
170
0
171
1
172
0
173
0
174
0
175
0
176
0
177
0
178
0
270
2
179
2
271
2
272
2
273
2
274
2
275
0
280
0
281
0
282
0
283
1
284
8
285
0
286
0
287
3
288
0
340
11
278
46
341
212
342
212
343
212
344
212
  0
ENDTAB
  0
ENDSEC
  0
SECTION
  2
BLOCKS
  0
BLOCK
  5
20
100
AcDbEntity
  8
0
100
AcDbBlockBegin
  2
*Model_Space
 70
0
 10
0.0
 20
0.0
 30
0.0
  3
*Model_Space
  1

  0
ENDBLK
  5
21
100
AcDbEntity
  8
0
100
AcDbBlockEnd
  0
BLOCK
  5
1C
100
AcDbEntity
  8
0
100
AcDbBlockBegin
  2
*Paper_Space
 70
0
 10
0.0
 20
0.0
 30
0.0
  3
*Paper_Space
  1

  0
ENDBLK
  5
1D
100
AcDbEntity
  8
0
100
AcDbBlockEnd
  0
BLOCK
  5
214
100
AcDbEntity
  8
0
100
AcDbBlockBegin
  2
_FILLED
 70
64
 10
0.0
 20
0.0
  3
_FILLED
  1

  0
SOLID
  5
215
100
AcDbEntity
  8
0
  6
BYBLOCK
 62
0
100
AcDbTrace
 10
0.0
 20
0.0
 11
-1.0
 21
0.25
 12
-1.0
 22
-0.25
 13
-1.0
 23
-0.25
  0
ENDBLK
  5
216
100
AcDbEntity
  8
0
  6
BYBLOCK
 62
0
100
AcDbBlockEnd
  0
ENDSEC
  0
SECTION
  2
ENTITIES
  0
LINE
  5
217
100
AcDbEntity
  8
0
100
AcDbLine
 62
7
  6
CONTINUOUS
 10
14.0259542913
 20
121.4170678337
 11
14.0259542913
 21
135.8670678337
  0
LINE
  5
218
100
AcDbEntity
  8
0
100
AcDbLine
 62
7
  6
CONTINUOUS
 10
18.6892578413
 20
135.8670678337
 11
18.6892578413
 21
126.3670678337
  0
LINE
  5
219
100
AcDbEntity
  8
0
100
AcDbLine
 62
7
  6
CONTINUOUS
 10
20.7759542913
 20
86.3670678337
 11
20.7759542913
 21
121.4170678337
  0
LINE
  5
21A
100
AcDbEntity
  8
0
100
AcDbLine
 62
7
  6
CONTINUOUS
 10
48.4038176525
 20
51.8670678337
 11
102.6581680514
 21
51.8670678337
  0
LINE
  5
21B
100
AcDbEntity
  8
0
100
AcDbLine
 62
7
  6
CONTINUOUS
 10
101.8030713305
 20
53.2968574624
 11
99.527111397
 21
53.2968574624
  0
LINE
  5
21C
100
AcDbEntity
  8
0
100
AcDbLine
 62
7
  6
CONTINUOUS
 10
94.9437075851
 20
54.9941790946
 11
82.6066122956
 21
54.9941790946
  0
LINE
  5
21D
100
AcDbEntity
  8
0
100
AcDbLine
 62
7
  6
CONTINUOUS
 10
81.1762904496
 20
54.9941790946
 11
72.4016317232
 21
54.9941790946
  0
LINE
  5
21E
100
AcDbEntity
  8
0
100
AcDbLine
 62
7
  6
CONTINUOUS
 10
70.9713098772
 20
54.9941790946
 11
62.1966511508
 21
54.9941790946
  0
LINE
  5
21F
100
AcDbEntity
  8
0
100
AcDbLine
 62
7
  6
CONTINUOUS
 10
60.7663293048
 20
54.9941790946
 11
48.4292340153
 21
54.9941790946
  0
LINE
  5
220
100
AcDbEntity
  8
0
100
AcDbLine
 62
7
  6
CONTINUOUS
 10
102.6935825518
 20
64.9828769893
 11
102.4953150612
 21
64.9828769893
  0
LINE
  5
221
100
AcDbEntity
  8
0
100
AcDbLine
 62
7
  6
CONTINUOUS
 10
95.073986511
 20
65.989404862
 11
97.3433437231
 21
65.989404862
  0
LINE
  5
222
100
AcDbEntity
  8
0
100
AcDbLine
 62
7
  6
CONTINUOUS
 10
97.2017884991
 20
68.2602430327
 11
98.7190189545
 21
68.2602734065
  0
LINE
  5
223
100
AcDbEntity
  8
0
100
AcDbLine
 62
7
  6
CONTINUOUS
 10
48.0259542913
 20
85.9670678337
 11
48.0259542913
 21
72.6419960837
  0
LINE
  5
224
100
AcDbEntity
  8
0
100
AcDbLine
 62
7
  6
CONTINUOUS
 10
72.479768947
 20
79.6727692213
 11
69.8461021561
 21
79.6693749048
  0
LINE
  5
225
100
AcDbEntity
  8
0
100
AcDbLine
 62
7
  6
CONTINUOUS
 10
54.9149861773
 20
79.6727686481
 11
56.775824615
 21
79.669373472
  0
LINE
  5
226
100
AcDbEntity
  8
0
100
AcDbLine
 62
7
  6
CONTINUOUS
 10
103.025949318
 20
85.9670678337
 11
48.0259592646
 21
85.9670678337
  0
LINE
  5
227
100
AcDbEntity
  8
0
100
AcDbLine
 62
7
  6
CONTINUOUS
 10
111.7759542913
 20
86.3670678337
 11
20.7759542913
 21
86.3670678337
  0
LINE
  5
228
100
AcDbEntity
  8
0
100
AcDbLine
 62
7
  6
CONTINUOUS
 10
63.0259542913
 20
85.9670678337
 11
63.0259542913
 21
86.3670678337
  0
LINE
  5
229
100
AcDbEntity
  8
0
100
AcDbLine
 62
7
  6
CONTINUOUS
 10
79.1259542913
 20
126.3670678337
 11
79.1259542913
 21
135.8670678337
  0
LINE
  5
22A
100
AcDbEntity
  8
0
100
AcDbLine
 62
7
  6
CONTINUOUS
 10
95.073986511
 20
65.989404862
 11
95.9567330007
 21
63.4733510908
  0
LINE
  5
22B
100
AcDbEntity
  8
0
100
AcDbLine
 62
7
  6
CONTINUOUS
 10
96.5993649789
 20
61.6416852266
 11
99.527111397
 21
53.2968574624
  0
LINE
  5
22C
100
AcDbEntity
  8
0
100
AcDbLine
 62
7
  6
CONTINUOUS
 10
88.0259542913
 20
85.9670678337
 11
88.0259542913
 21
86.3670678337
  0
LINE
  5
22D
100
AcDbEntity
  8
0
100
AcDbLine
 62
7
  6
CONTINUOUS
 10
88.4259542913
 20
135.8670678337
 11
88.4259542913
 21
126.3670678337
  0
LINE
  5
22E
100
AcDbEntity
  8
0
100
AcDbLine
 62
7
  6
CONTINUOUS
 10
118.5259542913
 20
121.4170678337
 11
14.0259542913
 21
121.4170678337
  0
LINE
  5
22F
100
AcDbEntity
  8
0
100
AcDbLine
 62
7
  6
CONTINUOUS
 10
14.0259542913
 20
126.3670678337
 11
118.5259542913
 21
126.3670678337
  0
LINE
  5
230
100
AcDbEntity
  8
0
100
AcDbLine
 62
7
  6
CONTINUOUS
 10
103.0259542913
 20
85.9670678337
 11
103.0259542913
 21
72.7214392115
  0
LINE
  5
231
100
AcDbEntity
  8
0
100
AcDbLine
 62
7
  6
CONTINUOUS
 10
102.4481510761
 20
53.9146742519
 11
102.3766282554
 21
53.5733145473
  0
LINE
  5
232
100
AcDbEntity
  8
0
100
AcDbLine
 62
7
  6
CONTINUOUS
 10
103.7522293603
 20
55.844060317
 11
103.8237519983
 21
56.185420132
  0
LINE
  5
233
100
AcDbEntity
  8
0
100
AcDbLine
 62
7
  6
CONTINUOUS
 10
97.3433437231
 20
65.989404862
 11
98.7190189545
 21
68.2602734065
  0
LINE
  5
234
100
AcDbEntity
  8
0
100
AcDbLine
 62
7
  6
CONTINUOUS
 10
99.793345302
 20
67.6543076658
 11
98.4175957614
 21
65.3833164569
  0
LINE
  5
235
100
AcDbEntity
  8
0
100
AcDbLine
 62
7
  6
CONTINUOUS
 10
118.5259542913
 20
135.8670678337
 11
14.0259542913
 21
135.8670678337
  0
LINE
  5
236
100
AcDbEntity
  8
0
100
AcDbLine
 62
7
  6
CONTINUOUS
 10
111.7759542913
 20
86.3670678337
 11
111.7759542913
 21
121.4170678337
  0
LINE
  5
237
100
AcDbEntity
  8
0
100
AcDbLine
 62
7
  6
CONTINUOUS
 10
113.8626507412
 20
126.3670678337
 11
113.8626507412
 21
135.8670678337
  0
LINE
  5
238
100
AcDbEntity
  8
0
100
AcDbLine
 62
7
  6
CONTINUOUS
 10
102.4953150612
 20
64.9828769893
 11
101.8318829483
 21
63.7969366643
  0
LINE
  5
239
100
AcDbEntity
  8
0
100
AcDbLine
 62
7
  6
CONTINUOUS
 10
118.5259542913
 20
121.4170678337
 11
118.5259542913
 21
135.8670678337
  0
LINE
  5
23A
100
AcDbEntity
  8
0
100
AcDbLine
 62
7
  6
CONTINUOUS
 10
103.8239006166
 20
56.1856654608
 11
102.448151076
 21
53.914674252
  0
LINE
  5
23B
100
AcDbEntity
  8
0
100
AcDbLine
 62
7
  6
CONTINUOUS
 10
103.7522741635
 20
55.8440332294
 11
102.3766732412
 21
53.5732873493
  0
ARC
  5
23C
100
AcDbEntity
  8
0
100
AcDbCircle
 62
7
  6
CONTINUOUS
 10
63.3109611112
 20
4594.0967200362
 40
4514.4313848686
100
AcDbArc
 50
269.9170579875
 51
270.0829420125
  0
ARC
  5
23D
100
AcDbEntity
  8
0
100
AcDbCircle
 62
7
  6
CONTINUOUS
 10
520.4111465715
 20
50.8136396208
 40
417.8368374079
100
AcDbArc
 50
178.0558612384
 51
178.4783990853
  0
ARC
  5
23E
100
AcDbEntity
  8
0
100
AcDbCircle
 62
7
  6
CONTINUOUS
 10
106.0047245276
 20
59.2488328664
 40
12.7356806525
100
AcDbArc
 50
148.1587994174
 51
153.2412631675
  0
ARC
  5
23F
100
AcDbEntity
  8
0
100
AcDbCircle
 62
7
  6
CONTINUOUS
 10
73.8123507332
 20
59.7428140416
 40
4.8444688889
100
AcDbArc
 50
253.463685108
 51
255.1165125623
  0
ARC
  5
240
100
AcDbEntity
  8
0
100
AcDbCircle
 62
7
  6
CONTINUOUS
 10
84.0173313056
 20
59.7428140415
 40
4.8444688887
100
AcDbArc
 50
253.463685108
 51
255.1165125623
  0
ARC
  5
241
100
AcDbEntity
  8
0
100
AcDbCircle
 62
7
  6
CONTINUOUS
 10
63.6073701608
 20
59.7428140416
 40
4.8444688888
100
AcDbArc
 50
253.463685108
 51
255.1165125623
  0
ARC
  5
242
100
AcDbEntity
  8
0
100
AcDbCircle
 62
7
  6
CONTINUOUS
 10
73.3895822787
 20
59.2787282412
 40
4.3701989186
100
AcDbArc
 50
257.053099438
 51
257.8123812185
  0
ARC
  5
243
100
AcDbEntity
  8
0
100
AcDbCircle
 62
7
  6
CONTINUOUS
 10
83.5945628509
 20
59.2787282405
 40
4.370198918
100
AcDbArc
 50
257.0530994381
 51
257.8123812186
  0
ARC
  5
244
100
AcDbEntity
  8
0
100
AcDbCircle
 62
7
  6
CONTINUOUS
 10
63.1846017061
 20
59.2787282406
 40
4.370198918
100
AcDbArc
 50
257.053099438
 51
257.8123812186
  0
SPLINE
  5
245
100
AcDbEntity
  8
0
100
AcDbSpline
 62
7
  6
CONTINUOUS
 70
0
 71
3
 72
9
 73
5
 74
0
 42
0.0000001
 43
0.0000001
 44
0.0000000001
 40
0.0
 40
0.0
 40
0.0
 40
0.0
 40
0.5165291808
 40
1.0
 40
1.0
 40
1.0
 40
1.0
 10
84.7025994894
 20
59.1670678337
 30
0.0
 10
84.7025994894
 20
59.5165915969
 30
0.0
 10
84.748569803
 20
60.1940759223
 30
0.0
 10
84.8912395922
 20
60.8588252057
 30
0.0
 10
84.9880070687
 20
61.1713403813
 30
0.0
  0
SPLINE
  5
246
100
AcDbEntity
  8
0
100
AcDbSpline
 62
7
  6
CONTINUOUS
 70
0
 71
3
 72
10
 73
6
 74
0
 42
0.0000001
 43
0.0000001
 44
0.0000000001
 40
0.0
 40
0.0
 40
0.0
 40
0.0
 40
0.2329592575
 40
0.4795253442
 40
1.0
 40
1.0
 40
1.0
 40
1.0
 10
64.6602118816
 20
56.9187466417
 30
0.0
 10
64.5992948514
 20
57.0856273493
 30
0.0
 10
64.4922515784
 20
57.4360657416
 30
0.0
 10
64.3375936802
 20
58.1834762481
 30
0.0
 10
64.2926383445
 20
58.7701610791
 30
0.0
 10
64.2926383445
 20
59.1670678337
 30
0.0
  0
SPLINE
  5
247
100
AcDbEntity
  8
0
100
AcDbSpline
 62
7
  6
CONTINUOUS
 70
0
 71
3
 72
9
 73
5
 74
0
 42
0.0000001
 43
0.0000001
 44
0.0000000001
 40
0.0
 40
0.0
 40
0.0
 40
0.0
 40
0.5165291808
 40
1.0
 40
1.0
 40
1.0
 40
1.0
 10
74.497618917
 20
59.1670678337
 30
0.0
 10
74.497618917
 20
59.5165915969
 30
0.0
 10
74.5435892306
 20
60.1940759223
 30
0.0
 10
74.6862590198
 20
60.8588252057
 30
0.0
 10
74.7830264962
 20
61.1713403813
 30
0.0
  0
SPLINE
  5
248
100
AcDbEntity
  8
0
100
AcDbSpline
 62
7
  6
CONTINUOUS
 70
0
 71
3
 72
9
 73
5
 74
0
 42
0.0000001
 43
0.0000001
 44
0.0000000001
 40
0.0
 40
0.0
 40
0.0
 40
0.0
 40
0.5165291808
 40
1.0
 40
1.0
 40
1.0
 40
1.0
 10
64.2926383445
 20
59.1670678337
 30
0.0
 10
64.2926383445
 20
59.5165915969
 30
0.0
 10
64.3386086582
 20
60.1940759223
 30
0.0
 10
64.4812784474
 20
60.8588252057
 30
0.0
 10
64.5780459238
 20
61.1713403813
 30
0.0
  0
SPLINE
  5
249
100
AcDbEntity
  8
0
100
AcDbSpline
 62
7
  6
CONTINUOUS
 70
0
 71
3
 72
10
 73
6
 74
0
 42
0.0000001
 43
0.0000001
 44
0.0000000001
 40
0.0
 40
0.0
 40
0.0
 40
0.0
 40
0.2329592575
 40
0.4795253442
 40
1.0
 40
1.0
 40
1.0
 40
1.0
 10
74.865192454
 20
56.9187466417
 30
0.0
 10
74.8042754238
 20
57.0856273493
 30
0.0
 10
74.6972321508
 20
57.4360657416
 30
0.0
 10
74.5425742526
 20
58.1834762481
 30
0.0
 10
74.497618917
 20
58.7701610791
 30
0.0
 10
74.497618917
 20
59.1670678337
 30
0.0
  0
SPLINE
  5
24A
100
AcDbEntity
  8
0
100
AcDbSpline
 62
7
  6
CONTINUOUS
 70
0
 71
3
 72
10
 73
6
 74
0
 42
0.0000001
 43
0.0000001
 44
0.0000000001
 40
0.0
 40
0.0
 40
0.0
 40
0.0
 40
0.2329592575
 40
0.4795253442
 40
1.0
 40
1.0
 40
1.0
 40
1.0
 10
85.0701730264
 20
56.9187466417
 30
0.0
 10
85.0092559962
 20
57.0856273493
 30
0.0
 10
84.9022127232
 20
57.4360657416
 30
0.0
 10
84.747554825
 20
58.1834762481
 30
0.0
 10
84.7025994894
 20
58.7701610791
 30
0.0
 10
84.7025994894
 20
59.1670678337
 30
0.0
  0
SPLINE
  5
24B
100
AcDbEntity
  8
0
100
AcDbSpline
 62
7
  6
CONTINUOUS
 70
0
 71
3
 72
9
 73
5
 74
0
 42
0.0000001
 43
0.0000001
 44
0.0000000001
 40
0.0
 40
0.0
 40
0.0
 40
0.0
 40
0.4894893549
 40
1.0
 40
1.0
 40
1.0
 40
1.0
 10
103.8237519983
 20
56.185420132
 30
0.0
 10
103.7469997045
 20
57.1397265621
 30
0.0
 10
103.4510900378
 20
59.0799261903
 30
0.0
 10
102.9094558172
 20
60.96494095
 30
0.0
 10
102.5788901146
 20
61.9071379366
 30
0.0
  0
SPLINE
  5
24C
100
AcDbEntity
  8
0
100
AcDbSpline
 62
7
  6
CONTINUOUS
 70
0
 71
3
 72
9
 73
5
 74
0
 42
0.0000001
 43
0.0000001
 44
0.0000000001
 40
0.0
 40
0.0
 40
0.0
 40
0.0
 40
0.2428733034
 40
1.0
 40
1.0
 40
1.0
 40
1.0
 10
102.5788901146
 20
61.9071379366
 30
0.0
 10
102.4075232342
 20
62.3955774724
 30
0.0
 10
101.6417877767
 20
64.3853406262
 30
0.0
 10
100.6459869824
 20
66.2841749136
 30
0.0
 10
99.7931966837
 20
67.6540623371
 30
0.0
  0
SPLINE
  5
24D
100
AcDbEntity
  8
0
100
AcDbSpline
 62
7
  6
CONTINUOUS
 70
0
 71
3
 72
11
 73
7
 74
0
 42
0.0000001
 43
0.0000001
 44
0.0000000001
 40
0.0
 40
0.0
 40
0.0
 40
0.0
 40
0.2458252
 40
0.5034718389
 40
0.7592510886
 40
1.0
 40
1.0
 40
1.0
 40
1.0
 10
99.7931966837
 20
67.6540623371
 30
0.0
 10
99.7376713127
 20
67.7430067248
 30
0.0
 10
99.5970680448
 20
67.9091146211
 30
0.0
 10
99.3328650038
 20
68.1010975367
 30
0.0
 10
99.0340064806
 20
68.2274121069
 30
0.0
 10
98.8216325219
 20
68.2601507421
 30
0.0
 10
98.7189446454
 20
68.2601507421
 30
0.0
  0
SPLINE
  5
24E
100
AcDbEntity
  8
0
100
AcDbSpline
 62
7
  6
CONTINUOUS
 70
0
 71
3
 72
11
 73
7
 74
0
 42
0.0000001
 43
0.0000001
 44
0.0000000001
 40
0.0
 40
0.0
 40
0.0
 40
0.0
 40
0.2289648073
 40
0.467838913
 40
0.7239398839
 40
1.0
 40
1.0
 40
1.0
 40
1.0
 10
102.3766716431
 20
53.5732882636
 30
0.0
 10
102.3504114673
 20
53.5299390403
 30
0.0
 10
102.2824538982
 20
53.4493160648
 30
0.0
 10
102.1462825533
 20
53.3611102644
 30
0.0
 10
101.9824305318
 20
53.3078236619
 30
0.0
 10
101.864179042
 20
53.2968574624
 30
0.0
 10
101.8030713305
 20
53.2968574624
 30
0.0
  0
SPLINE
  5
24F
100
AcDbEntity
  8
0
100
AcDbSpline
 62
7
  6
CONTINUOUS
 70
0
 71
3
 72
10
 73
6
 74
0
 42
0.0000001
 43
0.0000001
 44
0.0000000001
 40
0.0
 40
0.0
 40
0.0
 40
0.0
 40
0.5205714668
 40
0.7636448256
 40
1.0
 40
1.0
 40
1.0
 40
1.0
 10
99.4424918941
 20
53.5380447362
 30
0.0
 10
99.3224728541
 20
53.4488847553
 30
0.0
 10
99.1304407316
 20
53.3362211584
 30
0.0
 10
98.8562652057
 20
53.2479135106
 30
0.0
 10
98.7195958753
 20
53.2261485898
 30
0.0
 10
98.6519168333
 20
53.2208862234
 30
0.0
  0
SPLINE
  5
250
100
AcDbEntity
  8
0
100
AcDbSpline
 62
7
  6
CONTINUOUS
 70
0
 71
3
 72
14
 73
10
 74
0
 42
0.0000001
 43
0.0000001
 44
0.0000000001
 40
0.0
 40
0.0
 40
0.0
 40
0.0
 40
0.1243650869
 40
0.2496003297
 40
0.4994738232
 40
0.624552867
 40
0.7496346837
 40
0.8747855208
 40
1.0
 40
1.0
 40
1.0
 40
1.0
 10
82.541295656
 20
63.2054822747
 30
0.0
 10
82.3211180313
 20
63.135186575
 30
0.0
 10
81.8883257488
 20
62.9634430915
 30
0.0
 10
81.0751682392
 20
62.5127102503
 30
0.0
 10
80.3533236857
 20
61.9043601889
 30
0.0
 10
79.7920711855
 20
61.159617567
 30
0.0
 10
79.4685704795
 20
60.5374704907
 30
0.0
 10
79.2634722803
 20
59.8663726622
 30
0.0
 10
79.2164585106
 20
59.3997733517
 30
0.0
 10
79.2164585106
 20
59.1670678337
 30
0.0
  0
SPLINE
  5
251
100
AcDbEntity
  8
0
100
AcDbSpline
 62
7
  6
CONTINUOUS
 70
0
 71
3
 72
14
 73
10
 74
0
 42
0.0000001
 43
0.0000001
 44
0.0000000001
 40
0.0
 40
0.0
 40
0.0
 40
0.0
 40
0.1252476021
 40
0.2504306072
 40
0.3755459047
 40
0.5006646336
 40
0.7506183471
 40
0.8758452025
 40
1.0
 40
1.0
 40
1.0
 40
1.0
 10
69.0114779382
 20
59.1670678337
 30
0.0
 10
69.0114779382
 20
58.9300737409
 30
0.0
 10
69.0602606756
 20
58.4548295515
 30
0.0
 10
69.2728302528
 20
57.7723614256
 30
0.0
 10
69.6075001083
 20
57.1413484248
 30
0.0
 10
70.1869355091
 20
56.3887112741
 30
0.0
 10
70.930135095
 20
55.7783354681
 30
0.0
 10
71.7648434855
 20
55.3323099485
 30
0.0
 10
72.2082892277
 20
55.1655645643
 30
0.0
 10
72.4335034579
 20
55.0987146665
 30
0.0
  0
SPLINE
  5
252
100
AcDbEntity
  8
0
100
AcDbSpline
 62
7
  6
CONTINUOUS
 70
0
 71
3
 72
14
 73
10
 74
0
 42
0.0000001
 43
0.0000001
 44
0.0000000001
 40
0.0
 40
0.0
 40
0.0
 40
0.0
 40
0.1252476021
 40
0.2504306072
 40
0.3755459047
 40
0.5006646336
 40
0.7506183471
 40
0.8758452025
 40
1.0
 40
1.0
 40
1.0
 40
1.0
 10
79.2164585106
 20
59.1670678337
 30
0.0
 10
79.2164585106
 20
58.9300737409
 30
0.0
 10
79.265241248
 20
58.4548295515
 30
0.0
 10
79.4778108252
 20
57.7723614256
 30
0.0
 10
79.8124806808
 20
57.1413484248
 30
0.0
 10
80.3919160815
 20
56.3887112741
 30
0.0
 10
81.1351156674
 20
55.7783354681
 30
0.0
 10
81.9698240579
 20
55.3323099485
 30
0.0
 10
82.4132698001
 20
55.1655645643
 30
0.0
 10
82.6384840303
 20
55.0987146665
 30
0.0
  0
SPLINE
  5
253
100
AcDbEntity
  8
0
100
AcDbSpline
 62
7
  6
CONTINUOUS
 70
0
 71
3
 72
14
 73
10
 74
0
 42
0.0000001
 43
0.0000001
 44
0.0000000001
 40
0.0
 40
0.0
 40
0.0
 40
0.0
 40
0.1243650869
 40
0.2496003297
 40
0.4994738232
 40
0.624552867
 40
0.7496346837
 40
0.8747855208
 40
1.0
 40
1.0
 40
1.0
 40
1.0
 10
62.1313345111
 20
63.2054822747
 30
0.0
 10
61.9111568865
 20
63.135186575
 30
0.0
 10
61.478364604
 20
62.9634430915
 30
0.0
 10
60.6652070943
 20
62.5127102503
 30
0.0
 10
59.9433625409
 20
61.9043601889
 30
0.0
 10
59.3821100407
 20
61.159617567
 30
0.0
 10
59.0586093347
 20
60.5374704907
 30
0.0
 10
58.8535111355
 20
59.8663726622
 30
0.0
 10
58.8064973657
 20
59.3997733517
 30
0.0
 10
58.8064973657
 20
59.1670678337
 30
0.0
  0
SPLINE
  5
254
100
AcDbEntity
  8
0
100
AcDbSpline
 62
7
  6
CONTINUOUS
 70
0
 71
3
 72
11
 73
7
 74
0
 42
0.0000001
 43
0.0000001
 44
0.0000000001
 40
0.0
 40
0.0
 40
0.0
 40
0.0
 40
0.2407490357
 40
0.4965283273
 40
0.7541749261
 40
1.0
 40
1.0
 40
1.0
 40
1.0
 10
97.3433437231
 20
65.989404862
 30
0.0
 10
97.4460316527
 20
65.989404862
 30
0.0
 10
97.6584056829
 20
65.9566661992
 30
0.0
 10
97.9572642391
 20
65.8303515675
 30
0.0
 10
98.2214672112
 20
65.6383686484
 30
0.0
 10
98.3620704189
 20
65.4722607991
 30
0.0
 10
98.4175957614
 20
65.383316457
 30
0.0
  0
SPLINE
  5
255
100
AcDbEntity
  8
0
100
AcDbSpline
 62
7
  6
CONTINUOUS
 70
0
 71
3
 72
9
 73
5
 74
0
 42
0.0000001
 43
0.0000001
 44
0.0000000001
 40
0.0
 40
0.0
 40
0.0
 40
0.0
 40
0.2573462487
 40
1.0
 40
1.0
 40
1.0
 40
1.0
 10
98.4175957614
 20
65.383316457
 30
0.0
 10
98.707445316
 20
64.9177139986
 30
0.0
 10
99.7878947598
 20
63.080655365
 30
0.0
 10
100.6793093328
 20
61.1298689687
 30
0.0
 10
101.2032891923
 20
59.6363920566
 30
0.0
  0
SPLINE
  5
256
100
AcDbEntity
  8
0
100
AcDbSpline
 62
7
  6
CONTINUOUS
 70
0
 71
3
 72
9
 73
5
 74
0
 42
0.0000001
 43
0.0000001
 44
0.0000000001
 40
0.0
 40
0.0
 40
0.0
 40
0.0
 40
0.5105106451
 40
1.0
 40
1.0
 40
1.0
 40
1.0
 10
101.2032891923
 20
59.6363920566
 30
0.0
 10
101.5338548949
 20
58.6941950699
 30
0.0
 10
102.0754891155
 20
56.8091803102
 30
0.0
 10
102.3713987822
 20
54.868980682
 30
0.0
 10
102.4481510761
 20
53.9146742519
 30
0.0
  0
SPLINE
  5
257
100
AcDbEntity
  8
0
100
AcDbSpline
 62
7
  6
CONTINUOUS
 70
0
 71
3
 72
14
 73
10
 74
0
 42
0.0000001
 43
0.0000001
 44
0.0000000001
 40
0.0
 40
0.0
 40
0.0
 40
0.0
 40
0.1243650869
 40
0.2496003297
 40
0.4994738232
 40
0.624552867
 40
0.7496346837
 40
0.8747855208
 40
1.0
 40
1.0
 40
1.0
 40
1.0
 10
72.3363150836
 20
63.2054822747
 30
0.0
 10
72.1161374589
 20
63.135186575
 30
0.0
 10
71.6833451764
 20
62.9634430915
 30
0.0
 10
70.8701876667
 20
62.5127102503
 30
0.0
 10
70.1483431133
 20
61.9043601889
 30
0.0
 10
69.5870906131
 20
61.159617567
 30
0.0
 10
69.2635899071
 20
60.5374704907
 30
0.0
 10
69.0584917079
 20
59.8663726622
 30
0.0
 10
69.0114779382
 20
59.3997733517
 30
0.0
 10
69.0114779382
 20
59.1670678337
 30
0.0
  0
SPLINE
  5
258
100
AcDbEntity
  8
0
100
AcDbSpline
 62
7
  6
CONTINUOUS
 70
0
 71
3
 72
14
 73
10
 74
0
 42
0.0000001
 43
0.0000001
 44
0.0000000001
 40
0.0
 40
0.0
 40
0.0
 40
0.0
 40
0.1252476021
 40
0.2504306072
 40
0.3755459047
 40
0.5006646336
 40
0.7506183471
 40
0.8758452025
 40
1.0
 40
1.0
 40
1.0
 40
1.0
 10
58.8064973657
 20
59.1670678337
 30
0.0
 10
58.8064973657
 20
58.9300737409
 30
0.0
 10
58.8552801032
 20
58.4548295515
 30
0.0
 10
59.0678496804
 20
57.7723614256
 30
0.0
 10
59.4025195359
 20
57.1413484248
 30
0.0
 10
59.9819549367
 20
56.3887112741
 30
0.0
 10
60.7251545226
 20
55.7783354681
 30
0.0
 10
61.5598629131
 20
55.3323099485
 30
0.0
 10
62.0033086553
 20
55.1655645643
 30
0.0
 10
62.2285228855
 20
55.0987146665
 30
0.0
  0
SPLINE
  5
259
100
AcDbEntity
  8
0
100
AcDbSpline
 62
7
  6
CONTINUOUS
 70
0
 71
3
 72
9
 73
5
 74
0
 42
0.0000001
 43
0.0000001
 44
0.0000000001
 40
0.0
 40
0.0
 40
0.0
 40
0.0
 40
0.4895852617
 40
1.0
 40
1.0
 40
1.0
 40
1.0
 10
96.8303122721
 20
62.4007553766
 30
0.0
 10
96.6425614892
 20
61.8965556456
 30
0.0
 10
96.3550228119
 20
60.829069228
 30
0.0
 10
96.2583923848
 20
59.7279801095
 30
0.0
 10
96.2583923848
 20
59.1670678337
 30
0.0
  0
SPLINE
  5
25A
100
AcDbEntity
  8
0
100
AcDbSpline
 62
7
  6
CONTINUOUS
 70
0
 71
3
 72
18
 73
14
 74
0
 42
0.0000001
 43
0.0000001
 44
0.0000000001
 40
0.0
 40
0.0
 40
0.0
 40
0.0
 40
0.15850632
 40
0.313340837
 40
0.4609726948
 40
0.5981158389
 40
0.7218448206
 40
0.7779905525
 40
0.8300398468
 40
0.8779526402
 40
0.9219137894
 40
0.9623508518
 40
1.0
 40
1.0
 40
1.0
 40
1.0
 10
96.2583923848
 20
59.1670678337
 30
0.0
 10
96.2583923848
 20
58.7437779371
 30
0.0
 10
96.3139342815
 20
57.9059164393
 30
0.0
 10
96.5576146576
 20
56.6957463539
 30
0.0
 10
96.9415067368
 20
55.5824056709
 30
0.0
 10
97.4368818455
 20
54.6066164013
 30
0.0
 10
97.9303759507
 20
53.9135235934
 30
0.0
 10
98.3557137525
 20
53.4621538267
 30
0.0
 10
98.671234673
 20
53.1884373225
 30
0.0
 10
98.9895280227
 20
52.9712555321
 30
0.0
 10
99.3068870046
 20
52.8129265384
 30
0.0
 10
99.6196704578
 20
52.7159112817
 30
0.0
 10
99.8286269457
 20
52.6926852055
 30
0.0
 10
99.9291687036
 20
52.6926852055
 30
0.0
  0
SPLINE
  5
25B
100
AcDbEntity
  8
0
100
AcDbSpline
 62
7
  6
CONTINUOUS
 70
0
 71
3
 72
11
 73
7
 74
0
 42
0.0000001
 43
0.0000001
 44
0.0000000001
 40
0.0
 40
0.0
 40
0.0
 40
0.0
 40
0.4404559727
 40
0.5690938531
 40
0.7053433059
 40
1.0
 40
1.0
 40
1.0
 40
1.0
 10
99.9291687036
 20
69.6670678337
 30
0.0
 10
99.4783454706
 20
69.6670678337
 30
0.0
 10
98.8957542693
 20
69.4909753246
 30
0.0
 10
98.2580231907
 20
69.1561625366
 30
0.0
 10
97.7716530889
 20
68.8520720846
 30
0.0
 10
97.4230296428
 20
68.5796895382
 30
0.0
 10
97.1957504064
 20
68.3814422166
 30
0.0
  0
SPLINE
  5
25C
100
AcDbEntity
  8
0
100
AcDbSpline
 62
7
  6
CONTINUOUS
 70
0
 71
3
 72
9
 73
5
 74
0
 42
0.0000001
 43
0.0000001
 44
0.0000000001
 40
0.0
 40
0.0
 40
0.0
 40
0.0
 40
0.4749981411
 40
1.0
 40
1.0
 40
1.0
 40
1.0
 10
97.1957504064
 20
68.3814422166
 30
0.0
 10
96.819944066
 20
68.0536401631
 30
0.0
 10
96.0897295514
 20
67.2925107627
 30
0.0
 10
95.4764465111
 20
66.4359459023
 30
0.0
 10
95.185591285
 20
65.9677552175
 30
0.0
  0
SPLINE
  5
25D
100
AcDbEntity
  8
0
100
AcDbSpline
 62
7
  6
CONTINUOUS
 70
0
 71
3
 72
11
 73
7
 74
0
 42
0.0000001
 43
0.0000001
 44
0.0000000001
 40
0.0
 40
0.0
 40
0.0
 40
0.0
 40
0.2351949705
 40
0.4821286167
 40
0.7378279171
 40
1.0
 40
1.0
 40
1.0
 40
1.0
 10
103.0259579956
 20
72.721433765
 30
0.0
 10
103.0259532707
 20
72.1149577141
 30
0.0
 10
103.0081802941
 20
70.8717464697
 30
0.0
 10
102.9534693087
 20
68.9699535492
 30
0.0
 10
102.8847687653
 20
66.9990110633
 30
0.0
 10
102.8375899215
 20
65.6644570915
 30
0.0
 10
102.8148253528
 20
64.9888009839
 30
0.0
  0
LINE
  5
25E
100
AcDbEntity
  8
0
100
AcDbLine
 62
7
  6
CONTINUOUS
 10
102.7216446841
 20
61.9088055999
 11
102.7107243819
 21
61.4755481562
  0
SPLINE
  5
25F
100
AcDbEntity
  8
0
100
AcDbSpline
 62
7
  6
CONTINUOUS
 70
0
 71
3
 72
23
 73
19
 74
0
 42
0.0000001
 43
0.0000001
 44
0.0000000001
 40
0.0
 40
0.0
 40
0.0
 40
0.0
 40
0.0587923309
 40
0.1186210886
 40
0.1795872435
 40
0.241699368
 40
0.3048463035
 40
0.3688496601
 40
0.4334802939
 40
0.4985165444
 40
0.5637064452
 40
0.6287704787
 40
0.6933955648
 40
0.7572699116
 40
0.8200851987
 40
0.8815564069
 40
0.9415250657
 40
1.0
 40
1.0
 40
1.0
 40
1.0
 10
82.6066122956
 20
54.9941790946
 30
0.0
 10
82.8372105633
 20
55.0441354297
 30
0.0
 10
83.293276581
 20
55.1934927883
 30
0.0
 10
83.924081925
 20
55.5511151186
 30
0.0
 10
84.4846960191
 20
56.0319080079
 30
0.0
 10
84.9540815117
 20
56.6189612264
 30
0.0
 10
85.3142301716
 20
57.2924695306
 30
0.0
 10
85.5507695589
 20
58.0292333849
 30
0.0
 10
85.6537896301
 20
58.8037364522
 30
0.0
 10
85.619675718
 20
59.5889682551
 30
0.0
 10
85.4506764234
 20
60.3582341061
 30
0.0
 10
85.1540466003
 20
61.0859717767
 30
0.0
 10
84.7418186839
 20
61.7487769079
 30
0.0
 10
84.2293207445
 20
62.3255327093
 30
0.0
 10
83.634976316
 20
62.7976031724
 30
0.0
 10
82.9795807832
 20
63.1490226837
 30
0.0
 10
82.2866459616
 20
63.3666437502
 30
0.0
 10
81.8100455693
 20
63.4170678337
 30
0.0
 10
81.5753719122
 20
63.4170678337
 30
0.0
  0
SPLINE
  5
260
100
AcDbEntity
  8
0
100
AcDbSpline
 62
7
  6
CONTINUOUS
 70
0
 71
3
 72
23
 73
19
 74
0
 42
0.0000001
 43
0.0000001
 44
0.0000000001
 40
0.0
 40
0.0
 40
0.0
 40
0.0
 40
0.0587923309
 40
0.1186210886
 40
0.1795872435
 40
0.241699368
 40
0.3048463035
 40
0.3688496601
 40
0.4334802939
 40
0.4985165444
 40
0.5637064452
 40
0.6287704787
 40
0.6933955648
 40
0.7572699116
 40
0.8200851987
 40
0.8815564069
 40
0.9415250657
 40
1.0
 40
1.0
 40
1.0
 40
1.0
 10
72.4016317232
 20
54.9941790946
 30
0.0
 10
72.6322299909
 20
55.0441354297
 30
0.0
 10
73.0882960086
 20
55.1934927883
 30
0.0
 10
73.7191013526
 20
55.5511151186
 30
0.0
 10
74.2797154467
 20
56.0319080079
 30
0.0
 10
74.7491009393
 20
56.6189612264
 30
0.0
 10
75.1092495992
 20
57.2924695306
 30
0.0
 10
75.3457889865
 20
58.0292333849
 30
0.0
 10
75.4488090577
 20
58.8037364522
 30
0.0
 10
75.4146951455
 20
59.5889682551
 30
0.0
 10
75.245695851
 20
60.3582341061
 30
0.0
 10
74.9490660279
 20
61.0859717767
 30
0.0
 10
74.5368381114
 20
61.7487769079
 30
0.0
 10
74.0243401721
 20
62.3255327093
 30
0.0
 10
73.4299957436
 20
62.7976031724
 30
0.0
 10
72.7746002108
 20
63.1490226837
 30
0.0
 10
72.0816653892
 20
63.3666437502
 30
0.0
 10
71.6050649969
 20
63.4170678337
 30
0.0
 10
71.3703913397
 20
63.4170678337
 30
0.0
  0
SPLINE
  5
261
100
AcDbEntity
  8
0
100
AcDbSpline
 62
7
  6
CONTINUOUS
 70
0
 71
3
 72
23
 73
19
 74
0
 42
0.0000001
 43
0.0000001
 44
0.0000000001
 40
0.0
 40
0.0
 40
0.0
 40
0.0
 40
0.0587923309
 40
0.1186210886
 40
0.1795872435
 40
0.241699368
 40
0.3048463035
 40
0.3688496601
 40
0.4334802939
 40
0.4985165444
 40
0.5637064452
 40
0.6287704787
 40
0.6933955648
 40
0.7572699116
 40
0.8200851987
 40
0.8815564069
 40
0.9415250657
 40
1.0
 40
1.0
 40
1.0
 40
1.0
 10
62.1966511508
 20
54.9941790946
 30
0.0
 10
62.4272494185
 20
55.0441354297
 30
0.0
 10
62.8833154362
 20
55.1934927883
 30
0.0
 10
63.5141207802
 20
55.5511151186
 30
0.0
 10
64.0747348743
 20
56.0319080079
 30
0.0
 10
64.5441203669
 20
56.6189612264
 30
0.0
 10
64.9042690268
 20
57.2924695306
 30
0.0
 10
65.1408084141
 20
58.0292333849
 30
0.0
 10
65.2438284853
 20
58.8037364522
 30
0.0
 10
65.2097145731
 20
59.5889682551
 30
0.0
 10
65.0407152786
 20
60.3582341061
 30
0.0
 10
64.7440854555
 20
61.0859717767
 30
0.0
 10
64.331857539
 20
61.7487769079
 30
0.0
 10
63.8193595997
 20
62.3255327093
 30
0.0
 10
63.2250151712
 20
62.7976031724
 30
0.0
 10
62.5696196384
 20
63.1490226837
 30
0.0
 10
61.8766848168
 20
63.3666437502
 30
0.0
 10
61.4000844245
 20
63.4170678337
 30
0.0
 10
61.1654107673
 20
63.4170678337
 30
0.0
  0
SPLINE
  5
262
100
AcDbEntity
  8
0
100
AcDbSpline
 62
7
  6
CONTINUOUS
 70
0
 71
3
 72
13
 73
9
 74
0
 42
0.0000001
 43
0.0000001
 44
0.0000000001
 40
0.0
 40
0.0
 40
0.0
 40
0.0
 40
0.2630685499
 40
0.5223557368
 40
0.6486503882
 40
0.7713549893
 40
0.8890704443
 40
1.0
 40
1.0
 40
1.0
 40
1.0
 10
48.4292340153
 20
54.9941790946
 30
0.0
 10
48.442007872
 20
56.5421918863
 30
0.0
 10
48.4293236852
 20
59.6164468663
 30
0.0
 10
48.3205301631
 20
63.4322056844
 30
0.0
 10
48.2064189978
 20
66.4211047584
 30
0.0
 10
48.1207020487
 20
68.5773970937
 30
0.0
 10
48.0499324036
 20
70.6437521888
 30
0.0
 10
48.0259461259
 20
71.9892187268
 30
0.0
 10
48.0259519182
 20
72.6419999793
 30
0.0
  0
SPLINE
  5
263
100
AcDbEntity
  8
0
100
AcDbSpline
 62
7
  6
CONTINUOUS
 70
0
 71
3
 72
15
 73
11
 74
0
 42
0.0000001
 43
0.0000001
 44
0.0000000001
 40
0.0
 40
0.0
 40
0.0
 40
0.0
 40
0.1253550209
 40
0.2507179055
 40
0.3760547928
 40
0.5014184091
 40
0.6268255128
 40
0.7521862395
 40
0.8770065261
 40
1.0
 40
1.0
 40
1.0
 40
1.0
 10
58.5647463552
 20
59.1670678337
 30
0.0
 10
58.5647463552
 20
59.4086340319
 30
0.0
 10
58.6143075245
 20
59.8931748297
 30
0.0
 10
58.8306492789
 20
60.5893295213
 30
0.0
 10
59.1718848667
 20
61.2330700795
 30
0.0
 10
59.6166850544
 20
61.8093098246
 30
0.0
 10
60.1447854094
 20
62.3096619252
 30
0.0
 10
60.7380137616
 20
62.7284826166
 30
0.0
 10
61.3788327543
 20
63.059500685
 30
0.0
 10
61.8315089302
 20
63.2178663703
 30
0.0
 10
62.0605981775
 20
63.2786479419
 30
0.0
  0
SPLINE
  5
264
100
AcDbEntity
  8
0
100
AcDbSpline
 62
7
  6
CONTINUOUS
 70
0
 71
3
 72
15
 73
11
 74
0
 42
0.0000001
 43
0.0000001
 44
0.0000000001
 40
0.0
 40
0.0
 40
0.0
 40
0.0
 40
0.1253550209
 40
0.2507179055
 40
0.3760547928
 40
0.5014184091
 40
0.6268255128
 40
0.7521862395
 40
0.8770065261
 40
1.0
 40
1.0
 40
1.0
 40
1.0
 10
68.7697269276
 20
59.1670678337
 30
0.0
 10
68.7697269276
 20
59.4086340319
 30
0.0
 10
68.819288097
 20
59.8931748297
 30
0.0
 10
69.0356298514
 20
60.5893295213
 30
0.0
 10
69.3768654391
 20
61.2330700794
 30
0.0
 10
69.8216656268
 20
61.8093098246
 30
0.0
 10
70.3497659818
 20
62.3096619252
 30
0.0
 10
70.942994334
 20
62.7284826166
 30
0.0
 10
71.5838133267
 20
63.059500685
 30
0.0
 10
72.0364895026
 20
63.2178663703
 30
0.0
 10
72.2655787499
 20
63.2786479419
 30
0.0
  0
SPLINE
  5
265
100
AcDbEntity
  8
0
100
AcDbSpline
 62
7
  6
CONTINUOUS
 70
0
 71
3
 72
15
 73
11
 74
0
 42
0.0000001
 43
0.0000001
 44
0.0000000001
 40
0.0
 40
0.0
 40
0.0
 40
0.0
 40
0.1253550209
 40
0.2507179055
 40
0.3760547928
 40
0.5014184091
 40
0.6268255128
 40
0.7521862395
 40
0.8770065261
 40
1.0
 40
1.0
 40
1.0
 40
1.0
 10
78.9747075
 20
59.1670678337
 30
0.0
 10
78.9747075
 20
59.4086340319
 30
0.0
 10
79.0242686694
 20
59.8931748297
 30
0.0
 10
79.2406104238
 20
60.5893295213
 30
0.0
 10
79.5818460115
 20
61.2330700794
 30
0.0
 10
80.0266461992
 20
61.8093098246
 30
0.0
 10
80.5547465542
 20
62.3096619252
 30
0.0
 10
81.1479749064
 20
62.7284826166
 30
0.0
 10
81.7887938991
 20
63.059500685
 30
0.0
 10
82.241470075
 20
63.2178663703
 30
0.0
 10
82.4705593223
 20
63.2786479419
 30
0.0
  0
SPLINE
  5
266
100
AcDbEntity
  8
0
100
AcDbSpline
 62
7
  6
CONTINUOUS
 70
0
 71
3
 72
14
 73
10
 74
0
 42
0.0000001
 43
0.0000001
 44
0.0000000001
 40
0.0
 40
0.0
 40
0.0
 40
0.0
 40
0.1224953988
 40
0.2473016482
 40
0.4978112572
 40
0.623388916
 40
0.7489171426
 40
0.8744468164
 40
1.0
 40
1.0
 40
1.0
 40
1.0
 10
82.6154287395
 20
55.0196279864
 30
0.0
 10
82.3796156582
 20
55.0738354357
 30
0.0
 10
81.9117453674
 20
55.2225253699
 30
0.0
 10
81.0256484084
 20
55.6535079022
 30
0.0
 10
80.2325587755
 20
56.2736729587
 30
0.0
 10
79.613020772
 20
57.0516447201
 30
0.0
 10
79.2546879854
 20
57.7085505361
 30
0.0
 10
79.0269854873
 20
58.4215929664
 30
0.0
 10
78.9747075
 20
58.9190644991
 30
0.0
 10
78.9747075
 20
59.1670678337
 30
0.0
  0
SPLINE
  5
267
100
AcDbEntity
  8
0
100
AcDbSpline
 62
7
  6
CONTINUOUS
 70
0
 71
3
 72
14
 73
10
 74
0
 42
0.0000001
 43
0.0000001
 44
0.0000000001
 40
0.0
 40
0.0
 40
0.0
 40
0.0
 40
0.1224953988
 40
0.2473016482
 40
0.4978112572
 40
0.623388916
 40
0.7489171426
 40
0.8744468164
 40
1.0
 40
1.0
 40
1.0
 40
1.0
 10
72.410448167
 20
55.0196279864
 30
0.0
 10
72.1746350857
 20
55.0738354357
 30
0.0
 10
71.7067647949
 20
55.2225253699
 30
0.0
 10
70.820667836
 20
55.6535079022
 30
0.0
 10
70.0275782031
 20
56.2736729587
 30
0.0
 10
69.4080401995
 20
57.0516447201
 30
0.0
 10
69.0497074129
 20
57.7085505361
 30
0.0
 10
68.8220049149
 20
58.4215929664
 30
0.0
 10
68.7697269276
 20
58.9190644991
 30
0.0
 10
68.7697269276
 20
59.1670678337
 30
0.0
  0
SPLINE
  5
268
100
AcDbEntity
  8
0
100
AcDbSpline
 62
7
  6
CONTINUOUS
 70
0
 71
3
 72
14
 73
10
 74
0
 42
0.0000001
 43
0.0000001
 44
0.0000000001
 40
0.0
 40
0.0
 40
0.0
 40
0.0
 40
0.1224953988
 40
0.2473016482
 40
0.4978112572
 40
0.623388916
 40
0.7489171426
 40
0.8744468164
 40
1.0
 40
1.0
 40
1.0
 40
1.0
 10
62.2054675946
 20
55.0196279864
 30
0.0
 10
61.9696545133
 20
55.0738354357
 30
0.0
 10
61.5017842225
 20
55.2225253699
 30
0.0
 10
60.6156872636
 20
55.6535079022
 30
0.0
 10
59.8225976306
 20
56.2736729587
 30
0.0
 10
59.2030596271
 20
57.0516447201
 30
0.0
 10
58.8447268405
 20
57.7085505361
 30
0.0
 10
58.6170243424
 20
58.4215929664
 30
0.0
 10
58.5647463552
 20
58.9190644991
 30
0.0
 10
58.5647463552
 20
59.1670678337
 30
0.0
  0
SPLINE
  5
269
100
AcDbEntity
  8
0
100
AcDbSpline
 62
7
  6
CONTINUOUS
 70
0
 71
3
 72
15
 73
11
 74
0
 42
0.0000001
 43
0.0000001
 44
0.0000000001
 40
0.0
 40
0.0
 40
0.0
 40
0.0
 40
0.0928710262
 40
0.1930671656
 40
0.3023017952
 40
0.4215714919
 40
0.551236046
 40
0.6912290086
 40
0.8411360313
 40
1.0
 40
1.0
 40
1.0
 40
1.0
 10
99.2153223442
 20
69.5401186687
 30
0.0
 10
99.3853314814
 20
69.4822462714
 30
0.0
 10
99.7265490648
 20
69.3239143535
 30
0.0
 10
100.2057298244
 20
68.9847362807
 30
0.0
 10
100.6644141365
 20
68.5416851475
 30
0.0
 10
101.0982241193
 20
67.9997757826
 30
0.0
 10
101.5035053247
 20
67.3647883999
 30
0.0
 10
101.8762842326
 20
66.6430671091
 30
0.0
 10
102.2126230078
 20
65.8422742566
 30
0.0
 10
102.4052382279
 20
65.2765774039
 30
0.0
 10
102.4953150612
 20
64.9828769893
 30
0.0
  0
SPLINE
  5
26A
100
AcDbEntity
  8
0
100
AcDbSpline
 62
7
  6
CONTINUOUS
 70
0
 71
3
 72
23
 73
19
 74
0
 42
0.0000001
 43
0.0000001
 44
0.0000000001
 40
0.0
 40
0.0
 40
0.0
 40
0.0
 40
0.089745173
 40
0.1739561086
 40
0.2517667456
 40
0.3224543975
 40
0.3856696892
 40
0.4417254769
 40
0.4918504442
 40
0.5382190493
 40
0.5835513113
 40
0.6303835521
 40
0.6805358888
 40
0.7350535031
 40
0.7942972648
 40
0.8582863525
 40
0.9269081109
 40
1.0
 40
1.0
 40
1.0
 40
1.0
 10
48.0259519182
 20
72.6419999793
 30
0.0
 10
48.0259551498
 20
73.0061987997
 30
0.0
 10
48.0331067865
 20
73.7121852523
 30
0.0
 10
48.0746625925
 20
74.7332645454
 30
0.0
 10
48.1547128328
 20
75.6746642781
 30
0.0
 10
48.2817930484
 20
76.5251901789
 30
0.0
 10
48.4646682792
 20
77.2755680759
 30
0.0
 10
48.7121558989
 20
77.9196188767
 30
0.0
 10
49.0327045257
 20
78.4538773922
 30
0.0
 10
49.4313654171
 20
78.8759589313
 30
0.0
 10
49.9049637608
 20
79.1874778215
 30
0.0
 10
50.445560778
 20
79.4000034907
 30
0.0
 10
51.0481851505
 20
79.5302189962
 30
0.0
 10
51.7097109747
 20
79.6050951868
 30
0.0
 10
52.4301245921
 20
79.6453950525
 30
0.0
 10
53.2085189778
 20
79.6646042052
 30
0.0
 10
54.0432732964
 20
79.6718407009
 30
0.0
 10
54.618368679
 20
79.6727712266
 30
0.0
 10
54.914986078
 20
79.6727690356
 30
0.0
  0
SPLINE
  5
26B
100
AcDbEntity
  8
0
100
AcDbSpline
 62
7
  6
CONTINUOUS
 70
0
 71
3
 72
29
 73
25
 74
0
 42
0.0000001
 43
0.0000001
 44
0.0000000001
 40
0.0
 40
0.0
 40
0.0
 40
0.0
 40
0.0643531855
 40
0.128623915
 40
0.1926109098
 40
0.2561327051
 40
0.319023799
 40
0.3811409217
 40
0.4424002974
 40
0.5028321408
 40
0.5328203573
 40
0.5627110534
 40
0.5925804696
 40
0.6225204515
 40
0.6526266223
 40
0.6829828544
 40
0.7136471976
 40
0.7446443294
 40
0.7759667597
 40
0.8075798711
 40
0.8394334956
 40
0.8714639183
 40
0.935786283
 40
1.0
 40
1.0
 40
1.0
 40
1.0
 10
94.9437075851
 20
54.9941790946
 30
0.0
 10
94.9727517363
 20
55.8423102392
 30
0.0
 10
94.9841285925
 20
57.5394864443
 30
0.0
 10
94.8558601495
 20
60.0776034037
 30
0.0
 10
94.5778902138
 20
62.5928442939
 30
0.0
 10
94.1470755078
 20
65.068250392
 30
0.0
 10
93.5475128354
 20
67.4835121306
 30
0.0
 10
92.7563395134
 20
69.8126914644
 30
0.0
 10
91.7442805086
 20
72.020478397
 30
0.0
 10
90.6846335951
 20
73.7258322892
 30
0.0
 10
89.692530137
 20
74.9660548649
 30
0.0
 10
88.8747772421
 20
75.8238857185
 30
0.0
 10
87.9808980274
 20
76.6013628978
 30
0.0
 10
87.0130171062
 20
77.2896382543
 30
0.0
 10
85.9764960294
 20
77.8823964857
 30
0.0
 10
84.879470289
 20
78.3771425767
 30
0.0
 10
83.7317990177
 20
78.7757189871
 30
0.0
 10
82.5437603491
 20
79.0838156328
 30
0.0
 10
81.3250648519
 20
79.3103170846
 30
0.0
 10
80.0840367217
 20
79.4647329161
 30
0.0
 10
78.828088644
 20
79.5610967299
 30
0.0
 10
77.1389852118
 20
79.6375663745
 30
0.0
 10
75.0215359515
 20
79.6699492553
 30
0.0
 10
73.32655806
 20
79.6727727352
 30
0.0
 10
72.4797689315
 20
79.6727687397
 30
0.0
  0
SPLINE
  5
26C
100
AcDbEntity
  8
0
100
AcDbSpline
 62
7
  6
CONTINUOUS
 70
0
 71
3
 72
9
 73
5
 74
0
 42
0.0000001
 43
0.0000001
 44
0.0000000001
 40
0.0
 40
0.0
 40
0.0
 40
0.0
 40
0.4890687281
 40
1.0
 40
1.0
 40
1.0
 40
1.0
 10
85.1569789262
 20
60.8765995828
 30
0.0
 10
85.0852317234
 20
60.6044869755
 30
0.0
 10
84.9789567715
 20
60.0370009839
 30
0.0
 10
84.9443504999
 20
59.4610600297
 30
0.0
 10
84.9443504999
 20
59.1670678337
 30
0.0
  0
SPLINE
  5
26D
100
AcDbEntity
  8
0
100
AcDbSpline
 62
7
  6
CONTINUOUS
 70
0
 71
3
 72
9
 73
5
 74
0
 42
0.0000001
 43
0.0000001
 44
0.0000000001
 40
0.0
 40
0.0
 40
0.0
 40
0.0
 40
0.4890687281
 40
1.0
 40
1.0
 40
1.0
 40
1.0
 10
74.9519983538
 20
60.8765995828
 30
0.0
 10
74.880251151
 20
60.6044869755
 30
0.0
 10
74.773976199
 20
60.0370009839
 30
0.0
 10
74.7393699275
 20
59.4610600297
 30
0.0
 10
74.7393699275
 20
59.1670678337
 30
0.0
  0
SPLINE
  5
26E
100
AcDbEntity
  8
0
100
AcDbSpline
 62
7
  6
CONTINUOUS
 70
0
 71
3
 72
9
 73
5
 74
0
 42
0.0000001
 43
0.0000001
 44
0.0000000001
 40
0.0
 40
0.0
 40
0.0
 40
0.0
 40
0.4890687281
 40
1.0
 40
1.0
 40
1.0
 40
1.0
 10
64.7470177814
 20
60.8765995828
 30
0.0
 10
64.6752705786
 20
60.6044869755
 30
0.0
 10
64.5689956266
 20
60.0370009839
 30
0.0
 10
64.5343893551
 20
59.4610600297
 30
0.0
 10
64.5343893551
 20
59.1670678337
 30
0.0
  0
SPLINE
  5
26F
100
AcDbEntity
  8
0
100
AcDbSpline
 62
7
  6
CONTINUOUS
 70
0
 71
3
 72
11
 73
7
 74
0
 42
0.0000001
 43
0.0000001
 44
0.0000000001
 40
0.0
 40
0.0
 40
0.0
 40
0.0
 40
0.2403042617
 40
0.4800475678
 40
0.7300766535
 40
1.0
 40
1.0
 40
1.0
 40
1.0
 10
99.9291687036
 20
52.6926852055
 30
0.0
 10
100.032295343
 20
52.6926852055
 30
0.0
 10
100.2392722404
 20
52.7164232284
 30
0.0
 10
100.5353148342
 20
52.8278128286
 30
0.0
 10
100.8074667853
 20
53.0119886751
 30
0.0
 10
100.9644330216
 20
53.1725851435
 30
0.0
 10
101.0386445997
 20
53.261528998
 30
0.0
  0
SPLINE
  5
270
100
AcDbEntity
  8
0
100
AcDbSpline
 62
7
  6
CONTINUOUS
 70
0
 71
3
 72
17
 73
13
 74
0
 42
0.0000001
 43
0.0000001
 44
0.0000000001
 40
0.0
 40
0.0
 40
0.0
 40
0.0
 40
0.0972762624
 40
0.144657202
 40
0.1923283134
 40
0.2412298333
 40
0.2921912964
 40
0.4027324379
 40
0.5278014277
 40
0.669020656
 40
0.8266936294
 40
1.0
 40
1.0
 40
1.0
 40
1.0
 10
99.9291687036
 20
69.6670678337
 30
0.0
 10
100.1220136053
 20
69.6670678337
 30
0.0
 10
100.4116073914
 20
69.6284553631
 30
0.0
 10
100.7687111778
 20
69.4914807787
 30
0.0
 10
101.0174360685
 20
69.3492521359
 30
0.0
 10
101.2481815803
 20
69.1679686433
 30
0.0
 10
101.5393075911
 20
68.8677331132
 30
0.0
 10
101.8563634374
 20
68.3906844252
 30
0.0
 10
102.1548147668
 20
67.7031640866
 30
0.0
 10
102.3906539982
 20
66.8947669549
 30
0.0
 10
102.5712526251
 20
65.9753947591
 30
0.0
 10
102.6564350248
 20
65.3244333107
 30
0.0
 10
102.6935825518
 20
64.9828769893
 30
0.0
  0
SPLINE
  5
271
100
AcDbEntity
  8
0
100
AcDbSpline
 62
7
  6
CONTINUOUS
 70
0
 71
3
 72
22
 73
18
 74
0
 42
0.0000001
 43
0.0000001
 44
0.0000000001
 40
0.0
 40
0.0
 40
0.0
 40
0.0
 40
0.0589051261
 40
0.1172076833
 40
0.1756497889
 40
0.2350037548
 40
0.2958627729
 40
0.3585444221
 40
0.4230274557
 40
0.4889721178
 40
0.6223733823
 40
0.6887517326
 40
0.7539373249
 40
0.8175825812
 40
0.8796174831
 40
0.9402767389
 40
1.0
 40
1.0
 40
1.0
 40
1.0
 10
81.5753719122
 20
63.4170678337
 30
0.0
 10
81.3453633982
 20
63.4170678337
 30
0.0
 10
80.8860985855
 20
63.3693974676
 30
0.0
 10
80.2300026309
 20
63.152465013
 30
0.0
 10
79.6340221382
 20
62.7990380093
 30
0.0
 10
79.1171950715
 20
62.3234063053
 30
0.0
 10
78.6936163819
 20
61.7431263939
 30
0.0
 10
78.3735422785
 20
61.0782694508
 30
0.0
 10
78.1643997596
 20
60.350125276
 30
0.0
 10
78.0395255375
 20
59.3243672864
 30
0.0
 10
78.1529888183
 20
58.2736059525
 30
0.0
 10
78.4963335694
 20
57.2941798009
 30
0.0
 10
78.8621197512
 20
56.6212316991
 30
0.0
 10
79.3269378516
 20
56.0337620887
 30
0.0
 10
79.8779259413
 20
55.5518407114
 30
0.0
 10
80.4985077231
 20
55.1931226483
 30
0.0
 10
80.9484696176
 20
55.0439923318
 30
0.0
 10
81.1762904496
 20
54.9941790946
 30
0.0
  0
SPLINE
  5
272
100
AcDbEntity
  8
0
100
AcDbSpline
 62
7
  6
CONTINUOUS
 70
0
 71
3
 72
22
 73
18
 74
0
 42
0.0000001
 43
0.0000001
 44
0.0000000001
 40
0.0
 40
0.0
 40
0.0
 40
0.0
 40
0.0589051261
 40
0.1172076833
 40
0.1756497889
 40
0.2350037548
 40
0.2958627729
 40
0.3585444221
 40
0.4230274557
 40
0.4889721178
 40
0.6223733823
 40
0.6887517326
 40
0.7539373249
 40
0.8175825812
 40
0.8796174831
 40
0.9402767389
 40
1.0
 40
1.0
 40
1.0
 40
1.0
 10
71.3703913397
 20
63.4170678337
 30
0.0
 10
71.1403828258
 20
63.4170678337
 30
0.0
 10
70.6811180131
 20
63.3693974676
 30
0.0
 10
70.0250220585
 20
63.152465013
 30
0.0
 10
69.4290415658
 20
62.7990380093
 30
0.0
 10
68.9122144991
 20
62.3234063053
 30
0.0
 10
68.4886358095
 20
61.7431263939
 30
0.0
 10
68.1685617061
 20
61.0782694508
 30
0.0
 10
67.9594191871
 20
60.350125276
 30
0.0
 10
67.8345449651
 20
59.3243672864
 30
0.0
 10
67.9480082459
 20
58.2736059525
 30
0.0
 10
68.291352997
 20
57.2941798009
 30
0.0
 10
68.6571391788
 20
56.6212316991
 30
0.0
 10
69.1219572791
 20
56.0337620887
 30
0.0
 10
69.6729453689
 20
55.5518407114
 30
0.0
 10
70.2935271507
 20
55.1931226483
 30
0.0
 10
70.7434890452
 20
55.0439923318
 30
0.0
 10
70.9713098772
 20
54.9941790946
 30
0.0
  0
SPLINE
  5
273
100
AcDbEntity
  8
0
100
AcDbSpline
 62
7
  6
CONTINUOUS
 70
0
 71
3
 72
9
 73
5
 74
0
 42
0.0000001
 43
0.0000001
 44
0.0000000001
 40
0.0
 40
0.0
 40
0.0
 40
0.0
 40
0.5134161162
 40
1.0
 40
1.0
 40
1.0
 40
1.0
 10
64.5343893551
 20
59.1670678337
 30
0.0
 10
64.5343893551
 20
58.8385705463
 30
0.0
 10
64.5772716402
 20
58.1980008691
 30
0.0
 10
64.7098495139
 20
57.5691518453
 30
0.0
 10
64.7996297739
 20
57.2710487674
 30
0.0
  0
SPLINE
  5
274
100
AcDbEntity
  8
0
100
AcDbSpline
 62
7
  6
CONTINUOUS
 70
0
 71
3
 72
9
 73
5
 74
0
 42
0.0000001
 43
0.0000001
 44
0.0000000001
 40
0.0
 40
0.0
 40
0.0
 40
0.0
 40
0.5134161162
 40
1.0
 40
1.0
 40
1.0
 40
1.0
 10
74.7393699275
 20
59.1670678337
 30
0.0
 10
74.7393699275
 20
58.8385705463
 30
0.0
 10
74.7822522126
 20
58.1980008691
 30
0.0
 10
74.9148300863
 20
57.5691518453
 30
0.0
 10
75.0046103463
 20
57.2710487674
 30
0.0
  0
SPLINE
  5
275
100
AcDbEntity
  8
0
100
AcDbSpline
 62
7
  6
CONTINUOUS
 70
0
 71
3
 72
9
 73
5
 74
0
 42
0.0000001
 43
0.0000001
 44
0.0000000001
 40
0.0
 40
0.0
 40
0.0
 40
0.0
 40
0.5134161162
 40
1.0
 40
1.0
 40
1.0
 40
1.0
 10
84.9443504999
 20
59.1670678337
 30
0.0
 10
84.9443504999
 20
58.8385705463
 30
0.0
 10
84.987232785
 20
58.1980008691
 30
0.0
 10
85.1198106587
 20
57.5691518453
 30
0.0
 10
85.2095909187
 20
57.2710487674
 30
0.0
  0
SPLINE
  5
276
100
AcDbEntity
  8
0
100
AcDbSpline
 62
7
  6
CONTINUOUS
 70
0
 71
3
 72
22
 73
18
 74
0
 42
0.0000001
 43
0.0000001
 44
0.0000000001
 40
0.0
 40
0.0
 40
0.0
 40
0.0
 40
0.0589051261
 40
0.1172076833
 40
0.1756497889
 40
0.2350037548
 40
0.2958627729
 40
0.3585444221
 40
0.4230274557
 40
0.4889721178
 40
0.6223733823
 40
0.6887517326
 40
0.7539373249
 40
0.8175825812
 40
0.8796174831
 40
0.9402767389
 40
1.0
 40
1.0
 40
1.0
 40
1.0
 10
61.1654107673
 20
63.4170678337
 30
0.0
 10
60.9354022534
 20
63.4170678337
 30
0.0
 10
60.4761374407
 20
63.3693974676
 30
0.0
 10
59.8200414861
 20
63.152465013
 30
0.0
 10
59.2240609934
 20
62.7990380093
 30
0.0
 10
58.7072339267
 20
62.3234063053
 30
0.0
 10
58.2836552371
 20
61.7431263939
 30
0.0
 10
57.9635811337
 20
61.0782694508
 30
0.0
 10
57.7544386147
 20
60.350125276
 30
0.0
 10
57.6295643927
 20
59.3243672864
 30
0.0
 10
57.7430276734
 20
58.2736059525
 30
0.0
 10
58.0863724246
 20
57.2941798009
 30
0.0
 10
58.4521586064
 20
56.6212316991
 30
0.0
 10
58.9169767067
 20
56.0337620887
 30
0.0
 10
59.4679647965
 20
55.5518407114
 30
0.0
 10
60.0885465783
 20
55.1931226483
 30
0.0
 10
60.5385084728
 20
55.0439923318
 30
0.0
 10
60.7663293048
 20
54.9941790946
 30
0.0
  0
ELLIPSE
  5
277
100
AcDbEntity
  8
0
100
AcDbEllipse
 62
7
  6
CONTINUOUS
 10
75.5259542913
 20
235.6899580444
 30
0.0
 11
12.6992855656
 21
596.6611140042
 31
0.0
 40
0.0408811188
 41
-4.4038426605
 42
-4.3983385581
  0
ELLIPSE
  5
278
100
AcDbEntity
  8
0
100
AcDbEllipse
 62
7
  6
CONTINUOUS
 10
75.5259542913
 20
57.7783089349
 30
0.0
 11
25.6428532366
 21
-17.0077288763
 31
0.0
 40
0.5841161618
 41
1.0541621276
 42
1.1722696172
  0
ELLIPSE
  5
279
100
AcDbEntity
  8
0
100
AcDbEllipse
 62
7
  6
CONTINUOUS
 10
75.5259542913
 20
285.338454046
 30
0.0
 11
-12.6913939723
 21
752.6249452855
 31
0.0
 40
0.0324149246
 41
-1.8867562511
 42
-1.8837549448
  0
ELLIPSE
  5
27A
100
AcDbEntity
  8
0
100
AcDbEllipse
 62
7
  6
CONTINUOUS
 10
75.5259542913
 20
235.6899580444
 30
0.0
 11
12.6992855656
 21
596.6611140042
 31
0.0
 40
0.0408811188
 41
-1.8831065289
 42
-1.8776024264
  0
ELLIPSE
  5
27B
100
AcDbEntity
  8
0
100
AcDbEllipse
 62
7
  6
CONTINUOUS
 10
61.5701571436
 20
59.1670678337
 30
0.0
 11
0.4199843591
 21
4.2336964991
 31
0.0
 40
0.8855230717
 41
-3.2447557158
 42
-2.8631909425
  0
ELLIPSE
  5
27C
100
AcDbEntity
  8
0
100
AcDbEllipse
 62
7
  6
CONTINUOUS
 10
71.775137716
 20
59.1670678337
 30
0.0
 11
0.4199843591
 21
4.2336964991
 31
0.0
 40
0.8855230717
 41
-3.2447557158
 42
-2.8631909425
  0
ELLIPSE
  5
27D
100
AcDbEntity
  8
0
100
AcDbEllipse
 62
7
  6
CONTINUOUS
 10
81.9801182885
 20
59.1670678337
 30
0.0
 11
0.4199843591
 21
4.2336964991
 31
0.0
 40
0.8855230717
 41
-3.2447557158
 42
-2.8631909425
  0
ELLIPSE
  5
27E
100
AcDbEntity
  8
0
100
AcDbEllipse
 62
7
  6
CONTINUOUS
 10
75.5259542913
 20
57.7783089349
 30
0.0
 11
25.6428532366
 21
17.0077288763
 31
0.0
 40
0.5841161618
 41
-0.6189643528
 42
-0.5252445974
  0
ENDSEC
  0
SECTION
  2
OBJECTS
  0
DICTIONARY
  5
C
100
AcDbDictionary
280
0
281
1
  3
ACAD_GROUP
350
D
  3
ACAD_MLINESTYLE
350
17
  3
ACAD_LAYOUT
350
1A
  3
ACAD_PLOTSETTINGS
350
19
  3
ACAD_PLOTSTYLENAME
350
E
  0
DICTIONARY
  5
D
102
{ACAD_REACTORS
330
C
102
}
100
AcDbDictionary
280
0
281
1
  0
ACDBDICTIONARYWDFLT
  5
E
102
{ACAD_REACTORS
330
C
102
}
100
AcDbDictionary
281
1
  3
Normal
350
F
100
AcDbDictionaryWithDefault
340
F
  0
DICTIONARY
  5
17
102
{ACAD_REACTORS
330
C
102
}
100
AcDbDictionary
280
0
281
1
  3
Standard
350
18
  0
DICTIONARY
  5
19
102
{ACAD_REACTORS
330
C
102
}
100
AcDbDictionary
281
1
  0
DICTIONARY
  5
1A
102
{ACAD_REACTORS
330
C
102
}
100
AcDbDictionary
281
1
  3
Model
350
27F
  3
Layout1
350
280
  0
ACDBPLACEHOLDER
  5
F
102
{ACAD_REACTORS
330
E
102
}
  0
MLINESTYLE
  5
18
102
{ACAD_REACTORS
330
17
102
}
100
AcDbMlineStyle
  2
STANDARD
 70
0
  3

 62
256
 51
90.0
 52
90.0
 71
2
 49
0.5
 62
256
  6
BYLAYER
 49
-0.5
 62
256
  6
BYLAYER
  0
LAYOUT
  5
27F
102
{ACAD_REACTORS
330
1A
102
}
100
AcDbPlotSettings
  1

  2
none_device
  4

  6

 40
0.0
 41
0.0
 42
0.0
 43
0.0
 44
210.0
 45
297.0
 46
0.0
 47
0.0
 48
0.0
 49
0.0
140
0.0
141
0.0
142
1.0
143
1.0
 70
1024
 72
1
 73
0
 74
0
  7

 75
0
147
1.0
148
0.0
149
0.0
100
AcDbLayout
  1
Model
 70
0
 71
0
 10
0.0
 20
0.0
 11
210.0
 21
297.0
 12
0.0
 22
0.0
 32
0.0
 14
0.0
 24
0.0
 34
0.0
 15
0.0
 25
0.0
 35
0.0
146
0.0
 13
0.0
 23
0.0
 33
0.0
 16
1.0
 26
0.0
 36
0.0
 17
0.0
 27
1.0
 37
0.0
 76
0
330
210
345
0
346
0
  0
LAYOUT
  5
280
102
{ACAD_REACTORS
330
1A
102
}
100
AcDbPlotSettings
  1

  2
none_device
  4

  6

 40
0.0
 41
0.0
 42
0.0
 43
0.0
 44
210.0
 45
297.0
 46
0.0
 47
0.0
 48
0.0
 49
0.0
140
0.0
141
0.0
142
1.0
143
1.0
 70
0
 72
1
 73
0
 74
0
  7

 75
0
147
1.0
148
0.0
149
0.0
100
AcDbLayout
  1
Layout1
 70
0
 71
1
 10
0.0
 20
0.0
 11
210.0
 21
297.0
 12
0.0
 22
0.0
 32
0.0
 14
0.0
 24
0.0
 34
0.0
 15
0.0
 25
0.0
 35
0.0
146
0.0
 13
0.0
 23
0.0
 33
0.0
 16
1.0
 26
0.0
 36
0.0
 17
0.0
 27
1.0
 37
0.0
 76
0
330
211
345
0
346
0
  0
ENDSEC
  0
EOF
