999
DXF file: C:\Users\sesa63760\Dev\_Creo\CAD\MCADID0000569_3D-CAD\drw0001_6.dxf
999
Pro/ENGINEER 2019471 by Parametric Technology Corporation
  0
SECTION
  2
HEADER
  9
$ACADVER
  1
AC1024
  9
$DWGCODEPAGE
  3
ANSI_1252
  9
$EXTMAX
 10
93.0982361912
 20
131.6675054705
 30
0.0
  9
$EXTMIN
 10
0.0
 20
0.0
 30
0.0
  9
$LIMMIN
 10
0.0
 20
0.0
  9
$LIMMAX
 10
93.0982361912
 20
131.6675054705
  9
$VIEWCTR
 10
46.5491180956
 20
65.8337527352
  9
$VIEWSIZE
 40
131.6675054705
  9
$CLAYER
  8
0
  9
$LTSCALE
 40
8.582770727
  9
$CELTYPE
  6
BYLAYER
  9
$DIMSCALE
 40
1.0
  9
$DIMASZ
 40
1.1083123356
  9
$DIMEXO
 40
1.0
  9
$DIMDLI
 40
5.9299143204
  9
$DIMEXE
 40
1.0
  9
$DIMCEN
 40
1.4044533917
  9
$DIMLFAC
 40
1.0
  9
$DIMBLK
  1
_FILLED
  9
$DIMALT
 70
0
  9
$DIMALTF
 40
0.0393700787
  9
$DIMTXT
 40
1.5516372699
  9
$DIMTOL
 70
1
  9
$DIMLIM
 70
0
  9
$DIMTFAC
 40
1.0
  9
$DIMTP
 40
0.01
  9
$DIMTM
 40
0.01
  9
$DIMGAP
 40
0.625
  9
$DIMDSEP
 70
46
  9
$AUNITS
 70
0
  9
$PDMODE
 70
3
  9
$PDSIZE
 40
0.3125
  9
$HANDSEED
  5
3AE
  9
$TILEMODE
 70
1
  9
$MEASUREMENT
 70
1
  9
$INSUNITS
 70
4
  0
ENDSEC
  0
SECTION
  2
CLASSES
  0
CLASS
  1
ACDBDICTIONARYWDFLT
  2
AcDbDictionaryWithDefault
  3
AutoCAD 2000
 90
0
 91
1
280
0
281
0
  0
CLASS
  1
ACDBPLACEHOLDER
  2
AcDbPlaceHolder
  3
AutoCAD 2000
 90
0
 91
1
280
0
281
0
  0
CLASS
  1
LAYOUT
  2
AcDbLayout
  3
AutoCAD 2000
 90
0
 91
0
280
0
281
0
  0
ENDSEC
  0
SECTION
  2
TABLES
  0
TABLE
  2
VPORT
  5
8
100
AcDbSymbolTable
 70
2
  0
VPORT
  5
1F4
100
AcDbSymbolTableRecord
100
AcDbViewportTableRecord
  2
*ACTIVE
 70
0
 10
0.0
 20
0.0
 11
1.0
 21
1.0
 12
46.5491180956
 22
65.8337527352
 13
0.0
 23
0.0
 14
1.0
 24
1.0
 15
0.0
 25
0.0
 16
0.0
 26
0.0
 36
1.0
 17
0.0
 27
0.0
 37
0.0
 40
131.6675054705
 41
0.7070707071
 42
50.0
 43
0.0
 44
0.0
 50
0.0
 51
0.0
 71
0
 72
100
 73
1
 74
1
 75
0
 76
0
 77
0
 78
0
  0
ENDTAB
  0
TABLE
  2
LTYPE
  5
5
100
AcDbSymbolTable
 70
6
  0
LTYPE
  5
14
100
AcDbSymbolTableRecord
100
AcDbLinetypeTableRecord
  2
BYBLOCK
 70
0
  3

 72
65
 73
0
 40
0.0
  0
LTYPE
  5
15
100
AcDbSymbolTableRecord
100
AcDbLinetypeTableRecord
  2
BYLAYER
 70
0
  3

 72
65
 73
0
 40
0.0
  0
LTYPE
  5
16
100
AcDbSymbolTableRecord
100
AcDbLinetypeTableRecord
  2
CONTINUOUS
 70
64
  3
Solid line
 72
65
 73
0
 40
0.0
  0
LTYPE
  5
1F5
100
AcDbSymbolTableRecord
100
AcDbLinetypeTableRecord
  2
CENTER
 70
64
  3
____ _ ____ _ ____ _ ____ _ ____ _ ____ _ ____
 72
65
 73
4
 40
0.6
 49
0.375
 74
0
 49
-0.075
 74
0
 49
0.075
 74
0
 49
-0.075
 74
0
  0
LTYPE
  5
1F6
100
AcDbSymbolTableRecord
100
AcDbLinetypeTableRecord
  2
HIDDEN
 70
64
  3
- - - - - - - - - - - - - - - - - - - -
 72
65
 73
2
 40
0.2
 49
0.1
 74
0
 49
-0.1
 74
0
  0
LTYPE
  5
1F7
100
AcDbSymbolTableRecord
100
AcDbLinetypeTableRecord
  2
PHANTOM
 70
64
  3
_____ _ _ _____ _ _ _____ _ _ _____
 72
65
 73
6
 40
0.8
 49
0.45
 74
0
 49
-0.05
 74
0
 49
0.1
 74
0
 49
-0.05
 74
0
 49
0.1
 74
0
 49
-0.05
 74
0
  0
LTYPE
  5
1F8
100
AcDbSymbolTableRecord
100
AcDbLinetypeTableRecord
  2
DOT
 70
64
  3
. . . . . . . . . . . . . . . . . . . .
 72
65
 73
2
 40
0.2
 49
0.1
 74
0
 49
-0.1
 74
0
  0
LTYPE
  5
1F9
100
AcDbSymbolTableRecord
100
AcDbLinetypeTableRecord
  2
DASHED
 70
64
  3
- - - - - - - - - - - - - - - - - - - -
 72
65
 73
2
 40
0.2
 49
0.1
 74
0
 49
-0.1
 74
0
  0
ENDTAB
  0
TABLE
  2
LAYER
  5
2
100
AcDbSymbolTable
 70
36
  0
LAYER
  5
10
100
AcDbSymbolTableRecord
100
AcDbLayerTableRecord
  2
0
 70
0
 62
7
  6
CONTINUOUS
370
-3
390
F
  0
LAYER
  5
1FA
100
AcDbSymbolTableRecord
100
AcDbLayerTableRecord
  2
DEFAULT_1
 70
0
 62
7
  6
CENTER
370
-3
390
F
  0
LAYER
  5
1FB
100
AcDbSymbolTableRecord
100
AcDbLayerTableRecord
  2
DEFAULT_2
 70
0
 62
8
  6
HIDDEN
370
-3
390
F
  0
LAYER
  5
1FC
100
AcDbSymbolTableRecord
100
AcDbLayerTableRecord
  2
DEFAULT_3
 70
0
 62
7
  6
PHANTOM
370
-3
390
F
  0
LAYER
  5
1FD
100
AcDbSymbolTableRecord
100
AcDbLayerTableRecord
  2
00_COMPONENTS
 70
0
 62
7
  6
CONTINUOUS
370
-3
390
F
  0
LAYER
  5
1FE
100
AcDbSymbolTableRecord
100
AcDbLayerTableRecord
  2
01_1_DEFAULT_DATUMS
 70
0
 62
7
  6
CONTINUOUS
370
-3
390
F
  0
LAYER
  5
1FF
100
AcDbSymbolTableRecord
100
AcDbLayerTableRecord
  2
01_PLANES
 70
0
 62
7
  6
CONTINUOUS
370
-3
390
F
  0
LAYER
  5
200
100
AcDbSymbolTableRecord
100
AcDbLayerTableRecord
  2
02_COORD_SYS
 70
0
 62
7
  6
CONTINUOUS
370
-3
390
F
  0
LAYER
  5
201
100
AcDbSymbolTableRecord
100
AcDbLayerTableRecord
  2
03_AXES
 70
0
 62
7
  6
CONTINUOUS
370
-3
390
F
  0
LAYER
  5
202
100
AcDbSymbolTableRecord
100
AcDbLayerTableRecord
  2
04_POINTS
 70
0
 62
7
  6
CONTINUOUS
370
-3
390
F
  0
LAYER
  5
203
100
AcDbSymbolTableRecord
100
AcDbLayerTableRecord
  2
05_CURVES
 70
0
 62
7
  6
CONTINUOUS
370
-3
390
F
  0
LAYER
  5
204
100
AcDbSymbolTableRecord
100
AcDbLayerTableRecord
  2
06_SURFS
 70
0
 62
7
  6
CONTINUOUS
370
-3
390
F
  0
LAYER
  5
205
100
AcDbSymbolTableRecord
100
AcDbLayerTableRecord
  2
07_COSMETICS
 70
0
 62
7
  6
CONTINUOUS
370
-3
390
F
  0
LAYER
  5
206
100
AcDbSymbolTableRecord
100
AcDbLayerTableRecord
  2
10_NOTES
 70
0
 62
7
  6
CONTINUOUS
370
-3
390
F
  0
LAYER
  5
207
100
AcDbSymbolTableRecord
100
AcDbLayerTableRecord
  2
11_NOTES_PUB
 70
0
 62
7
  6
CONTINUOUS
370
-3
390
F
  0
LAYER
  5
208
100
AcDbSymbolTableRecord
100
AcDbLayerTableRecord
  2
13_REF_GTOL
 70
0
 62
7
  6
CONTINUOUS
370
-3
390
F
  0
LAYER
  5
209
100
AcDbSymbolTableRecord
100
AcDbLayerTableRecord
  2
16_MISC
 70
0
 62
7
  6
CONTINUOUS
370
-3
390
F
  0
LAYER
  5
20A
100
AcDbSymbolTableRecord
100
AcDbLayerTableRecord
  2
17_NO_PRINT
 70
0
 62
7
  6
CONTINUOUS
370
-3
390
F
  0
LAYER
  5
20B
100
AcDbSymbolTableRecord
100
AcDbLayerTableRecord
  2
18_DATUM_CAMS_JOINTS
 70
0
 62
7
  6
CONTINUOUS
370
-3
390
F
  0
LAYER
  5
20C
100
AcDbSymbolTableRecord
100
AcDbLayerTableRecord
  2
19_DATUM_FUNCTIONAL
 70
0
 62
7
  6
CONTINUOUS
370
-3
390
F
  0
LAYER
  5
20D
100
AcDbSymbolTableRecord
100
AcDbLayerTableRecord
  2
20_DATUM_KINEMATIC_SCHEME
 70
0
 62
7
  6
CONTINUOUS
370
-3
390
F
  0
ENDTAB
  0
TABLE
  2
STYLE
  5
3
100
AcDbSymbolTable
 70
1
  0
STYLE
  5
11
100
AcDbSymbolTableRecord
100
AcDbTextStyleTableRecord
  2
STANDARD
 70
0
 40
0.0
 41
0.8
 50
0.0
 71
0
 42
0.2
  3
txt
  4

  0
STYLE
  5
20E
100
AcDbSymbolTableRecord
100
AcDbTextStyleTableRecord
  2
TEXTSTYLE_1
 70
0
 40
0.0
 41
0.8
 50
0.0
 71
0
 42
0.2
  3
gdt
  4

  0
ENDTAB
  0
TABLE
  2
VIEW
  5
6
100
AcDbSymbolTable
 70
0
  0
ENDTAB
  0
TABLE
  2
UCS
  5
7
100
AcDbSymbolTable
 70
0
  0
ENDTAB
  0
TABLE
  2
APPID
  5
9
100
AcDbSymbolTable
 70
1
  0
APPID
  5
20F
100
AcDbSymbolTableRecord
100
AcDbRegAppTableRecord
  2
ACAD
 70
0
  0
ENDTAB
  0
TABLE
  2
BLOCK_RECORD
  5
1
100
AcDbSymbolTable
 70
0
  0
BLOCK_RECORD
  5
210
100
AcDbSymbolTableRecord
100
AcDbBlockTableRecord
  2
*Model_Space
  0
BLOCK_RECORD
  5
211
100
AcDbSymbolTableRecord
100
AcDbBlockTableRecord
  2
*Paper_Space
  0
BLOCK_RECORD
  5
212
100
AcDbSymbolTableRecord
100
AcDbBlockTableRecord
  2
_FILLED
  0
ENDTAB
  0
TABLE
  2
DIMSTYLE
  5
A
100
AcDbSymbolTable
 70
1
100
AcDbDimStyleTable
 71
0
  0
DIMSTYLE
105
213
100
AcDbSymbolTableRecord
100
AcDbDimStyleTableRecord
  2
STANDARD
 70
0
  3

  4

 40
1.0
 41
1.1083123356
 42
1.0
 43
0.38
 44
1.0
 45
0.0
 46
0.0
 47
0.01
 48
0.01
140
1.5516372699
141
0.09
142
0.0
143
25.4
144
1.0
145
0.0
146
1.0
147
0.625
 71
1
 72
0
 73
0
 74
0
 75
0
 76
0
 77
1
 78
8
 79
2
170
0
171
1
172
0
173
0
174
0
175
0
176
0
177
0
178
0
270
2
179
2
271
2
272
2
273
2
274
2
275
0
280
0
281
0
282
0
283
1
284
8
285
0
286
0
287
3
288
0
340
11
278
46
341
212
342
212
343
212
344
212
  0
ENDTAB
  0
ENDSEC
  0
SECTION
  2
BLOCKS
  0
BLOCK
  5
20
100
AcDbEntity
  8
0
100
AcDbBlockBegin
  2
*Model_Space
 70
0
 10
0.0
 20
0.0
 30
0.0
  3
*Model_Space
  1

  0
ENDBLK
  5
21
100
AcDbEntity
  8
0
100
AcDbBlockEnd
  0
BLOCK
  5
1C
100
AcDbEntity
  8
0
100
AcDbBlockBegin
  2
*Paper_Space
 70
0
 10
0.0
 20
0.0
 30
0.0
  3
*Paper_Space
  1

  0
ENDBLK
  5
1D
100
AcDbEntity
  8
0
100
AcDbBlockEnd
  0
BLOCK
  5
214
100
AcDbEntity
  8
0
100
AcDbBlockBegin
  2
_FILLED
 70
64
 10
0.0
 20
0.0
  3
_FILLED
  1

  0
SOLID
  5
215
100
AcDbEntity
  8
0
  6
BYBLOCK
 62
0
100
AcDbTrace
 10
0.0
 20
0.0
 11
-1.0
 21
0.25
 12
-1.0
 22
-0.25
 13
-1.0
 23
-0.25
  0
ENDBLK
  5
216
100
AcDbEntity
  8
0
  6
BYBLOCK
 62
0
100
AcDbBlockEnd
  0
ENDSEC
  0
SECTION
  2
ENTITIES
  0
LINE
  5
217
100
AcDbEntity
  8
0
100
AcDbLine
 62
7
  6
CONTINUOUS
 10
28.3799167827
 20
11.433751483
 11
70.3799167827
 21
11.433751483
  0
LINE
  5
218
100
AcDbEntity
  8
0
100
AcDbLine
 62
7
  6
CONTINUOUS
 10
62.3799167827
 20
11.483751483
 11
56.8799167827
 21
11.483751483
  0
LINE
  5
219
100
AcDbEntity
  8
0
100
AcDbLine
 62
7
  6
CONTINUOUS
 10
27.6227675048
 20
11.4861166777
 11
38.61464335
 21
11.4861166777
  0
LINE
  5
21A
100
AcDbEntity
  8
0
100
AcDbLine
 62
7
  6
CONTINUOUS
 10
37.4594183472
 20
11.733751483
 11
72.3774152183
 21
11.733751483
  0
LINE
  5
21B
100
AcDbEntity
  8
0
100
AcDbLine
 62
7
  6
CONTINUOUS
 10
73.7607450836
 20
12.333751483
 11
43.8865874739
 21
12.333751483
  0
LINE
  5
21C
100
AcDbEntity
  8
0
100
AcDbLine
 62
7
  6
CONTINUOUS
 10
62.3799167827
 20
16.483751483
 11
56.8799167827
 21
16.483751483
  0
LINE
  5
21D
100
AcDbEntity
  8
0
100
AcDbLine
 62
7
  6
CONTINUOUS
 10
46.8799167827
 20
16.733751483
 11
72.8799167827
 21
16.733751483
  0
LINE
  5
21E
100
AcDbEntity
  8
0
100
AcDbLine
 62
7
  6
CONTINUOUS
 10
46.5799167827
 20
17.033751483
 11
73.1799167827
 21
17.033751483
  0
LINE
  5
21F
100
AcDbEntity
  8
0
100
AcDbLine
 62
7
  6
CONTINUOUS
 10
14.657992627
 20
23.5880243765
 11
16.6684093719
 21
22.9417858041
  0
LINE
  5
220
100
AcDbEntity
  8
0
100
AcDbLine
 62
7
  6
CONTINUOUS
 10
14.2141061093
 20
23.9364555075
 11
19.2945235749
 21
21.8774852855
  0
LINE
  5
221
100
AcDbEntity
  8
0
100
AcDbLine
 62
7
  6
CONTINUOUS
 10
77.1048600035
 20
19.483751483
 11
77.4299167827
 21
19.483751483
  0
LINE
  5
222
100
AcDbEntity
  8
0
100
AcDbLine
 62
7
  6
CONTINUOUS
 10
77.4299167827
 20
20.683751483
 11
77.0839139256
 21
20.683751483
  0
LINE
  5
223
100
AcDbEntity
  8
0
100
AcDbLine
 62
7
  6
CONTINUOUS
 10
34.6220820761
 20
22.8880548702
 11
38.6440035493
 21
22.8179930149
  0
LINE
  5
224
100
AcDbEntity
  8
0
100
AcDbLine
 62
7
  6
CONTINUOUS
 10
21.2236505853
 20
19.9483582751
 11
23.2826208072
 21
14.8679408095
  0
LINE
  5
225
100
AcDbEntity
  8
0
100
AcDbLine
 62
7
  6
CONTINUOUS
 10
10.5299167827
 20
39.358751483
 11
10.5299167827
 21
49.908751483
  0
LINE
  5
226
100
AcDbEntity
  8
0
100
AcDbLine
 62
7
  6
CONTINUOUS
 10
10.7799167827
 20
29.033751483
 11
10.7799167827
 21
39.6882780485
  0
LINE
  5
227
100
AcDbEntity
  8
0
100
AcDbLine
 62
7
  6
CONTINUOUS
 10
10.7799167827
 20
49.5792249174
 11
10.7799167827
 21
60.2337514829
  0
LINE
  5
228
100
AcDbEntity
  8
0
100
AcDbLine
 62
7
  6
CONTINUOUS
 10
10.786444977
 20
40.558751483
 11
10.786444977
 21
48.708751483
  0
LINE
  5
229
100
AcDbEntity
  8
0
100
AcDbLine
 62
7
  6
CONTINUOUS
 10
10.8322819775
 20
60.9909007608
 11
10.8322819775
 21
28.2766022051
  0
LINE
  5
22A
100
AcDbEntity
  8
0
100
AcDbLine
 62
7
  6
CONTINUOUS
 10
12.6799167827
 20
85.283751483
 11
12.6799167827
 21
111.783751483
  0
LINE
  5
22B
100
AcDbEntity
  8
0
100
AcDbLine
 62
7
  6
CONTINUOUS
 10
77.0839139256
 20
28.433751483
 11
77.4299167827
 21
28.433751483
  0
LINE
  5
22C
100
AcDbEntity
  8
0
100
AcDbLine
 62
7
  6
CONTINUOUS
 10
77.4299167827
 20
29.633751483
 11
77.1048600035
 21
29.633751483
  0
LINE
  5
22D
100
AcDbEntity
  8
0
100
AcDbLine
 62
7
  6
CONTINUOUS
 10
44.0799167827
 20
30.733751483
 11
40.0799167827
 21
30.733751483
  0
LINE
  5
22E
100
AcDbEntity
  8
0
100
AcDbLine
 62
7
  6
CONTINUOUS
 10
44.8799167827
 20
18.733751483
 11
46.8799167827
 21
16.733751483
  0
LINE
  5
22F
100
AcDbEntity
  8
0
100
AcDbLine
 62
7
  6
CONTINUOUS
 10
22.2879511039
 20
17.3222440722
 11
22.9341896762
 21
15.3118273272
  0
LINE
  5
230
100
AcDbEntity
  8
0
100
AcDbLine
 62
7
  6
CONTINUOUS
 10
15.3799167827
 20
115.633751483
 11
15.3799167827
 21
65.9115375578
  0
LINE
  5
231
100
AcDbEntity
  8
0
100
AcDbLine
 62
7
  6
CONTINUOUS
 10
15.4799167827
 20
81.233751483
 11
15.4799167827
 21
65.9436820658
  0
LINE
  5
232
100
AcDbEntity
  8
0
100
AcDbLine
 62
7
  6
CONTINUOUS
 10
15.8799167827
 20
114.233751483
 11
15.8799167827
 21
112.633751483
  0
LINE
  5
233
100
AcDbEntity
  8
0
100
AcDbLine
 62
7
  6
CONTINUOUS
 10
77.1711892502
 20
32.133751483
 11
77.4299167827
 21
32.133751483
  0
LINE
  5
234
100
AcDbEntity
  8
0
100
AcDbLine
 62
7
  6
CONTINUOUS
 10
77.4299167827
 20
32.633751483
 11
77.1624617178
 21
32.633751483
  0
LINE
  5
235
100
AcDbEntity
  8
0
100
AcDbLine
 62
7
  6
CONTINUOUS
 10
79.1799167827
 20
33.733751483
 11
74.8799167827
 21
33.733751483
  0
LINE
  5
236
100
AcDbEntity
  8
0
100
AcDbLine
 62
7
  6
CONTINUOUS
 10
44.8799167827
 20
33.733751483
 11
44.5799167827
 21
33.733751483
  0
LINE
  5
237
100
AcDbEntity
  8
0
100
AcDbLine
 62
7
  6
CONTINUOUS
 10
80.2799167827
 20
35.733751483
 11
79.1799167827
 21
35.733751483
  0
LINE
  5
238
100
AcDbEntity
  8
0
100
AcDbLine
 62
7
  6
CONTINUOUS
 10
18.3799167827
 20
81.333751483
 11
18.3799167827
 21
112.633751483
  0
LINE
  5
239
100
AcDbEntity
  8
0
100
AcDbLine
 62
7
  6
CONTINUOUS
 10
18.8799167827
 20
115.633751483
 11
18.8799167827
 21
115.0337551878
  0
LINE
  5
23A
100
AcDbEntity
  8
0
100
AcDbLine
 62
7
  6
CONTINUOUS
 10
21.8217475917
 20
70.7949224582
 11
22.9341896762
 21
74.2556756387
  0
LINE
  5
23B
100
AcDbEntity
  8
0
100
AcDbLine
 62
7
  6
CONTINUOUS
 10
39.5799167827
 20
36.2722586461
 11
37.9799167827
 21
36.2722586461
  0
LINE
  5
23C
100
AcDbEntity
  8
0
100
AcDbLine
 62
7
  6
CONTINUOUS
 10
37.3365529628
 20
38.07829268
 11
37.3155798658
 21
38.07829268
  0
LINE
  5
23D
100
AcDbEntity
  8
0
100
AcDbLine
 62
7
  6
CONTINUOUS
 10
37.2647220209
 20
38.2473556563
 11
37.3155798658
 21
38.2473556563
  0
LINE
  5
23E
100
AcDbEntity
  8
0
100
AcDbLine
 62
7
  6
CONTINUOUS
 10
39.7799167827
 20
38.2722586461
 11
39.5799167827
 21
38.2722586461
  0
LINE
  5
23F
100
AcDbEntity
  8
0
100
AcDbLine
 62
7
  6
CONTINUOUS
 10
10.5299167827
 20
39.358751483
 11
10.7799167827
 21
39.358751483
  0
LINE
  5
240
100
AcDbEntity
  8
0
100
AcDbLine
 62
7
  6
CONTINUOUS
 10
30.1990343046
 20
39.5173779505
 11
37.2462903152
 21
39.5173779505
  0
LINE
  5
241
100
AcDbEntity
  8
0
100
AcDbLine
 62
7
  6
CONTINUOUS
 10
44.8799167827
 20
36.5297208538
 11
44.3799167827
 21
36.5384483862
  0
LINE
  5
242
100
AcDbEntity
  8
0
100
AcDbLine
 62
7
  6
CONTINUOUS
 10
40.0799167827
 20
30.733751483
 11
39.7799167827
 21
31.033751483
  0
LINE
  5
243
100
AcDbEntity
  8
0
100
AcDbLine
 62
7
  6
CONTINUOUS
 10
39.7799167827
 20
36.983751483
 11
39.5799167827
 21
37.183751483
  0
LINE
  5
244
100
AcDbEntity
  8
0
100
AcDbLine
 62
7
  6
CONTINUOUS
 10
37.3099412585
 20
39.4537270071
 11
33.7799167827
 21
42.983751483
  0
LINE
  5
245
100
AcDbEntity
  8
0
100
AcDbLine
 62
7
  6
CONTINUOUS
 10
21.0299167827
 20
111.783751483
 11
21.4238742751
 21
89.2139418572
  0
LINE
  5
246
100
AcDbEntity
  8
0
100
AcDbLine
 62
7
  6
CONTINUOUS
 10
21.8799167827
 20
115.633751483
 11
21.8799167827
 21
112.633751483
  0
LINE
  5
247
100
AcDbEntity
  8
0
100
AcDbLine
 62
7
  6
CONTINUOUS
 10
23.2826208072
 20
74.3995621564
 11
21.2236505853
 21
69.3191446908
  0
LINE
  5
248
100
AcDbEntity
  8
0
100
AcDbLine
 62
7
  6
CONTINUOUS
 10
39.7799167827
 20
94.433751483
 11
40.0799167827
 21
94.733751483
  0
LINE
  5
249
100
AcDbEntity
  8
0
100
AcDbLine
 62
7
  6
CONTINUOUS
 10
33.7799167827
 20
82.483751483
 11
39.7799167827
 21
88.483751483
  0
LINE
  5
24A
100
AcDbEntity
  8
0
100
AcDbLine
 62
7
  6
CONTINUOUS
 10
44.5799167827
 20
41.1348393592
 11
44.8799167827
 21
41.1383345814
  0
LINE
  5
24B
100
AcDbEntity
  8
0
100
AcDbLine
 62
7
  6
CONTINUOUS
 10
39.5799167827
 20
40.2722586461
 11
39.7799167827
 21
40.2722586461
  0
LINE
  5
24C
100
AcDbEntity
  8
0
100
AcDbLine
 62
7
  6
CONTINUOUS
 10
37.2647182348
 20
40.2971616359
 11
37.3155798658
 21
40.2971616359
  0
LINE
  5
24D
100
AcDbEntity
  8
0
100
AcDbLine
 62
7
  6
CONTINUOUS
 10
37.3365620704
 20
40.4662246122
 11
37.3155798658
 21
40.4662246122
  0
LINE
  5
24E
100
AcDbEntity
  8
0
100
AcDbLine
 62
7
  6
CONTINUOUS
 10
10.786444977
 20
40.558751483
 11
10.5299167827
 21
40.558751483
  0
LINE
  5
24F
100
AcDbEntity
  8
0
100
AcDbLine
 62
7
  6
CONTINUOUS
 10
37.9799167827
 20
42.2722586461
 11
39.5799167827
 21
42.2722586461
  0
LINE
  5
250
100
AcDbEntity
  8
0
100
AcDbLine
 62
7
  6
CONTINUOUS
 10
80.2799167827
 20
42.638751483
 11
74.8799167827
 21
42.638751483
  0
LINE
  5
251
100
AcDbEntity
  8
0
100
AcDbLine
 62
7
  6
CONTINUOUS
 10
29.3905060864
 20
42.8340027408
 11
33.9296655248
 21
42.8340027408
  0
LINE
  5
252
100
AcDbEntity
  8
0
100
AcDbLine
 62
7
  6
CONTINUOUS
 10
44.5799167827
 20
33.733751483
 11
44.3799167827
 21
33.933751483
  0
LINE
  5
253
100
AcDbEntity
  8
0
100
AcDbLine
 62
7
  6
CONTINUOUS
 10
29.2799167827
 20
44.633751483
 11
29.2799167827
 21
54.2052284807
  0
LINE
  5
254
100
AcDbEntity
  8
0
100
AcDbLine
 62
7
  6
CONTINUOUS
 10
37.2647018688
 20
92.7586757208
 11
37.3155798658
 21
92.9277174491
  0
LINE
  5
255
100
AcDbEntity
  8
0
100
AcDbLine
 62
7
  6
CONTINUOUS
 10
37.3365620704
 20
92.9729819674
 11
37.3155798658
 21
92.9277174491
  0
LINE
  5
256
100
AcDbEntity
  8
0
100
AcDbLine
 62
7
  6
CONTINUOUS
 10
83.8799167827
 20
44.733751483
 11
80.6799167827
 21
44.733751483
  0
LINE
  5
257
100
AcDbEntity
  8
0
100
AcDbLine
 62
7
  6
CONTINUOUS
 10
46.5799167827
 20
46.433751483
 11
73.1799167827
 21
46.433751483
  0
LINE
  5
258
100
AcDbEntity
  8
0
100
AcDbLine
 62
7
  6
CONTINUOUS
 10
46.8799167827
 20
46.733751483
 11
72.8799167827
 21
46.733751483
  0
LINE
  5
259
100
AcDbEntity
  8
0
100
AcDbLine
 62
7
  6
CONTINUOUS
 10
44.8799167827
 20
47.0020890039
 11
74.8799167827
 21
47.0020890039
  0
LINE
  5
25A
100
AcDbEntity
  8
0
100
AcDbLine
 62
7
  6
CONTINUOUS
 10
45.4799167827
 20
47.1898170877
 11
74.8799167827
 21
47.1898170877
  0
LINE
  5
25B
100
AcDbEntity
  8
0
100
AcDbLine
 62
7
  6
CONTINUOUS
 10
45.263660984
 20
47.333751483
 11
44.8799167827
 21
47.333751483
  0
LINE
  5
25C
100
AcDbEntity
  8
0
100
AcDbLine
 62
7
  6
CONTINUOUS
 10
44.8799167827
 20
48.138751483
 11
45.1482543037
 21
48.138751483
  0
LINE
  5
25D
100
AcDbEntity
  8
0
100
AcDbLine
 62
7
  6
CONTINUOUS
 10
10.5299167827
 20
48.708751483
 11
10.786444977
 21
48.708751483
  0
LINE
  5
25E
100
AcDbEntity
  8
0
100
AcDbLine
 62
7
  6
CONTINUOUS
 10
37.3155798658
 20
38.07829268
 11
37.3365529628
 21
38.0330281616
  0
LINE
  5
25F
100
AcDbEntity
  8
0
100
AcDbLine
 62
7
  6
CONTINUOUS
 10
37.3155798658
 20
38.07829268
 11
37.2647222887
 21
38.2473556563
  0
LINE
  5
260
100
AcDbEntity
  8
0
100
AcDbLine
 62
7
  6
CONTINUOUS
 10
32.6569167827
 20
18.233751483
 11
32.6569167827
 21
35.2593357145
  0
LINE
  5
261
100
AcDbEntity
  8
0
100
AcDbLine
 62
7
  6
CONTINUOUS
 10
33.7799167827
 20
42.983751483
 11
33.7799167827
 21
82.483751483
  0
LINE
  5
262
100
AcDbEntity
  8
0
100
AcDbLine
 62
7
  6
CONTINUOUS
 10
10.7799167827
 20
49.908751483
 11
10.5299167827
 21
49.908751483
  0
LINE
  5
263
100
AcDbEntity
  8
0
100
AcDbLine
 62
7
  6
CONTINUOUS
 10
44.9174259687
 20
53.238751483
 11
44.8799167827
 21
53.238751483
  0
LINE
  5
264
100
AcDbEntity
  8
0
100
AcDbLine
 62
7
  6
CONTINUOUS
 10
37.9799167827
 20
36.2722586461
 11
37.9799167827
 21
42.2722586274
  0
LINE
  5
265
100
AcDbEntity
  8
0
100
AcDbLine
 62
7
  6
CONTINUOUS
 10
37.9799167827
 20
68.6952443198
 11
37.9799167827
 21
74.6952443012
  0
LINE
  5
266
100
AcDbEntity
  8
0
100
AcDbLine
 62
7
  6
CONTINUOUS
 10
37.9799167827
 20
88.733751483
 11
37.9799167827
 21
94.7337514643
  0
LINE
  5
267
100
AcDbEntity
  8
0
100
AcDbLine
 62
7
  6
CONTINUOUS
 10
37.2647018688
 20
72.7201685577
 11
37.3155798658
 21
72.8892102859
  0
LINE
  5
268
100
AcDbEntity
  8
0
100
AcDbLine
 62
7
  6
CONTINUOUS
 10
37.3365620704
 20
72.9344748043
 11
37.3155798658
 21
72.8892102859
  0
LINE
  5
269
100
AcDbEntity
  8
0
100
AcDbLine
 62
7
  6
CONTINUOUS
 10
19.2945235749
 20
67.3900176804
 11
14.2141061093
 21
65.3310474584
  0
LINE
  5
26A
100
AcDbEntity
  8
0
100
AcDbLine
 62
7
  6
CONTINUOUS
 10
15.4799167827
 20
66.2436820658
 11
19.1122034575
 21
67.4112627482
  0
LINE
  5
26B
100
AcDbEntity
  8
0
100
AcDbLine
 62
7
  6
CONTINUOUS
 10
15.4799167827
 20
65.9436820658
 11
14.657992627
 21
65.6794785894
  0
LINE
  5
26C
100
AcDbEntity
  8
0
100
AcDbLine
 62
7
  6
CONTINUOUS
 10
45.4799167827
 20
53.638751483
 11
80.2799167827
 21
53.638751483
  0
LINE
  5
26D
100
AcDbEntity
  8
0
100
AcDbLine
 62
7
  6
CONTINUOUS
 10
29.2799167827
 20
55.8691376728
 11
28.9822946212
 21
55.8691376728
  0
LINE
  5
26E
100
AcDbEntity
  8
0
100
AcDbLine
 62
7
  6
CONTINUOUS
 10
74.8799167827
 20
55.9053466185
 11
44.8799167827
 21
55.9053466185
  0
LINE
  5
26F
100
AcDbEntity
  8
0
100
AcDbLine
 62
7
  6
CONTINUOUS
 10
37.3155798658
 20
70.5012783537
 11
37.264722592
 21
70.6703413067
  0
LINE
  5
270
100
AcDbEntity
  8
0
100
AcDbLine
 62
7
  6
CONTINUOUS
 10
39.5799167827
 20
94.733751483
 11
39.5799167827
 21
88.733751483
  0
LINE
  5
271
100
AcDbEntity
  8
0
100
AcDbLine
 62
7
  6
CONTINUOUS
 10
39.5799167827
 20
74.6952443198
 11
39.5799167827
 21
68.6952443198
  0
LINE
  5
272
100
AcDbEntity
  8
0
100
AcDbLine
 62
7
  6
CONTINUOUS
 10
39.5799167827
 20
42.2722586461
 11
39.5799167827
 21
36.2722586461
  0
LINE
  5
273
100
AcDbEntity
  8
0
100
AcDbLine
 62
7
  6
CONTINUOUS
 10
39.7799167827
 20
31.033751483
 11
39.7799167827
 21
94.433751483
  0
LINE
  5
274
100
AcDbEntity
  8
0
100
AcDbLine
 62
7
  6
CONTINUOUS
 10
40.0799167827
 20
30.733751483
 11
40.0799167827
 21
94.733751483
  0
LINE
  5
275
100
AcDbEntity
  8
0
100
AcDbLine
 62
7
  6
CONTINUOUS
 10
43.5569167827
 20
13.433751483
 11
43.5569167827
 21
17.818751483
  0
LINE
  5
276
100
AcDbEntity
  8
0
100
AcDbLine
 62
7
  6
CONTINUOUS
 10
37.3155798658
 20
70.5012783537
 11
37.3365529628
 21
70.4560138354
  0
LINE
  5
277
100
AcDbEntity
  8
0
100
AcDbLine
 62
7
  6
CONTINUOUS
 10
44.0799167827
 20
94.733751483
 11
44.0799167827
 21
72.8005884824
  0
LINE
  5
278
100
AcDbEntity
  8
0
100
AcDbLine
 62
7
  6
CONTINUOUS
 10
44.0799167827
 20
72.2504241282
 11
44.0799167827
 21
30.733751483
  0
LINE
  5
279
100
AcDbEntity
  8
0
100
AcDbLine
 62
7
  6
CONTINUOUS
 10
44.3799167827
 20
94.430583922
 11
44.3799167827
 21
73.6951361321
  0
LINE
  5
27A
100
AcDbEntity
  8
0
100
AcDbLine
 62
7
  6
CONTINUOUS
 10
44.3799167827
 20
71.1558965511
 11
44.3799167827
 21
37.9118226636
  0
LINE
  5
27B
100
AcDbEntity
  8
0
100
AcDbLine
 62
7
  6
CONTINUOUS
 10
44.3799167827
 20
36.6063513182
 11
44.3799167827
 21
31.033751483
  0
LINE
  5
27C
100
AcDbEntity
  8
0
100
AcDbLine
 62
7
  6
CONTINUOUS
 10
44.5799167827
 20
33.733751483
 11
44.5799167827
 21
36.5349573732
  0
LINE
  5
27D
100
AcDbEntity
  8
0
100
AcDbLine
 62
7
  6
CONTINUOUS
 10
44.5799167827
 20
41.1348393592
 11
44.5799167827
 21
68.9928650334
  0
LINE
  5
27E
100
AcDbEntity
  8
0
100
AcDbLine
 62
7
  6
CONTINUOUS
 10
44.5799167827
 20
74.4325455927
 11
44.5799167827
 21
91.6045649613
  0
LINE
  5
27F
100
AcDbEntity
  8
0
100
AcDbLine
 62
7
  6
CONTINUOUS
 10
44.8799167827
 20
18.733751483
 11
44.8799167827
 21
53.2386031214
  0
LINE
  5
280
100
AcDbEntity
  8
0
100
AcDbLine
 62
7
  6
CONTINUOUS
 10
44.8799167827
 20
53.2862597902
 11
44.8799167827
 21
62.733751483
  0
LINE
  5
281
100
AcDbEntity
  8
0
100
AcDbLine
 62
7
  6
CONTINUOUS
 10
45.1799167827
 20
18.433751483
 11
45.1799167827
 21
45.033751483
  0
LINE
  5
282
100
AcDbEntity
  8
0
100
AcDbLine
 62
7
  6
CONTINUOUS
 10
45.4799167827
 20
47.1898170877
 11
45.4799167827
 21
53.638751483
  0
LINE
  5
283
100
AcDbEntity
  8
0
100
AcDbLine
 62
7
  6
CONTINUOUS
 10
37.2647018688
 20
40.2971828839
 11
37.3155798658
 21
40.4662246122
  0
LINE
  5
284
100
AcDbEntity
  8
0
100
AcDbLine
 62
7
  6
CONTINUOUS
 10
44.8799167827
 20
62.733751483
 11
74.8799167827
 21
62.733751483
  0
LINE
  5
285
100
AcDbEntity
  8
0
100
AcDbLine
 62
7
  6
CONTINUOUS
 10
37.3155798658
 20
90.5397855168
 11
37.264722592
 21
90.7088484699
  0
LINE
  5
286
100
AcDbEntity
  8
0
100
AcDbLine
 62
7
  6
CONTINUOUS
 10
37.3365620704
 20
40.5114891306
 11
37.3155798658
 21
40.4662246122
  0
LINE
  5
287
100
AcDbEntity
  8
0
100
AcDbLine
 62
7
  6
CONTINUOUS
 10
39.5799167827
 20
68.6952443198
 11
37.9799167827
 21
68.6952443198
  0
LINE
  5
288
100
AcDbEntity
  8
0
100
AcDbLine
 62
7
  6
CONTINUOUS
 10
37.3365529628
 20
70.5012783537
 11
37.3155798658
 21
70.5012783537
  0
LINE
  5
289
100
AcDbEntity
  8
0
100
AcDbLine
 62
7
  6
CONTINUOUS
 10
37.2647220209
 20
70.67034133
 11
37.3155798658
 21
70.67034133
  0
LINE
  5
28A
100
AcDbEntity
  8
0
100
AcDbLine
 62
7
  6
CONTINUOUS
 10
39.7799167827
 20
70.6952443198
 11
39.5799167827
 21
70.6952443198
  0
LINE
  5
28B
100
AcDbEntity
  8
0
100
AcDbLine
 62
7
  6
CONTINUOUS
 10
72.8799167827
 20
46.733751483
 11
74.8799167827
 21
44.733751483
  0
LINE
  5
28C
100
AcDbEntity
  8
0
100
AcDbLine
 62
7
  6
CONTINUOUS
 10
37.3155798658
 20
90.5397855168
 11
37.3365529628
 21
90.4945209985
  0
LINE
  5
28D
100
AcDbEntity
  8
0
100
AcDbLine
 62
7
  6
CONTINUOUS
 10
44.3799167827
 20
74.4290545797
 11
59.6299167827
 21
74.6952443198
  0
LINE
  5
28E
100
AcDbEntity
  8
0
100
AcDbLine
 62
7
  6
CONTINUOUS
 10
32.7892826954
 20
72.3689127759
 11
33.7799167827
 21
72.3689127759
  0
LINE
  5
28F
100
AcDbEntity
  8
0
100
AcDbLine
 62
7
  6
CONTINUOUS
 10
39.5799167827
 20
72.6952443198
 11
39.7799167827
 21
72.6952443198
  0
LINE
  5
290
100
AcDbEntity
  8
0
100
AcDbLine
 62
7
  6
CONTINUOUS
 10
37.2647182348
 20
72.7201473096
 11
37.3155798658
 21
72.7201473096
  0
LINE
  5
291
100
AcDbEntity
  8
0
100
AcDbLine
 62
7
  6
CONTINUOUS
 10
37.3365620704
 20
72.8892102859
 11
37.3155798658
 21
72.8892102859
  0
LINE
  5
292
100
AcDbEntity
  8
0
100
AcDbLine
 62
7
  6
CONTINUOUS
 10
32.9181166793
 20
72.9003240659
 11
33.7799167827
 21
72.9003240659
  0
LINE
  5
293
100
AcDbEntity
  8
0
100
AcDbLine
 62
7
  6
CONTINUOUS
 10
37.9799167827
 20
74.6952443198
 11
39.5799167827
 21
74.6952443198
  0
LINE
  5
294
100
AcDbEntity
  8
0
100
AcDbLine
 62
7
  6
CONTINUOUS
 10
56.8799167827
 20
16.733751483
 11
56.8799167827
 21
16.483751483
  0
LINE
  5
295
100
AcDbEntity
  8
0
100
AcDbLine
 62
7
  6
CONTINUOUS
 10
56.8799167827
 20
11.733751483
 11
56.8799167827
 21
11.483751483
  0
LINE
  5
296
100
AcDbEntity
  8
0
100
AcDbLine
 62
7
  6
CONTINUOUS
 10
58.1799167827
 20
11.483751483
 11
58.1799167827
 21
11.733751483
  0
LINE
  5
297
100
AcDbEntity
  8
0
100
AcDbLine
 62
7
  6
CONTINUOUS
 10
58.1799167827
 20
16.483751483
 11
58.1799167827
 21
16.733751483
  0
LINE
  5
298
100
AcDbEntity
  8
0
100
AcDbLine
 62
7
  6
CONTINUOUS
 10
59.6299167827
 20
94.733751483
 11
59.6299167827
 21
91.5785790692
  0
LINE
  5
299
100
AcDbEntity
  8
0
100
AcDbLine
 62
7
  6
CONTINUOUS
 10
59.6299167827
 20
74.6952443198
 11
59.6299167827
 21
68.7357728171
  0
LINE
  5
29A
100
AcDbEntity
  8
0
100
AcDbLine
 62
7
  6
CONTINUOUS
 10
61.0799167827
 20
16.733751483
 11
61.0799167827
 21
16.483751483
  0
LINE
  5
29B
100
AcDbEntity
  8
0
100
AcDbLine
 62
7
  6
CONTINUOUS
 10
61.0799167827
 20
11.733751483
 11
61.0799167827
 21
11.483751483
  0
LINE
  5
29C
100
AcDbEntity
  8
0
100
AcDbLine
 62
7
  6
CONTINUOUS
 10
44.8799167827
 20
44.733751483
 11
46.8799167827
 21
46.733751483
  0
LINE
  5
29D
100
AcDbEntity
  8
0
100
AcDbLine
 62
7
  6
CONTINUOUS
 10
33.7799167827
 20
77.7813862882
 11
27.6227675048
 21
77.7813862882
  0
LINE
  5
29E
100
AcDbEntity
  8
0
100
AcDbLine
 62
7
  6
CONTINUOUS
 10
28.3799167827
 20
77.833751483
 11
33.7799167827
 21
77.833751483
  0
LINE
  5
29F
100
AcDbEntity
  8
0
100
AcDbLine
 62
7
  6
CONTINUOUS
 10
33.7799167827
 20
77.933751483
 11
27.9799167827
 21
77.933751483
  0
LINE
  5
2A0
100
AcDbEntity
  8
0
100
AcDbLine
 62
7
  6
CONTINUOUS
 10
61.3799167827
 20
119.133751483
 11
61.3799167827
 21
115.633751483
  0
LINE
  5
2A1
100
AcDbEntity
  8
0
100
AcDbLine
 62
7
  6
CONTINUOUS
 10
62.3799167827
 20
11.483751483
 11
62.3799167827
 21
11.733751483
  0
LINE
  5
2A2
100
AcDbEntity
  8
0
100
AcDbLine
 62
7
  6
CONTINUOUS
 10
62.3799167827
 20
16.483751483
 11
62.3799167827
 21
16.733751483
  0
LINE
  5
2A3
100
AcDbEntity
  8
0
100
AcDbLine
 62
7
  6
CONTINUOUS
 10
62.4645928775
 20
70.7130979776
 11
62.6299167827
 21
71.6952443198
  0
LINE
  5
2A4
100
AcDbEntity
  8
0
100
AcDbLine
 62
7
  6
CONTINUOUS
 10
80.6799167827
 20
80.733751483
 11
83.8799167827
 21
80.733751483
  0
LINE
  5
2A5
100
AcDbEntity
  8
0
100
AcDbLine
 62
7
  6
CONTINUOUS
 10
33.7799167827
 20
81.233751483
 11
15.4799167827
 21
81.233751483
  0
LINE
  5
2A6
100
AcDbEntity
  8
0
100
AcDbLine
 62
7
  6
CONTINUOUS
 10
33.7799167827
 20
81.333751483
 11
15.3799167827
 21
81.333751483
  0
LINE
  5
2A7
100
AcDbEntity
  8
0
100
AcDbLine
 62
7
  6
CONTINUOUS
 10
80.2799167827
 20
53.638751483
 11
80.6799167827
 21
53.238751483
  0
LINE
  5
2A8
100
AcDbEntity
  8
0
100
AcDbLine
 62
7
  6
CONTINUOUS
 10
44.3466865586
 20
94.4669817071
 11
44.3504021622
 21
94.4629763198
  0
LINE
  5
2A9
100
AcDbEntity
  8
0
100
AcDbLine
 62
7
  6
CONTINUOUS
 10
44.3466865586
 20
94.4669817071
 11
44.3799167827
 21
94.430583922
  0
LINE
  5
2AA
100
AcDbEntity
  8
0
100
AcDbLine
 62
7
  6
CONTINUOUS
 10
66.0799167827
 20
115.633751483
 11
66.0799167827
 21
112.633751483
  0
LINE
  5
2AB
100
AcDbEntity
  8
0
100
AcDbLine
 62
7
  6
CONTINUOUS
 10
69.0799167827
 20
115.033751483
 11
69.0799167827
 21
115.633751483
  0
LINE
  5
2AC
100
AcDbEntity
  8
0
100
AcDbLine
 62
7
  6
CONTINUOUS
 10
69.3799167827
 20
119.133751483
 11
69.3799167827
 21
115.633751483
  0
LINE
  5
2AD
100
AcDbEntity
  8
0
100
AcDbLine
 62
7
  6
CONTINUOUS
 10
69.5799167827
 20
112.633751483
 11
69.5799167827
 21
91.733751483
  0
LINE
  5
2AE
100
AcDbEntity
  8
0
100
AcDbLine
 62
7
  6
CONTINUOUS
 10
66.5799427309
 20
91.733751483
 11
66.9299167827
 21
111.783751483
  0
LINE
  5
2AF
100
AcDbEntity
  8
0
100
AcDbLine
 62
7
  6
CONTINUOUS
 10
12.6799167827
 20
85.283751483
 11
15.3799167827
 21
85.283751483
  0
LINE
  5
2B0
100
AcDbEntity
  8
0
100
AcDbLine
 62
7
  6
CONTINUOUS
 10
24.9549167827
 20
85.283751483
 11
36.5799167827
 21
85.283751483
  0
LINE
  5
2B1
100
AcDbEntity
  8
0
100
AcDbLine
 62
7
  6
CONTINUOUS
 10
44.0799167827
 20
94.733751483
 11
44.3466865586
 21
94.4669817071
  0
LINE
  5
2B2
100
AcDbEntity
  8
0
100
AcDbLine
 62
7
  6
CONTINUOUS
 10
72.0799167827
 20
114.233751483
 11
72.0799167827
 21
112.633751483
  0
LINE
  5
2B3
100
AcDbEntity
  8
0
100
AcDbLine
 62
7
  6
CONTINUOUS
 10
72.5799167827
 20
91.733751483
 11
72.5799167827
 21
115.633751483
  0
LINE
  5
2B4
100
AcDbEntity
  8
0
100
AcDbLine
 62
7
  6
CONTINUOUS
 10
44.3799167827
 20
31.033751483
 11
44.0799167827
 21
30.733751483
  0
LINE
  5
2B5
100
AcDbEntity
  8
0
100
AcDbLine
 62
7
  6
CONTINUOUS
 10
39.5799167827
 20
88.733751483
 11
37.9799167827
 21
88.733751483
  0
LINE
  5
2B6
100
AcDbEntity
  8
0
100
AcDbLine
 62
7
  6
CONTINUOUS
 10
15.3799167827
 20
89.2139418572
 11
12.6799167827
 21
89.2139418572
  0
LINE
  5
2B7
100
AcDbEntity
  8
0
100
AcDbLine
 62
7
  6
CONTINUOUS
 10
79.1799167827
 20
89.733751483
 11
80.2799167827
 21
89.733751483
  0
LINE
  5
2B8
100
AcDbEntity
  8
0
100
AcDbLine
 62
7
  6
CONTINUOUS
 10
37.3365529628
 20
90.5397855168
 11
37.3155798658
 21
90.5397855168
  0
LINE
  5
2B9
100
AcDbEntity
  8
0
100
AcDbLine
 62
7
  6
CONTINUOUS
 10
37.2647220209
 20
90.7088484931
 11
37.3155798658
 21
90.7088484931
  0
LINE
  5
2BA
100
AcDbEntity
  8
0
100
AcDbLine
 62
7
  6
CONTINUOUS
 10
39.7799167827
 20
90.733751483
 11
39.5799167827
 21
90.733751483
  0
LINE
  5
2BB
100
AcDbEntity
  8
0
100
AcDbLine
 62
7
  6
CONTINUOUS
 10
79.1799167827
 20
91.733751483
 11
62.6299167827
 21
91.733751483
  0
LINE
  5
2BC
100
AcDbEntity
  8
0
100
AcDbLine
 62
7
  6
CONTINUOUS
 10
59.6299167827
 20
91.5785790692
 11
44.5799167827
 21
91.6045649613
  0
LINE
  5
2BD
100
AcDbEntity
  8
0
100
AcDbLine
 62
7
  6
CONTINUOUS
 10
74.5799167827
 20
45.033751483
 11
74.5799167827
 21
18.433751483
  0
LINE
  5
2BE
100
AcDbEntity
  8
0
100
AcDbLine
 62
7
  6
CONTINUOUS
 10
74.8799167827
 20
62.733751483
 11
74.8799167827
 21
53.638751483
  0
LINE
  5
2BF
100
AcDbEntity
  8
0
100
AcDbLine
 62
7
  6
CONTINUOUS
 10
74.8799167827
 20
18.733751483
 11
74.8799167827
 21
47.1898170877
  0
LINE
  5
2C0
100
AcDbEntity
  8
0
100
AcDbLine
 62
7
  6
CONTINUOUS
 10
76.2799167827
 20
33.733751483
 11
76.2799167827
 21
14.8529231821
  0
LINE
  5
2C1
100
AcDbEntity
  8
0
100
AcDbLine
 62
7
  6
CONTINUOUS
 10
76.8799167827
 20
16.2362530474
 11
76.8799167827
 21
33.733751483
  0
LINE
  5
2C2
100
AcDbEntity
  8
0
100
AcDbLine
 62
7
  6
CONTINUOUS
 10
77.0839139256
 20
28.433751483
 11
77.0839139256
 21
20.683751483
  0
LINE
  5
2C3
100
AcDbEntity
  8
0
100
AcDbLine
 62
7
  6
CONTINUOUS
 10
77.1624617178
 20
33.733751483
 11
77.1624617178
 21
32.633751483
  0
LINE
  5
2C4
100
AcDbEntity
  8
0
100
AcDbLine
 62
7
  6
CONTINUOUS
 10
77.1799167827
 20
18.2337514829
 11
77.1799167827
 21
19.483751483
  0
LINE
  5
2C5
100
AcDbEntity
  8
0
100
AcDbLine
 62
7
  6
CONTINUOUS
 10
77.1799167827
 20
29.633751483
 11
77.1799167827
 21
32.133751483
  0
LINE
  5
2C6
100
AcDbEntity
  8
0
100
AcDbLine
 62
7
  6
CONTINUOUS
 10
77.4299167827
 20
33.733751483
 11
77.4299167827
 21
32.133751483
  0
LINE
  5
2C7
100
AcDbEntity
  8
0
100
AcDbLine
 62
7
  6
CONTINUOUS
 10
77.4299167827
 20
29.633751483
 11
77.4299167827
 21
19.483751483
  0
LINE
  5
2C8
100
AcDbEntity
  8
0
100
AcDbLine
 62
7
  6
CONTINUOUS
 10
44.3466865586
 20
94.4669817071
 11
59.6299167827
 21
94.733751483
  0
LINE
  5
2C9
100
AcDbEntity
  8
0
100
AcDbLine
 62
7
  6
CONTINUOUS
 10
39.5799167827
 20
92.733751483
 11
39.7799167827
 21
92.733751483
  0
LINE
  5
2CA
100
AcDbEntity
  8
0
100
AcDbLine
 62
7
  6
CONTINUOUS
 10
37.2647182348
 20
92.7586544728
 11
37.3155798658
 21
92.7586544728
  0
LINE
  5
2CB
100
AcDbEntity
  8
0
100
AcDbLine
 62
7
  6
CONTINUOUS
 10
37.3365620704
 20
92.9277174491
 11
37.3155798658
 21
92.9277174491
  0
LINE
  5
2CC
100
AcDbEntity
  8
0
100
AcDbLine
 62
7
  6
CONTINUOUS
 10
37.9799167827
 20
94.733751483
 11
39.5799167827
 21
94.733751483
  0
LINE
  5
2CD
100
AcDbEntity
  8
0
100
AcDbLine
 62
7
  6
CONTINUOUS
 10
40.0799167827
 20
94.733751483
 11
44.0799167827
 21
94.733751483
  0
LINE
  5
2CE
100
AcDbEntity
  8
0
100
AcDbLine
 62
7
  6
CONTINUOUS
 10
79.1799167827
 20
91.733751483
 11
79.1799167827
 21
53.638751483
  0
LINE
  5
2CF
100
AcDbEntity
  8
0
100
AcDbLine
 62
7
  6
CONTINUOUS
 10
79.1799167827
 20
42.638751483
 11
79.1799167827
 21
33.7341719234
  0
LINE
  5
2D0
100
AcDbEntity
  8
0
100
AcDbLine
 62
7
  6
CONTINUOUS
 10
80.2799167827
 20
89.733751483
 11
80.2799167827
 21
35.733751483
  0
LINE
  5
2D1
100
AcDbEntity
  8
0
100
AcDbLine
 62
7
  6
CONTINUOUS
 10
80.6799167827
 20
89.333751483
 11
80.6799167827
 21
43.038751483
  0
LINE
  5
2D2
100
AcDbEntity
  8
0
100
AcDbLine
 62
7
  6
CONTINUOUS
 10
80.6799167827
 20
42.933751483
 11
80.6799167827
 21
36.133751483
  0
LINE
  5
2D3
100
AcDbEntity
  8
0
100
AcDbLine
 62
7
  6
CONTINUOUS
 10
83.8799167827
 20
80.733751483
 11
83.8799167827
 21
44.733751483
  0
LINE
  5
2D4
100
AcDbEntity
  8
0
100
AcDbLine
 62
7
  6
CONTINUOUS
 10
84.1799167827
 20
80.433751483
 11
84.1799167827
 21
45.033751483
  0
LINE
  5
2D5
100
AcDbEntity
  8
0
100
AcDbLine
 62
7
  6
CONTINUOUS
 10
80.6799167827
 20
43.038751483
 11
80.2799167827
 21
42.638751483
  0
LINE
  5
2D6
100
AcDbEntity
  8
0
100
AcDbLine
 62
7
  6
CONTINUOUS
 10
83.8799167827
 20
80.733751483
 11
84.1799167827
 21
80.433751483
  0
LINE
  5
2D7
100
AcDbEntity
  8
0
100
AcDbLine
 62
7
  6
CONTINUOUS
 10
84.1799167827
 20
45.033751483
 11
83.8799167827
 21
44.733751483
  0
LINE
  5
2D8
100
AcDbEntity
  8
0
100
AcDbLine
 62
7
  6
CONTINUOUS
 10
72.5799167827
 20
109.633751483
 11
66.8923883931
 21
109.633751483
  0
LINE
  5
2D9
100
AcDbEntity
  8
0
100
AcDbLine
 62
7
  6
CONTINUOUS
 10
21.0674451723
 20
109.633751483
 11
15.3799167827
 21
109.633751483
  0
LINE
  5
2DA
100
AcDbEntity
  8
0
100
AcDbLine
 62
7
  6
CONTINUOUS
 10
80.2799167827
 20
89.733751483
 11
80.6799167827
 21
89.333751483
  0
LINE
  5
2DB
100
AcDbEntity
  8
0
100
AcDbLine
 62
7
  6
CONTINUOUS
 10
80.6799167827
 20
36.133751483
 11
80.2799167827
 21
35.733751483
  0
LINE
  5
2DC
100
AcDbEntity
  8
0
100
AcDbLine
 62
7
  6
CONTINUOUS
 10
66.9299167827
 20
111.783751483
 11
21.0299167827
 21
111.783751483
  0
LINE
  5
2DD
100
AcDbEntity
  8
0
100
AcDbLine
 62
7
  6
CONTINUOUS
 10
12.6799167827
 20
111.783751483
 11
15.3799167827
 21
111.783751483
  0
LINE
  5
2DE
100
AcDbEntity
  8
0
100
AcDbLine
 62
7
  6
CONTINUOUS
 10
15.3799167827
 20
112.633751483
 11
21.8799167827
 21
112.633751483
  0
LINE
  5
2DF
100
AcDbEntity
  8
0
100
AcDbLine
 62
7
  6
CONTINUOUS
 10
66.0799167827
 20
112.633751483
 11
72.5799167827
 21
112.633751483
  0
LINE
  5
2E0
100
AcDbEntity
  8
0
100
AcDbLine
 62
7
  6
CONTINUOUS
 10
15.8799167827
 20
114.233751483
 11
21.8799167827
 21
114.233751483
  0
LINE
  5
2E1
100
AcDbEntity
  8
0
100
AcDbLine
 62
7
  6
CONTINUOUS
 10
66.0799167827
 20
114.233751483
 11
72.0799167827
 21
114.233751483
  0
LINE
  5
2E2
100
AcDbEntity
  8
0
100
AcDbLine
 62
7
  6
CONTINUOUS
 10
72.8799167827
 20
16.733751483
 11
74.8799167827
 21
18.733751483
  0
LINE
  5
2E3
100
AcDbEntity
  8
0
100
AcDbLine
 62
7
  6
CONTINUOUS
 10
69.0865844373
 20
115.0337551878
 11
69.0732491281
 21
115.0337551878
  0
LINE
  5
2E4
100
AcDbEntity
  8
0
100
AcDbLine
 62
7
  6
CONTINUOUS
 10
18.8865844373
 20
115.0337551878
 11
18.8732491281
 21
115.0337551878
  0
LINE
  5
2E5
100
AcDbEntity
  8
0
100
AcDbLine
 62
7
  6
CONTINUOUS
 10
15.3799167827
 20
115.633751483
 11
72.5799167827
 21
115.633751483
  0
LINE
  5
2E6
100
AcDbEntity
  8
0
100
AcDbLine
 62
7
  6
CONTINUOUS
 10
61.3799167827
 20
119.133751483
 11
69.3799167827
 21
119.133751483
  0
LINE
  5
2E7
100
AcDbEntity
  8
0
100
AcDbLine
 62
7
  6
CONTINUOUS
 10
65.3861674715
 20
120.2337539875
 11
65.373666094
 21
120.2337539875
  0
ARC
  5
2E8
100
AcDbEntity
  8
0
100
AcDbCircle
 62
7
  6
CONTINUOUS
 10
14.7354037805
 20
27.747799988
 40
0.747
100
AcDbArc
 50
350.6852752212
 51
69.3147288998
  0
ARC
  5
2E9
100
AcDbEntity
  8
0
100
AcDbCircle
 62
7
  6
CONTINUOUS
 10
14.7354037805
 20
29.5197029779
 40
0.747
100
AcDbArc
 50
290.6852752212
 51
9.3147285262
  0
ARC
  5
2EA
100
AcDbEntity
  8
0
100
AcDbCircle
 62
7
  6
CONTINUOUS
 10
15.0699167827
 20
28.633751483
 40
0.2
100
AcDbArc
 50
110.6852752212
 51
249.3147093872
  0
ARC
  5
2EB
100
AcDbEntity
  8
0
100
AcDbCircle
 62
7
  6
CONTINUOUS
 10
16.2699167827
 20
26.8618484931
 40
0.747
100
AcDbArc
 50
50.6852752212
 51
129.3147247788
  0
ARC
  5
2EC
100
AcDbEntity
  8
0
100
AcDbCircle
 62
7
  6
CONTINUOUS
 10
15.6699167827
 20
27.5945209984
 40
0.2
100
AcDbArc
 50
170.6852752212
 51
309.3147247789
  0
ARC
  5
2ED
100
AcDbEntity
  8
0
100
AcDbCircle
 62
7
  6
CONTINUOUS
 10
16.2799167827
 20
29.033751483
 40
5.5
100
AcDbArc
 50
180.0
 51
247.9384786762
  0
ARC
  5
2EE
100
AcDbEntity
  8
0
100
AcDbCircle
 62
7
  6
CONTINUOUS
 10
16.2799167827
 20
28.633751483
 40
5.3
100
AcDbArc
 50
205.7422181757
 51
252.180253767
  0
CIRCLE
  5
2EF
100
AcDbEntity
  8
0
100
AcDbCircle
 62
7
  6
CONTINUOUS
 10
16.2699167827
 20
28.633751483
 40
3.9706315776
  0
CIRCLE
  5
2F0
100
AcDbEntity
  8
0
100
AcDbCircle
 62
7
  6
CONTINUOUS
 10
16.2699167827
 20
28.633751483
 40
3.4725342285
  0
CIRCLE
  5
2F1
100
AcDbEntity
  8
0
100
AcDbCircle
 62
7
  6
CONTINUOUS
 10
16.2699167827
 20
28.633751483
 40
3.2659727048
  0
CIRCLE
  5
2F2
100
AcDbEntity
  8
0
100
AcDbCircle
 62
7
  6
CONTINUOUS
 10
16.2699167827
 20
28.633751483
 40
3.0667337652
  0
CIRCLE
  5
2F3
100
AcDbEntity
  8
0
100
AcDbCircle
 62
7
  6
CONTINUOUS
 10
16.2699167827
 20
28.633751483
 40
2.8
  0
CIRCLE
  5
2F4
100
AcDbEntity
  8
0
100
AcDbCircle
 62
7
  6
CONTINUOUS
 10
16.2699167827
 20
28.633751483
 40
2.5555555556
  0
ARC
  5
2F5
100
AcDbEntity
  8
0
100
AcDbCircle
 62
7
  6
CONTINUOUS
 10
16.2699167827
 20
30.4056544728
 40
0.747
100
AcDbArc
 50
230.6852752212
 51
309.3147274363
  0
ARC
  5
2F6
100
AcDbEntity
  8
0
100
AcDbCircle
 62
7
  6
CONTINUOUS
 10
15.6699167827
 20
29.6729819675
 40
0.2
100
AcDbArc
 50
50.6852752212
 51
189.3147107824
  0
ARC
  5
2F7
100
AcDbEntity
  8
0
100
AcDbCircle
 62
7
  6
CONTINUOUS
 10
17.9799167827
 20
18.633751483
 40
3.5
100
AcDbArc
 50
22.0615213238
 51
67.9384786761
  0
ARC
  5
2F8
100
AcDbEntity
  8
0
100
AcDbCircle
 62
7
  6
CONTINUOUS
 10
17.8044297849
 20
29.5197029779
 40
0.747
100
AcDbArc
 50
170.6852752212
 51
249.3147269171
  0
ARC
  5
2F9
100
AcDbEntity
  8
0
100
AcDbCircle
 62
7
  6
CONTINUOUS
 10
17.8044297849
 20
27.747799988
 40
0.747
100
AcDbArc
 50
110.6852752212
 51
189.3147247788
  0
ARC
  5
2FA
100
AcDbEntity
  8
0
100
AcDbCircle
 62
7
  6
CONTINUOUS
 10
16.8699167827
 20
29.6729819675
 40
0.2
100
AcDbArc
 50
350.6852752212
 51
129.3147148531
  0
ARC
  5
2FB
100
AcDbEntity
  8
0
100
AcDbCircle
 62
7
  6
CONTINUOUS
 10
17.4699167827
 20
28.633751483
 40
0.2
100
AcDbArc
 50
290.6852752212
 51
69.3147167925
  0
ARC
  5
2FC
100
AcDbEntity
  8
0
100
AcDbCircle
 62
7
  6
CONTINUOUS
 10
16.8699167827
 20
27.5945209984
 40
0.2
100
AcDbArc
 50
230.6852752212
 51
9.3147247788
  0
ARC
  5
2FD
100
AcDbEntity
  8
0
100
AcDbCircle
 62
7
  6
CONTINUOUS
 10
16.2799167827
 20
60.233751483
 40
5.5
100
AcDbArc
 50
112.0615213239
 51
180.0
  0
ARC
  5
2FE
100
AcDbEntity
  8
0
100
AcDbCircle
 62
7
  6
CONTINUOUS
 10
16.2799167827
 20
60.633751483
 40
5.3
100
AcDbArc
 50
107.819746233
 51
138.3930188344
  0
ARC
  5
2FF
100
AcDbEntity
  8
0
100
AcDbCircle
 62
7
  6
CONTINUOUS
 10
17.9799167827
 20
70.933751483
 40
3.7
100
AcDbArc
 50
287.819746233
 51
313.7448825319
  0
ARC
  5
300
100
AcDbEntity
  8
0
100
AcDbCircle
 62
7
  6
CONTINUOUS
 10
17.9799167827
 20
70.633751483
 40
3.5
100
AcDbArc
 50
292.0615213239
 51
337.9384786761
  0
ARC
  5
301
100
AcDbEntity
  8
0
100
AcDbCircle
 62
7
  6
CONTINUOUS
 10
28.3799167827
 20
16.933751483
 40
5.5
100
AcDbArc
 50
202.0615213239
 51
270.0
  0
ARC
  5
302
100
AcDbEntity
  8
0
100
AcDbCircle
 62
7
  6
CONTINUOUS
 10
27.9799167827
 20
16.933751483
 40
5.3
100
AcDbArc
 50
197.819746233
 51
228.3930188344
  0
ARC
  5
303
100
AcDbEntity
  8
0
100
AcDbCircle
 62
7
  6
CONTINUOUS
 10
24.4799167827
 20
54.2052284807
 40
4.8
100
AcDbArc
 50
0.0
 51
59.3225755274
  0
ARC
  5
304
100
AcDbEntity
  8
0
100
AcDbCircle
 62
7
  6
CONTINUOUS
 10
26.4454037805
 20
73.2297029779
 40
0.747
100
AcDbArc
 50
290.685276621
 51
9.3147237486
  0
ARC
  5
305
100
AcDbEntity
  8
0
100
AcDbCircle
 62
7
  6
CONTINUOUS
 10
26.4454037805
 20
71.457799988
 40
0.747
100
AcDbArc
 50
350.6852752212
 51
69.3147235499
  0
ARC
  5
306
100
AcDbEntity
  8
0
100
AcDbCircle
 62
7
  6
CONTINUOUS
 10
26.7799167827
 20
72.343751483
 40
0.2
100
AcDbArc
 50
110.6852699929
 51
249.3147293691
  0
ARC
  5
307
100
AcDbEntity
  8
0
100
AcDbCircle
 62
7
  6
CONTINUOUS
 10
28.7674167827
 20
61.3996652826
 40
0.55
100
AcDbArc
 50
156.4692484575
 51
323.53076099
  0
ARC
  5
308
100
AcDbEntity
  8
0
100
AcDbCircle
 62
7
  6
CONTINUOUS
 10
28.0549167827
 20
62.633751483
 40
0.55
100
AcDbArc
 50
96.4692476151
 51
263.5307589364
  0
ARC
  5
309
100
AcDbEntity
  8
0
100
AcDbCircle
 62
7
  6
CONTINUOUS
 10
28.7674167827
 20
63.8678376833
 40
0.55
100
AcDbArc
 50
36.4692467803
 51
203.5307589364
  0
ARC
  5
30A
100
AcDbEntity
  8
0
100
AcDbCircle
 62
7
  6
CONTINUOUS
 10
27.9550913366
 20
61.7533931012
 40
0.336
100
AcDbArc
 50
336.4692289605
 51
83.5307589364
  0
ARC
  5
30B
100
AcDbEntity
  8
0
100
AcDbCircle
 62
7
  6
CONTINUOUS
 10
27.9550913366
 20
63.5141098647
 40
0.336
100
AcDbArc
 50
276.4692303393
 51
23.5307589364
  0
ARC
  5
30C
100
AcDbEntity
  8
0
100
AcDbCircle
 62
7
  6
CONTINUOUS
 10
27.9273362088
 20
72.3099849217
 40
4.8
100
AcDbArc
 50
279.1155816212
 51
353.6835243675
  0
ARC
  5
30D
100
AcDbEntity
  8
0
100
AcDbCircle
 62
7
  6
CONTINUOUS
 10
27.9799167827
 20
70.5718484931
 40
0.747
100
AcDbArc
 50
50.6852752212
 51
129.3147247788
  0
ARC
  5
30E
100
AcDbEntity
  8
0
100
AcDbCircle
 62
7
  6
CONTINUOUS
 10
27.3799167827
 20
71.3045209984
 40
0.2
100
AcDbArc
 50
170.6852752212
 51
309.3147247789
  0
ARC
  5
30F
100
AcDbEntity
  8
0
100
AcDbCircle
 62
7
  6
CONTINUOUS
 10
27.9799167827
 20
72.633751483
 40
5.3
100
AcDbArc
 50
90.0
 51
162.180253767
  0
CIRCLE
  5
310
100
AcDbEntity
  8
0
100
AcDbCircle
 62
7
  6
CONTINUOUS
 10
27.9799167827
 20
72.343751483
 40
3.9706315776
  0
CIRCLE
  5
311
100
AcDbEntity
  8
0
100
AcDbCircle
 62
7
  6
CONTINUOUS
 10
27.9799167827
 20
72.343751483
 40
3.4725342285
  0
CIRCLE
  5
312
100
AcDbEntity
  8
0
100
AcDbCircle
 62
7
  6
CONTINUOUS
 10
27.9799167827
 20
72.343751483
 40
3.2659727048
  0
CIRCLE
  5
313
100
AcDbEntity
  8
0
100
AcDbCircle
 62
7
  6
CONTINUOUS
 10
27.9799167827
 20
72.343751483
 40
3.0667337652
  0
CIRCLE
  5
314
100
AcDbEntity
  8
0
100
AcDbCircle
 62
7
  6
CONTINUOUS
 10
27.9799167827
 20
72.343751483
 40
2.8
  0
CIRCLE
  5
315
100
AcDbEntity
  8
0
100
AcDbCircle
 62
7
  6
CONTINUOUS
 10
27.9799167827
 20
72.343751483
 40
2.5555555556
  0
ARC
  5
316
100
AcDbEntity
  8
0
100
AcDbCircle
 62
7
  6
CONTINUOUS
 10
27.9799167827
 20
74.1156544728
 40
0.747
100
AcDbArc
 50
230.685274413
 51
309.3147241399
  0
ARC
  5
317
100
AcDbEntity
  8
0
100
AcDbCircle
 62
7
  6
CONTINUOUS
 10
27.3799167827
 20
73.3829819675
 40
0.2
100
AcDbArc
 50
50.6852782397
 51
189.3147286267
  0
ARC
  5
318
100
AcDbEntity
  8
0
100
AcDbCircle
 62
7
  6
CONTINUOUS
 10
28.3799167827
 20
72.333751483
 40
5.5
100
AcDbArc
 50
90.0
 51
157.9384786761
  0
ARC
  5
319
100
AcDbEntity
  8
0
100
AcDbCircle
 62
7
  6
CONTINUOUS
 10
28.5799167827
 20
71.3045209984
 40
0.2
100
AcDbArc
 50
230.6852752212
 51
9.3147301149
  0
ARC
  5
31A
100
AcDbEntity
  8
0
100
AcDbCircle
 62
7
  6
CONTINUOUS
 10
28.5799167827
 20
73.3829819675
 40
0.2
100
AcDbArc
 50
350.6852722026
 51
129.3147271652
  0
ARC
  5
31B
100
AcDbEntity
  8
0
100
AcDbCircle
 62
7
  6
CONTINUOUS
 10
29.1799167827
 20
72.343751483
 40
0.2
100
AcDbArc
 50
290.6852699929
 51
69.3147293691
  0
ARC
  5
31C
100
AcDbEntity
  8
0
100
AcDbCircle
 62
7
  6
CONTINUOUS
 10
-12.9487102648
 20
149.227787373
 40
81.424681093
100
AcDbArc
 50
314.754411918
 51
314.9529324632
  0
ARC
  5
31D
100
AcDbEntity
  8
0
100
AcDbCircle
 62
7
  6
CONTINUOUS
 10
18.8732491281
 20
109.0337551878
 40
6.0
100
AcDbArc
 50
90.0
 51
119.9265057808
  0
ARC
  5
31E
100
AcDbEntity
  8
0
100
AcDbCircle
 62
7
  6
CONTINUOUS
 10
18.8865844373
 20
109.0337551878
 40
6.0
100
AcDbArc
 50
60.0734942192
 51
90.0
  0
ARC
  5
31F
100
AcDbEntity
  8
0
100
AcDbCircle
 62
7
  6
CONTINUOUS
 10
25.4232650558
 20
89.283751483
 40
4.0
100
AcDbArc
 50
181.0
 51
270.0
  0
ARC
  5
320
100
AcDbEntity
  8
0
100
AcDbCircle
 62
7
  6
CONTINUOUS
 10
24.9549167827
 20
87.283751483
 40
2.0
100
AcDbArc
 50
238.9186007657
 51
270.0
  0
ARC
  5
321
100
AcDbEntity
  8
0
100
AcDbCircle
 62
7
  6
CONTINUOUS
 10
39.4569167827
 20
18.233751483
 40
6.8
100
AcDbArc
 50
180.0
 51
252.9174167566
  0
ARC
  5
322
100
AcDbEntity
  8
0
100
AcDbCircle
 62
7
  6
CONTINUOUS
 10
39.4569167827
 20
18.233751483
 40
6.8
100
AcDbArc
 50
253.3159574461
 51
262.8848570516
  0
ARC
  5
323
100
AcDbEntity
  8
0
100
AcDbCircle
 62
7
  6
CONTINUOUS
 10
38.5569167827
 20
17.818751483
 40
5.0
100
AcDbArc
 50
0.0
 51
89.0020087015
  0
CIRCLE
  5
324
100
AcDbEntity
  8
0
100
AcDbCircle
 62
7
  6
CONTINUOUS
 10
38.5569167827
 20
17.333751483
 40
4.0
  0
ARC
  5
325
100
AcDbEntity
  8
0
100
AcDbCircle
 62
7
  6
CONTINUOUS
 10
34.6569167827
 20
24.887751483
 40
2.0
100
AcDbArc
 50
180.0
 51
269.0020087015
  0
ARC
  5
326
100
AcDbEntity
  8
0
100
AcDbCircle
 62
7
  6
CONTINUOUS
 10
39.9819167827
 20
17.333751483
 40
0.55
100
AcDbArc
 50
276.4692440445
 51
83.5307589364
  0
ARC
  5
327
100
AcDbEntity
  8
0
100
AcDbCircle
 62
7
  6
CONTINUOUS
 10
39.2694167827
 20
16.0996652826
 40
0.55
100
AcDbArc
 50
216.469237301
 51
23.5307600341
  0
ARC
  5
328
100
AcDbEntity
  8
0
100
AcDbCircle
 62
7
  6
CONTINUOUS
 10
37.8444167827
 20
16.0996652826
 40
0.55
100
AcDbArc
 50
156.4692451889
 51
323.5307589364
  0
ARC
  5
329
100
AcDbEntity
  8
0
100
AcDbCircle
 62
7
  6
CONTINUOUS
 10
37.1319167827
 20
17.333751483
 40
0.55
100
AcDbArc
 50
96.4692462702
 51
263.5307589364
  0
ARC
  5
32A
100
AcDbEntity
  8
0
100
AcDbCircle
 62
7
  6
CONTINUOUS
 10
37.8444167827
 20
18.5678376833
 40
0.55
100
AcDbArc
 50
36.4692459416
 51
203.5307600341
  0
ARC
  5
32B
100
AcDbEntity
  8
0
100
AcDbCircle
 62
7
  6
CONTINUOUS
 10
39.2694167827
 20
18.5678376833
 40
0.55
100
AcDbArc
 50
336.4692459416
 51
143.5307589364
  0
ARC
  5
32C
100
AcDbEntity
  8
0
100
AcDbCircle
 62
7
  6
CONTINUOUS
 10
40.0817422288
 20
16.4533931012
 40
0.336
100
AcDbArc
 50
96.4692361841
 51
203.5307571397
  0
ARC
  5
32D
100
AcDbEntity
  8
0
100
AcDbCircle
 62
7
  6
CONTINUOUS
 10
38.5569167827
 20
15.5730347194
 40
0.336
100
AcDbArc
 50
36.4692472225
 51
143.5307589364
  0
ARC
  5
32E
100
AcDbEntity
  8
0
100
AcDbCircle
 62
7
  6
CONTINUOUS
 10
37.0320913366
 20
16.4533931012
 40
0.336
100
AcDbArc
 50
336.4692343108
 51
83.5307589364
  0
ARC
  5
32F
100
AcDbEntity
  8
0
100
AcDbCircle
 62
7
  6
CONTINUOUS
 10
37.0320913366
 20
18.2141098647
 40
0.336
100
AcDbArc
 50
276.4692325408
 51
23.5307571397
  0
ARC
  5
330
100
AcDbEntity
  8
0
100
AcDbCircle
 62
7
  6
CONTINUOUS
 10
38.5569167827
 20
19.0944682465
 40
0.336
100
AcDbArc
 50
216.4692330786
 51
323.5307589364
  0
ARC
  5
331
100
AcDbEntity
  8
0
100
AcDbCircle
 62
7
  6
CONTINUOUS
 10
40.0817422288
 20
18.2141098647
 40
0.336
100
AcDbArc
 50
156.4692330786
 51
263.5307589364
  0
ARC
  5
332
100
AcDbEntity
  8
0
100
AcDbCircle
 62
7
  6
CONTINUOUS
 10
40.2329290837
 20
35.1093368439
 40
7.4298709548
100
AcDbArc
 50
54.1916905004
 51
56.0719972075
  0
CIRCLE
  5
333
100
AcDbEntity
  8
0
100
AcDbCircle
 62
7
  6
CONTINUOUS
 10
49.6268684555
 20
21.4807031557
 40
4.0
  0
ARC
  5
334
100
AcDbEntity
  8
0
100
AcDbCircle
 62
7
  6
CONTINUOUS
 10
45.5569167827
 20
13.433751483
 40
2.0
100
AcDbArc
 50
180.0
 51
238.2116693829
  0
ARC
  5
335
100
AcDbEntity
  8
0
100
AcDbCircle
 62
7
  6
CONTINUOUS
 10
49.2580513162
 20
20.1042588533
 40
0.55
100
AcDbArc
 50
171.469243518
 51
338.5307600341
  0
ARC
  5
336
100
AcDbEntity
  8
0
100
AcDbCircle
 62
7
  6
CONTINUOUS
 10
50.6344956187
 20
20.4730759926
 40
0.55
100
AcDbArc
 50
231.4692410636
 51
38.5307600341
  0
ARC
  5
337
100
AcDbEntity
  8
0
100
AcDbCircle
 62
7
  6
CONTINUOUS
 10
49.9956855948
 20
22.8571474582
 40
0.55
100
AcDbArc
 50
351.4692458165
 51
158.5307600341
  0
ARC
  5
338
100
AcDbEntity
  8
0
100
AcDbCircle
 62
7
  6
CONTINUOUS
 10
48.250424153
 20
21.1118860165
 40
0.55
100
AcDbArc
 50
111.4692410636
 51
278.5307619425
  0
ARC
  5
339
100
AcDbEntity
  8
0
100
AcDbCircle
 62
7
  6
CONTINUOUS
 10
48.6192412923
 20
22.4883303189
 40
0.55
100
AcDbArc
 50
51.4692410636
 51
218.5307544777
  0
ARC
  5
33A
100
AcDbEntity
  8
0
100
AcDbCircle
 62
7
  6
CONTINUOUS
 10
48.3818536923
 20
20.2356883925
 40
0.336
100
AcDbArc
 50
351.4692370459
 51
98.5307540158
  0
ARC
  5
33B
100
AcDbEntity
  8
0
100
AcDbCircle
 62
7
  6
CONTINUOUS
 10
50.0825754869
 20
19.7799813611
 40
0.336
100
AcDbArc
 50
51.4692410636
 51
158.5307571397
  0
ARC
  5
33C
100
AcDbEntity
  8
0
100
AcDbCircle
 62
7
  6
CONTINUOUS
 10
49.1711614241
 20
23.1814249504
 40
0.336
100
AcDbArc
 50
231.4692410636
 51
338.5307571397
  0
ARC
  5
33D
100
AcDbEntity
  8
0
100
AcDbCircle
 62
7
  6
CONTINUOUS
 10
47.9261466609
 20
21.9364101872
 40
0.336
100
AcDbArc
 50
291.4692410636
 51
38.5307662349
  0
ARC
  5
33E
100
AcDbEntity
  8
0
100
AcDbCircle
 62
7
  6
CONTINUOUS
 10
43.1799167827
 20
39.2722586461
 40
6.0033324079
100
AcDbArc
 50
150.0183607853
 51
168.6131107056
  0
ARC
  5
33F
100
AcDbEntity
  8
0
100
AcDbCircle
 62
7
  6
CONTINUOUS
 10
43.1799167827
 20
39.2722586461
 40
6.0033324079
100
AcDbArc
 50
191.9977325832
 51
209.9816393688
  0
CIRCLE
  5
340
100
AcDbEntity
  8
0
100
AcDbCircle
 62
7
  6
CONTINUOUS
 10
49.6268684555
 20
41.9867998102
 40
4.0
  0
ARC
  5
341
100
AcDbEntity
  8
0
100
AcDbCircle
 62
7
  6
CONTINUOUS
 10
49.2580513162
 20
40.6103555077
 40
0.55
100
AcDbArc
 50
171.469243518
 51
338.5307600341
  0
ARC
  5
342
100
AcDbEntity
  8
0
100
AcDbCircle
 62
7
  6
CONTINUOUS
 10
50.6344956187
 20
40.979172647
 40
0.55
100
AcDbArc
 50
231.4692410636
 51
38.5307600341
  0
ARC
  5
343
100
AcDbEntity
  8
0
100
AcDbCircle
 62
7
  6
CONTINUOUS
 10
48.250424153
 20
41.6179826709
 40
0.55
100
AcDbArc
 50
111.4692410636
 51
278.5307619425
  0
ARC
  5
344
100
AcDbEntity
  8
0
100
AcDbCircle
 62
7
  6
CONTINUOUS
 10
48.6192412923
 20
42.9944269733
 40
0.55
100
AcDbArc
 50
51.4692410636
 51
218.5307544777
  0
ARC
  5
345
100
AcDbEntity
  8
0
100
AcDbCircle
 62
7
  6
CONTINUOUS
 10
48.3818536923
 20
40.7417850469
 40
0.336
100
AcDbArc
 50
351.4692370459
 51
98.5307540158
  0
ARC
  5
346
100
AcDbEntity
  8
0
100
AcDbCircle
 62
7
  6
CONTINUOUS
 10
50.0825754869
 20
40.2860780155
 40
0.336
100
AcDbArc
 50
51.4692410636
 51
158.5307571397
  0
ARC
  5
347
100
AcDbEntity
  8
0
100
AcDbCircle
 62
7
  6
CONTINUOUS
 10
47.9261466609
 20
42.4425068416
 40
0.336
100
AcDbArc
 50
291.4692410636
 51
38.5307662349
  0
ARC
  5
348
100
AcDbEntity
  8
0
100
AcDbCircle
 62
7
  6
CONTINUOUS
 10
43.9799167827
 20
44.633751483
 40
14.7
100
AcDbArc
 50
180.0
 51
219.6216697202
  0
ARC
  5
349
100
AcDbEntity
  8
0
100
AcDbCircle
 62
7
  6
CONTINUOUS
 10
39.4569167827
 20
71.033751483
 40
6.8
100
AcDbArc
 50
148.1332091443
 51
173.6835243675
  0
ARC
  5
34A
100
AcDbEntity
  8
0
100
AcDbCircle
 62
7
  6
CONTINUOUS
 10
43.1799167827
 20
71.6952443198
 40
6.0033324079
100
AcDbArc
 50
150.0183607853
 51
168.6131107056
  0
ARC
  5
34B
100
AcDbEntity
  8
0
100
AcDbCircle
 62
7
  6
CONTINUOUS
 10
43.1799167827
 20
71.6952443198
 40
6.0033324079
100
AcDbArc
 50
191.9977325832
 51
209.9816393688
  0
ARC
  5
34C
100
AcDbEntity
  8
0
100
AcDbCircle
 62
7
  6
CONTINUOUS
 10
29.4799167827
 20
62.633751483
 40
5.0
100
AcDbArc
 50
30.0316105566
 51
55.179691102
  0
ARC
  5
34D
100
AcDbEntity
  8
0
100
AcDbCircle
 62
7
  6
CONTINUOUS
 10
29.4799167827
 20
62.633751483
 40
5.0
100
AcDbArc
 50
284.9005972793
 51
330.7328664558
  0
ARC
  5
34E
100
AcDbEntity
  8
0
100
AcDbCircle
 62
7
  6
CONTINUOUS
 10
29.4799167827
 20
62.633751483
 40
5.0
100
AcDbArc
 50
99.1155816211
 51
239.3225755274
  0
CIRCLE
  5
34F
100
AcDbEntity
  8
0
100
AcDbCircle
 62
7
  6
CONTINUOUS
 10
29.4799167827
 20
62.633751483
 40
4.0
  0
ARC
  5
350
100
AcDbEntity
  8
0
100
AcDbCircle
 62
7
  6
CONTINUOUS
 10
44.1839541004
 20
71.7676995747
 40
2.802943663
100
AcDbArc
 50
274.0090001207
 51
278.1211530095
  0
ARC
  5
351
100
AcDbEntity
  8
0
100
AcDbCircle
 62
7
  6
CONTINUOUS
 10
33.4769489409
 20
68.3803795313
 40
2.0
100
AcDbArc
 50
144.6982082963
 51
235.179691102
  0
ARC
  5
352
100
AcDbEntity
  8
0
100
AcDbCircle
 62
7
  6
CONTINUOUS
 10
31.2799167827
 20
55.8691376728
 40
2.0
100
AcDbArc
 50
104.9005952091
 51
180.0
  0
ARC
  5
353
100
AcDbEntity
  8
0
100
AcDbCircle
 62
7
  6
CONTINUOUS
 10
29.5144297849
 20
73.2297029779
 40
0.747
100
AcDbArc
 50
170.6852760293
 51
249.3147235499
  0
ARC
  5
354
100
AcDbEntity
  8
0
100
AcDbCircle
 62
7
  6
CONTINUOUS
 10
29.5144297849
 20
71.457799988
 40
0.747
100
AcDbArc
 50
110.685276621
 51
189.3147233502
  0
ARC
  5
355
100
AcDbEntity
  8
0
100
AcDbCircle
 62
7
  6
CONTINUOUS
 10
45.4799167827
 20
53.038751483
 40
0.6
100
AcDbArc
 50
90.0
 51
161.4208310563
  0
ARC
  5
356
100
AcDbEntity
  8
0
100
AcDbCircle
 62
7
  6
CONTINUOUS
 10
30.9049167827
 20
62.633751483
 40
0.55
100
AcDbArc
 50
276.4692462702
 51
83.5307589364
  0
ARC
  5
357
100
AcDbEntity
  8
0
100
AcDbCircle
 62
7
  6
CONTINUOUS
 10
30.1924167827
 20
61.3996652826
 40
0.55
100
AcDbArc
 50
216.4692374231
 51
23.5307589364
  0
ARC
  5
358
100
AcDbEntity
  8
0
100
AcDbCircle
 62
7
  6
CONTINUOUS
 10
30.1924167827
 20
63.8678376833
 40
0.55
100
AcDbArc
 50
336.4692467539
 51
143.5307589364
  0
ARC
  5
359
100
AcDbEntity
  8
0
100
AcDbCircle
 62
7
  6
CONTINUOUS
 10
49.9956855948
 20
43.3632441126
 40
0.55
100
AcDbArc
 50
351.4692458165
 51
158.5307600341
  0
ARC
  5
35A
100
AcDbEntity
  8
0
100
AcDbCircle
 62
7
  6
CONTINUOUS
 10
31.0047422288
 20
61.7533931012
 40
0.336
100
AcDbArc
 50
96.4692325408
 51
203.5307589364
  0
ARC
  5
35B
100
AcDbEntity
  8
0
100
AcDbCircle
 62
7
  6
CONTINUOUS
 10
29.4799167827
 20
60.8730347194
 40
0.336
100
AcDbArc
 50
36.4692470227
 51
143.530755575
  0
ARC
  5
35C
100
AcDbEntity
  8
0
100
AcDbCircle
 62
7
  6
CONTINUOUS
 10
29.4799167827
 20
64.3944682465
 40
0.336
100
AcDbArc
 50
216.4692317058
 51
323.5307589364
  0
ARC
  5
35D
100
AcDbEntity
  8
0
100
AcDbCircle
 62
7
  6
CONTINUOUS
 10
31.0047422288
 20
63.5141098647
 40
0.336
100
AcDbArc
 50
156.469231749
 51
263.5307589364
  0
ARC
  5
35E
100
AcDbEntity
  8
0
100
AcDbCircle
 62
7
  6
CONTINUOUS
 10
49.1711614241
 20
43.6875216048
 40
0.336
100
AcDbArc
 50
231.4692410636
 51
338.5307571397
  0
ARC
  5
35F
100
AcDbEntity
  8
0
100
AcDbCircle
 62
7
  6
CONTINUOUS
 10
51.003312758
 20
21.849520295
 40
0.55
100
AcDbArc
 50
291.469244491
 51
98.5307589364
  0
ARC
  5
360
100
AcDbEntity
  8
0
100
AcDbCircle
 62
7
  6
CONTINUOUS
 10
51.3275902501
 20
21.0249961243
 40
0.336
100
AcDbArc
 50
111.4692354532
 51
218.5307571397
  0
ARC
  5
361
100
AcDbEntity
  8
0
100
AcDbCircle
 62
7
  6
CONTINUOUS
 10
50.8718832187
 20
22.725717919
 40
0.336
100
AcDbArc
 50
171.4692332834
 51
278.5307589364
  0
ARC
  5
362
100
AcDbEntity
  8
0
100
AcDbCircle
 62
7
  6
CONTINUOUS
 10
51.003312758
 20
42.3556169494
 40
0.55
100
AcDbArc
 50
291.469244491
 51
98.5307589364
  0
ARC
  5
363
100
AcDbEntity
  8
0
100
AcDbCircle
 62
7
  6
CONTINUOUS
 10
51.3275902501
 20
41.5310927787
 40
0.336
100
AcDbArc
 50
111.4692354532
 51
218.5307571397
  0
ARC
  5
364
100
AcDbEntity
  8
0
100
AcDbCircle
 62
7
  6
CONTINUOUS
 10
50.8718832187
 20
43.2318145734
 40
0.336
100
AcDbArc
 50
171.4692332834
 51
278.5307589364
  0
ARC
  5
365
100
AcDbEntity
  8
0
100
AcDbCircle
 62
7
  6
CONTINUOUS
 10
70.3799167827
 20
18.233751483
 40
6.8
100
AcDbArc
 50
287.0825832434
 51
342.9174167566
  0
ARC
  5
366
100
AcDbEntity
  8
0
100
AcDbCircle
 62
7
  6
CONTINUOUS
 10
70.3799167827
 20
18.233751483
 40
6.8
100
AcDbArc
 50
270.0000000001
 51
286.6840425539
  0
ARC
  5
367
100
AcDbEntity
  8
0
100
AcDbCircle
 62
7
  6
CONTINUOUS
 10
70.3799167827
 20
18.233751483
 40
6.8
100
AcDbArc
 50
343.3159574461
 51
360.0
  0
CIRCLE
  5
368
100
AcDbEntity
  8
0
100
AcDbCircle
 62
7
  6
CONTINUOUS
 10
70.1329651099
 20
21.4807031557
 40
4.0
  0
ARC
  5
369
100
AcDbEntity
  8
0
100
AcDbCircle
 62
7
  6
CONTINUOUS
 10
69.7641479706
 20
20.1042588533
 40
0.55
100
AcDbArc
 50
171.469243518
 51
338.5307600341
  0
ARC
  5
36A
100
AcDbEntity
  8
0
100
AcDbCircle
 62
7
  6
CONTINUOUS
 10
71.1405922731
 20
20.4730759926
 40
0.55
100
AcDbArc
 50
231.4692410636
 51
38.5307600341
  0
ARC
  5
36B
100
AcDbEntity
  8
0
100
AcDbCircle
 62
7
  6
CONTINUOUS
 10
71.5094094124
 20
21.849520295
 40
0.55
100
AcDbArc
 50
291.469244491
 51
98.5307589364
  0
ARC
  5
36C
100
AcDbEntity
  8
0
100
AcDbCircle
 62
7
  6
CONTINUOUS
 10
70.5017822492
 20
22.8571474582
 40
0.55
100
AcDbArc
 50
351.4692458165
 51
158.5307600341
  0
ARC
  5
36D
100
AcDbEntity
  8
0
100
AcDbCircle
 62
7
  6
CONTINUOUS
 10
68.7565208074
 20
21.1118860165
 40
0.55
100
AcDbArc
 50
111.4692410636
 51
278.5307619425
  0
ARC
  5
36E
100
AcDbEntity
  8
0
100
AcDbCircle
 62
7
  6
CONTINUOUS
 10
69.1253379467
 20
22.4883303189
 40
0.55
100
AcDbArc
 50
51.4692410636
 51
218.5307544778
  0
ARC
  5
36F
100
AcDbEntity
  8
0
100
AcDbCircle
 62
7
  6
CONTINUOUS
 10
68.8879503467
 20
20.2356883925
 40
0.336
100
AcDbArc
 50
351.4692370459
 51
98.5307540158
  0
ARC
  5
370
100
AcDbEntity
  8
0
100
AcDbCircle
 62
7
  6
CONTINUOUS
 10
70.5886721413
 20
19.7799813611
 40
0.336
100
AcDbArc
 50
51.4692410636
 51
158.5307571397
  0
ARC
  5
371
100
AcDbEntity
  8
0
100
AcDbCircle
 62
7
  6
CONTINUOUS
 10
71.8336869046
 20
21.0249961243
 40
0.336
100
AcDbArc
 50
111.4692354532
 51
218.5307571397
  0
ARC
  5
372
100
AcDbEntity
  8
0
100
AcDbCircle
 62
7
  6
CONTINUOUS
 10
71.3779798731
 20
22.725717919
 40
0.336
100
AcDbArc
 50
171.4692332834
 51
278.5307589364
  0
ARC
  5
373
100
AcDbEntity
  8
0
100
AcDbCircle
 62
7
  6
CONTINUOUS
 10
69.6772580785
 20
23.1814249504
 40
0.336
100
AcDbArc
 50
231.4692410636
 51
338.5307571397
  0
ARC
  5
374
100
AcDbEntity
  8
0
100
AcDbCircle
 62
7
  6
CONTINUOUS
 10
68.4322433153
 20
21.9364101872
 40
0.336
100
AcDbArc
 50
291.4692410636
 51
38.5307662349
  0
CIRCLE
  5
375
100
AcDbEntity
  8
0
100
AcDbCircle
 62
7
  6
CONTINUOUS
 10
70.1329651099
 20
41.9867998102
 40
4.0
  0
ARC
  5
376
100
AcDbEntity
  8
0
100
AcDbCircle
 62
7
  6
CONTINUOUS
 10
69.7641479706
 20
40.6103555077
 40
0.55
100
AcDbArc
 50
171.469243518
 51
338.5307600341
  0
ARC
  5
377
100
AcDbEntity
  8
0
100
AcDbCircle
 62
7
  6
CONTINUOUS
 10
71.1405922731
 20
40.979172647
 40
0.55
100
AcDbArc
 50
231.4692410636
 51
38.5307600341
  0
ARC
  5
378
100
AcDbEntity
  8
0
100
AcDbCircle
 62
7
  6
CONTINUOUS
 10
71.5094094124
 20
42.3556169494
 40
0.55
100
AcDbArc
 50
291.469244491
 51
98.5307589364
  0
ARC
  5
379
100
AcDbEntity
  8
0
100
AcDbCircle
 62
7
  6
CONTINUOUS
 10
68.7565208074
 20
41.6179826709
 40
0.55
100
AcDbArc
 50
111.4692410636
 51
278.5307619425
  0
ARC
  5
37A
100
AcDbEntity
  8
0
100
AcDbCircle
 62
7
  6
CONTINUOUS
 10
69.1253379467
 20
42.9944269733
 40
0.55
100
AcDbArc
 50
51.4692410636
 51
218.5307544778
  0
ARC
  5
37B
100
AcDbEntity
  8
0
100
AcDbCircle
 62
7
  6
CONTINUOUS
 10
68.8879503467
 20
40.7417850469
 40
0.336
100
AcDbArc
 50
351.4692370459
 51
98.5307540158
  0
ARC
  5
37C
100
AcDbEntity
  8
0
100
AcDbCircle
 62
7
  6
CONTINUOUS
 10
70.5886721413
 20
40.2860780155
 40
0.336
100
AcDbArc
 50
51.4692410636
 51
158.5307571397
  0
ARC
  5
37D
100
AcDbEntity
  8
0
100
AcDbCircle
 62
7
  6
CONTINUOUS
 10
71.8336869046
 20
41.5310927787
 40
0.336
100
AcDbArc
 50
111.4692354532
 51
218.5307571397
  0
ARC
  5
37E
100
AcDbEntity
  8
0
100
AcDbCircle
 62
7
  6
CONTINUOUS
 10
71.3779798731
 20
43.2318145734
 40
0.336
100
AcDbArc
 50
171.4692332834
 51
278.5307589364
  0
ARC
  5
37F
100
AcDbEntity
  8
0
100
AcDbCircle
 62
7
  6
CONTINUOUS
 10
68.4322433153
 20
42.4425068416
 40
0.336
100
AcDbArc
 50
291.4692410636
 51
38.5307662349
  0
ARC
  5
380
100
AcDbEntity
  8
0
100
AcDbCircle
 62
7
  6
CONTINUOUS
 10
59.6299167827
 20
71.6952443198
 40
3.0
100
AcDbArc
 50
0.0
 51
90.0
  0
ARC
  5
381
100
AcDbEntity
  8
0
100
AcDbCircle
 62
7
  6
CONTINUOUS
 10
70.5017822492
 20
43.3632441126
 40
0.55
100
AcDbArc
 50
351.4692458165
 51
158.5307600341
  0
ARC
  5
382
100
AcDbEntity
  8
0
100
AcDbCircle
 62
7
  6
CONTINUOUS
 10
69.6772580785
 20
43.6875216048
 40
0.336
100
AcDbArc
 50
231.4692410636
 51
338.5307571397
  0
ARC
  5
383
100
AcDbEntity
  8
0
100
AcDbCircle
 62
7
  6
CONTINUOUS
 10
59.6274040252
 20
120.7047452551
 40
29.1261662944
100
AcDbArc
 50
270.0049429918
 51
275.9169292765
  0
ARC
  5
384
100
AcDbEntity
  8
0
100
AcDbCircle
 62
7
  6
CONTINUOUS
 10
65.373666094
 20
112.4337539875
 40
7.8
100
AcDbArc
 50
90.0
 51
120.7984176416
  0
ARC
  5
385
100
AcDbEntity
  8
0
100
AcDbCircle
 62
7
  6
CONTINUOUS
 10
65.3861674715
 20
112.4337539875
 40
7.8
100
AcDbArc
 50
59.2015823584
 51
90.0
  0
ARC
  5
386
100
AcDbEntity
  8
0
100
AcDbCircle
 62
7
  6
CONTINUOUS
 10
43.1799167827
 20
91.733751483
 40
6.0033324079
100
AcDbArc
 50
150.0183607853
 51
168.6131107056
  0
ARC
  5
387
100
AcDbEntity
  8
0
100
AcDbCircle
 62
7
  6
CONTINUOUS
 10
43.1799167827
 20
91.733751483
 40
6.0033324079
100
AcDbArc
 50
191.9977325832
 51
209.9816393688
  0
ARC
  5
388
100
AcDbEntity
  8
0
100
AcDbCircle
 62
7
  6
CONTINUOUS
 10
69.0865844373
 20
109.0337551878
 40
6.0
100
AcDbArc
 50
60.0734942192
 51
90.0
  0
ARC
  5
389
100
AcDbEntity
  8
0
100
AcDbCircle
 62
7
  6
CONTINUOUS
 10
69.0732491281
 20
109.0337551878
 40
6.0
100
AcDbArc
 50
90.0
 51
119.9265057808
  0
ARC
  5
38A
100
AcDbEntity
  8
0
100
AcDbCircle
 62
7
  6
CONTINUOUS
 10
59.6299167827
 20
91.733751483
 40
3.0
100
AcDbArc
 50
0.0
 51
90.0
  0
SPLINE
  5
38B
100
AcDbEntity
  8
0
100
AcDbSpline
 62
7
  6
CONTINUOUS
 70
0
 71
3
 72
13
 73
9
 74
0
 42
0.0000001
 43
0.0000001
 44
0.0000000001
 40
0.0
 40
0.0
 40
0.0
 40
0.0
 40
0.0250524974
 40
0.0847406086
 40
0.1802587095
 40
0.307627387
 40
0.6333438118
 40
1.0
 40
1.0
 40
1.0
 40
1.0
 10
37.3366026729
 20
90.4945240948
 30
0.0
 10
37.3385701042
 20
90.4945295691
 30
0.0
 10
37.3417638481
 20
90.5027925637
 30
0.0
 10
37.3420091043
 20
90.5154121407
 30
0.0
 10
37.3420094042
 20
90.5384224437
 30
0.0
 10
37.3385312621
 20
90.580955049
 30
0.0
 10
37.3303538437
 20
90.6451172579
 30
0.0
 10
37.3210635722
 20
90.6986249938
 30
0.0
 10
37.3155798658
 20
90.7268924851
 30
0.0
  0
SPLINE
  5
38C
100
AcDbEntity
  8
0
100
AcDbSpline
 62
7
  6
CONTINUOUS
 70
0
 71
3
 72
13
 73
9
 74
0
 42
0.0000001
 43
0.0000001
 44
0.0000000001
 40
0.0
 40
0.0
 40
0.0
 40
0.0
 40
0.0250524974
 40
0.0847406086
 40
0.1802587095
 40
0.307627387
 40
0.6333438118
 40
1.0
 40
1.0
 40
1.0
 40
1.0
 10
37.3366026729
 20
38.0330312579
 30
0.0
 10
37.3385701042
 20
38.0330367322
 30
0.0
 10
37.3417638481
 20
38.0412997269
 30
0.0
 10
37.3420091043
 20
38.0539193038
 30
0.0
 10
37.3420094042
 20
38.0769296068
 30
0.0
 10
37.3385312621
 20
38.1194622121
 30
0.0
 10
37.3303538437
 20
38.183624421
 30
0.0
 10
37.3210635722
 20
38.2371321569
 30
0.0
 10
37.3155798658
 20
38.2653996483
 30
0.0
  0
SPLINE
  5
38D
100
AcDbEntity
  8
0
100
AcDbSpline
 62
7
  6
CONTINUOUS
 70
0
 71
3
 72
13
 73
9
 74
0
 42
0.0000001
 43
0.0000001
 44
0.0000000001
 40
0.0
 40
0.0
 40
0.0
 40
0.0
 40
0.0250524974
 40
0.0847406086
 40
0.1802587095
 40
0.307627387
 40
0.6333438118
 40
1.0
 40
1.0
 40
1.0
 40
1.0
 10
37.3366026729
 20
70.4560169317
 30
0.0
 10
37.3385701042
 20
70.456022406
 30
0.0
 10
37.3417638481
 20
70.4642854006
 30
0.0
 10
37.3420091043
 20
70.4769049776
 30
0.0
 10
37.3420094042
 20
70.4999152806
 30
0.0
 10
37.3385312621
 20
70.5424478859
 30
0.0
 10
37.3303538437
 20
70.6066100948
 30
0.0
 10
37.3210635722
 20
70.6601178306
 30
0.0
 10
37.3155798658
 20
70.688385322
 30
0.0
  0
SPLINE
  5
38E
100
AcDbEntity
  8
0
100
AcDbSpline
 62
7
  6
CONTINUOUS
 70
0
 71
3
 72
12
 73
8
 74
0
 42
0.0000001
 43
0.0000001
 44
0.0000000001
 40
0.0
 40
0.0
 40
0.0
 40
0.0
 40
0.0709774895
 40
0.1622664847
 40
0.3999297174
 40
0.6905269956
 40
1.0
 40
1.0
 40
1.0
 40
1.0
 10
37.3155798658
 20
91.9208584513
 30
0.0
 10
37.3062326125
 20
91.9381058951
 30
0.0
 10
37.2907947928
 20
91.9806430224
 30
0.0
 10
37.2687457174
 20
92.0891029069
 30
0.0
 10
37.2608925966
 20
92.2610326638
 30
0.0
 10
37.2748985604
 20
92.4922970736
 30
0.0
 10
37.2992902713
 20
92.6566406373
 30
0.0
 10
37.3155798658
 20
92.7406104808
 30
0.0
  0
SPLINE
  5
38F
100
AcDbEntity
  8
0
100
AcDbSpline
 62
7
  6
CONTINUOUS
 70
0
 71
3
 72
13
 73
9
 74
0
 42
0.0000001
 43
0.0000001
 44
0.0000000001
 40
0.0
 40
0.0
 40
0.0
 40
0.0
 40
0.3666599501
 40
0.6924027652
 40
0.8197740741
 40
0.9152764273
 40
0.9749622467
 40
1.0
 40
1.0
 40
1.0
 40
1.0
 10
37.3155798658
 20
92.7406104808
 30
0.0
 10
37.3210635827
 20
92.768878026
 30
0.0
 10
37.3303442389
 20
92.8223890503
 30
0.0
 10
37.3385318706
 20
92.886552592
 30
0.0
 10
37.3420128303
 20
92.9290845551
 30
0.0
 10
37.3420084676
 20
92.9520957967
 30
0.0
 10
37.3417591125
 20
92.9647083788
 30
0.0
 10
37.3385717181
 20
92.9729745956
 30
0.0
 10
37.33660546
 20
92.9729796594
 30
0.0
  0
SPLINE
  5
390
100
AcDbEntity
  8
0
100
AcDbSpline
 62
7
  6
CONTINUOUS
 70
0
 71
3
 72
10
 73
6
 74
0
 42
0.0000001
 43
0.0000001
 44
0.0000000001
 40
0.0
 40
0.0
 40
0.0
 40
0.0
 40
0.1637356695
 40
0.3975900892
 40
1.0
 40
1.0
 40
1.0
 40
1.0
 10
37.3155798658
 20
91.5466445146
 30
0.0
 10
37.3205221619
 20
91.5557639823
 30
0.0
 10
37.3281000657
 20
91.580098022
 30
0.0
 10
37.339474582
 20
91.6423543039
 30
0.0
 10
37.3421081059
 20
91.6955889953
 30
0.0
 10
37.3421081057
 20
91.7337514886
 30
0.0
  0
SPLINE
  5
391
100
AcDbEntity
  8
0
100
AcDbSpline
 62
7
  6
CONTINUOUS
 70
0
 71
3
 72
10
 73
6
 74
0
 42
0.0000001
 43
0.0000001
 44
0.0000000001
 40
0.0
 40
0.0
 40
0.0
 40
0.0
 40
0.6023996677
 40
0.8362533998
 40
1.0
 40
1.0
 40
1.0
 40
1.0
 10
37.3421081057
 20
91.7337514886
 30
0.0
 10
37.3421081054
 20
91.7719135582
 30
0.0
 10
37.339476331
 20
91.8251472414
 30
0.0
 10
37.3281069275
 20
91.8874057895
 30
0.0
 10
37.320522521
 20
91.911738321
 30
0.0
 10
37.3155798658
 20
91.9208584513
 30
0.0
  0
SPLINE
  5
392
100
AcDbEntity
  8
0
100
AcDbSpline
 62
7
  6
CONTINUOUS
 70
0
 71
3
 72
12
 73
8
 74
0
 42
0.0000001
 43
0.0000001
 44
0.0000000001
 40
0.0
 40
0.0
 40
0.0
 40
0.0
 40
0.0710121319
 40
0.1622745959
 40
0.3999284924
 40
0.6904658199
 40
1.0
 40
1.0
 40
1.0
 40
1.0
 10
37.3155798658
 20
91.5466445146
 30
0.0
 10
37.3062281212
 20
91.5293887836
 30
0.0
 10
37.2908238439
 20
91.4868356274
 30
0.0
 10
37.2687801965
 20
91.3783801249
 30
0.0
 10
37.2609247325
 20
91.2064795798
 30
0.0
 10
37.2748011599
 20
90.9752093134
 30
0.0
 10
37.2992871747
 20
90.8108782908
 30
0.0
 10
37.3155798658
 20
90.7268924851
 30
0.0
  0
SPLINE
  5
393
100
AcDbEntity
  8
0
100
AcDbSpline
 62
7
  6
CONTINUOUS
 70
0
 71
3
 72
12
 73
8
 74
0
 42
0.0000001
 43
0.0000001
 44
0.0000000001
 40
0.0
 40
0.0
 40
0.0
 40
0.0
 40
0.0709774895
 40
0.1622664847
 40
0.3999297174
 40
0.6905269956
 40
1.0
 40
1.0
 40
1.0
 40
1.0
 10
37.3155798658
 20
39.4593656144
 30
0.0
 10
37.3062326125
 20
39.4766130582
 30
0.0
 10
37.2907947928
 20
39.5191501855
 30
0.0
 10
37.2687457174
 20
39.6276100701
 30
0.0
 10
37.2608925966
 20
39.7995398269
 30
0.0
 10
37.2748985604
 20
40.0308042368
 30
0.0
 10
37.2992902713
 20
40.1951478004
 30
0.0
 10
37.3155798658
 20
40.2791176439
 30
0.0
  0
SPLINE
  5
394
100
AcDbEntity
  8
0
100
AcDbSpline
 62
7
  6
CONTINUOUS
 70
0
 71
3
 72
13
 73
9
 74
0
 42
0.0000001
 43
0.0000001
 44
0.0000000001
 40
0.0
 40
0.0
 40
0.0
 40
0.0
 40
0.3666599501
 40
0.6924027652
 40
0.8197740741
 40
0.9152764273
 40
0.9749622467
 40
1.0
 40
1.0
 40
1.0
 40
1.0
 10
37.3155798658
 20
40.2791176439
 30
0.0
 10
37.3210635827
 20
40.3073851891
 30
0.0
 10
37.3303442389
 20
40.3608962134
 30
0.0
 10
37.3385318706
 20
40.4250597552
 30
0.0
 10
37.3420128303
 20
40.4675917183
 30
0.0
 10
37.3420084676
 20
40.4906029599
 30
0.0
 10
37.3417591125
 20
40.5032155419
 30
0.0
 10
37.3385717181
 20
40.5114817588
 30
0.0
 10
37.33660546
 20
40.5114868225
 30
0.0
  0
SPLINE
  5
395
100
AcDbEntity
  8
0
100
AcDbSpline
 62
7
  6
CONTINUOUS
 70
0
 71
3
 72
10
 73
6
 74
0
 42
0.0000001
 43
0.0000001
 44
0.0000000001
 40
0.0
 40
0.0
 40
0.0
 40
0.0
 40
0.1637356695
 40
0.3975900892
 40
1.0
 40
1.0
 40
1.0
 40
1.0
 10
37.3155798658
 20
39.0851516778
 30
0.0
 10
37.3205221619
 20
39.0942711454
 30
0.0
 10
37.3281000657
 20
39.1186051851
 30
0.0
 10
37.339474582
 20
39.180861467
 30
0.0
 10
37.3421081059
 20
39.2340961585
 30
0.0
 10
37.3421081057
 20
39.2722586517
 30
0.0
  0
SPLINE
  5
396
100
AcDbEntity
  8
0
100
AcDbSpline
 62
7
  6
CONTINUOUS
 70
0
 71
3
 72
10
 73
6
 74
0
 42
0.0000001
 43
0.0000001
 44
0.0000000001
 40
0.0
 40
0.0
 40
0.0
 40
0.0
 40
0.6023996677
 40
0.8362533998
 40
1.0
 40
1.0
 40
1.0
 40
1.0
 10
37.3421081057
 20
39.2722586517
 30
0.0
 10
37.3421081054
 20
39.3104207214
 30
0.0
 10
37.339476331
 20
39.3636544045
 30
0.0
 10
37.3281069275
 20
39.4259129526
 30
0.0
 10
37.320522521
 20
39.4502454841
 30
0.0
 10
37.3155798658
 20
39.4593656144
 30
0.0
  0
SPLINE
  5
397
100
AcDbEntity
  8
0
100
AcDbSpline
 62
7
  6
CONTINUOUS
 70
0
 71
3
 72
12
 73
8
 74
0
 42
0.0000001
 43
0.0000001
 44
0.0000000001
 40
0.0
 40
0.0
 40
0.0
 40
0.0
 40
0.0710121319
 40
0.1622745959
 40
0.3999284924
 40
0.6904658199
 40
1.0
 40
1.0
 40
1.0
 40
1.0
 10
37.3155798658
 20
39.0851516778
 30
0.0
 10
37.3062281212
 20
39.0678959467
 30
0.0
 10
37.2908238439
 20
39.0253427906
 30
0.0
 10
37.2687801965
 20
38.916887288
 30
0.0
 10
37.2609247325
 20
38.7449867429
 30
0.0
 10
37.2748011599
 20
38.5137164766
 30
0.0
 10
37.2992871747
 20
38.3493854539
 30
0.0
 10
37.3155798658
 20
38.2653996483
 30
0.0
  0
SPLINE
  5
398
100
AcDbEntity
  8
0
100
AcDbSpline
 62
7
  6
CONTINUOUS
 70
0
 71
3
 72
12
 73
8
 74
0
 42
0.0000001
 43
0.0000001
 44
0.0000000001
 40
0.0
 40
0.0
 40
0.0
 40
0.0
 40
0.0709774895
 40
0.1622664847
 40
0.3999297174
 40
0.6905269956
 40
1.0
 40
1.0
 40
1.0
 40
1.0
 10
37.3155798658
 20
71.8823512881
 30
0.0
 10
37.3062326125
 20
71.8995987319
 30
0.0
 10
37.2907947928
 20
71.9421358592
 30
0.0
 10
37.2687457174
 20
72.0505957438
 30
0.0
 10
37.2608925966
 20
72.2225255007
 30
0.0
 10
37.2748985604
 20
72.4537899105
 30
0.0
 10
37.2992902713
 20
72.6181334742
 30
0.0
 10
37.3155798658
 20
72.7021033176
 30
0.0
  0
SPLINE
  5
399
100
AcDbEntity
  8
0
100
AcDbSpline
 62
7
  6
CONTINUOUS
 70
0
 71
3
 72
13
 73
9
 74
0
 42
0.0000001
 43
0.0000001
 44
0.0000000001
 40
0.0
 40
0.0
 40
0.0
 40
0.0
 40
0.3666599501
 40
0.6924027652
 40
0.8197740741
 40
0.9152764273
 40
0.9749622467
 40
1.0
 40
1.0
 40
1.0
 40
1.0
 10
37.3155798658
 20
72.7021033176
 30
0.0
 10
37.3210635827
 20
72.7303708628
 30
0.0
 10
37.3303442389
 20
72.7838818871
 30
0.0
 10
37.3385318706
 20
72.8480454289
 30
0.0
 10
37.3420128303
 20
72.890577392
 30
0.0
 10
37.3420084676
 20
72.9135886336
 30
0.0
 10
37.3417591125
 20
72.9262012157
 30
0.0
 10
37.3385717181
 20
72.9344674325
 30
0.0
 10
37.33660546
 20
72.9344724963
 30
0.0
  0
SPLINE
  5
39A
100
AcDbEntity
  8
0
100
AcDbSpline
 62
7
  6
CONTINUOUS
 70
0
 71
3
 72
10
 73
6
 74
0
 42
0.0000001
 43
0.0000001
 44
0.0000000001
 40
0.0
 40
0.0
 40
0.0
 40
0.0
 40
0.1637356695
 40
0.3975900892
 40
1.0
 40
1.0
 40
1.0
 40
1.0
 10
37.3155798658
 20
71.5081373515
 30
0.0
 10
37.3205221619
 20
71.5172568191
 30
0.0
 10
37.3281000657
 20
71.5415908589
 30
0.0
 10
37.339474582
 20
71.6038471408
 30
0.0
 10
37.3421081059
 20
71.6570818322
 30
0.0
 10
37.3421081057
 20
71.6952443255
 30
0.0
  0
SPLINE
  5
39B
100
AcDbEntity
  8
0
100
AcDbSpline
 62
7
  6
CONTINUOUS
 70
0
 71
3
 72
10
 73
6
 74
0
 42
0.0000001
 43
0.0000001
 44
0.0000000001
 40
0.0
 40
0.0
 40
0.0
 40
0.0
 40
0.6023996677
 40
0.8362533998
 40
1.0
 40
1.0
 40
1.0
 40
1.0
 10
37.3421081057
 20
71.6952443255
 30
0.0
 10
37.3421081054
 20
71.7334063951
 30
0.0
 10
37.339476331
 20
71.7866400782
 30
0.0
 10
37.3281069275
 20
71.8488986264
 30
0.0
 10
37.320522521
 20
71.8732311579
 30
0.0
 10
37.3155798658
 20
71.8823512881
 30
0.0
  0
SPLINE
  5
39C
100
AcDbEntity
  8
0
100
AcDbSpline
 62
7
  6
CONTINUOUS
 70
0
 71
3
 72
12
 73
8
 74
0
 42
0.0000001
 43
0.0000001
 44
0.0000000001
 40
0.0
 40
0.0
 40
0.0
 40
0.0
 40
0.0710121319
 40
0.1622745959
 40
0.3999284924
 40
0.6904658199
 40
1.0
 40
1.0
 40
1.0
 40
1.0
 10
37.3155798658
 20
71.5081373515
 30
0.0
 10
37.3062281212
 20
71.4908816205
 30
0.0
 10
37.2908238439
 20
71.4483284643
 30
0.0
 10
37.2687801965
 20
71.3398729617
 30
0.0
 10
37.2609247325
 20
71.1679724166
 30
0.0
 10
37.2748011599
 20
70.9367021503
 30
0.0
 10
37.2992871747
 20
70.7723711276
 30
0.0
 10
37.3155798658
 20
70.688385322
 30
0.0
  0
SPLINE
  5
39D
100
AcDbEntity
  8
0
100
AcDbSpline
 62
7
  6
CONTINUOUS
 70
0
 71
3
 72
9
 73
5
 74
0
 42
0.0000001
 43
0.0000001
 44
0.0000000001
 40
0.0
 40
0.0
 40
0.0
 40
0.0
 40
0.4992527385
 40
1.0
 40
1.0
 40
1.0
 40
1.0
 10
45.263660984
 20
47.333751483
 30
0.0
 10
45.2798157832
 20
47.2914158563
 30
0.0
 10
45.3411086803
 20
47.2151204493
 30
0.0
 10
45.434467973
 20
47.1898170877
 30
0.0
 10
45.4799167827
 20
47.1898170877
 30
0.0
  0
SPLINE
  5
39E
100
AcDbEntity
  8
0
100
AcDbSpline
 62
7
  6
CONTINUOUS
 70
0
 71
3
 72
10
 73
6
 74
0
 42
0.0000001
 43
0.0000001
 44
0.0000000001
 40
0.0
 40
0.0
 40
0.0
 40
0.0
 40
0.4998123158
 40
0.7499679792
 40
1.0
 40
1.0
 40
1.0
 40
1.0
 10
45.1482543037
 20
48.138751483
 30
0.0
 10
45.1482543037
 20
48.0026814846
 30
0.0
 10
45.1592957563
 20
47.7980808013
 30
0.0
 10
45.2027827235
 20
47.5291529017
 30
0.0
 10
45.2393933054
 20
47.3973479021
 30
0.0
 10
45.263660984
 20
47.333751483
 30
0.0
  0
SPLINE
  5
39F
100
AcDbEntity
  8
0
100
AcDbSpline
 62
7
  6
CONTINUOUS
 70
0
 71
3
 72
11
 73
7
 74
0
 42
0.0000001
 43
0.0000001
 44
0.0000000001
 40
0.0
 40
0.0
 40
0.0
 40
0.0
 40
0.0858901646
 40
0.2750277939
 40
0.5790887102
 40
1.0
 40
1.0
 40
1.0
 40
1.0
 10
44.9181675583
 20
53.2387571376
 30
0.0
 10
44.9205324191
 20
53.2387533139
 30
0.0
 10
44.9253886617
 20
53.2306504267
 30
0.0
 10
44.9292227532
 20
53.2165046903
 30
0.0
 10
44.9346857636
 20
53.1912026717
 30
0.0
 10
44.9377249438
 20
53.1716971927
 30
0.0
 10
44.9394596621
 20
53.1602385625
 30
0.0
  0
SPLINE
  5
3A0
100
AcDbEntity
  8
0
100
AcDbSpline
 62
7
  6
CONTINUOUS
 70
0
 71
3
 72
14
 73
10
 74
0
 42
0.0000001
 43
0.0000001
 44
0.0000000001
 40
0.0
 40
0.0
 40
0.0
 40
0.0
 40
0.0462283335
 40
0.1212903948
 40
0.2229239118
 40
0.3480710829
 40
0.4929562645
 40
0.6531577402
 40
1.0
 40
1.0
 40
1.0
 40
1.0
 10
44.9394596621
 20
53.1602385625
 30
0.0
 10
44.9510562307
 20
53.0836377718
 30
0.0
 10
44.9720303184
 20
52.8813268248
 30
0.0
 10
45.0018999551
 20
52.5089651591
 30
0.0
 10
45.0340375627
 20
52.0040920647
 30
0.0
 10
45.0676579023
 20
51.3821310556
 30
0.0
 10
45.0993983601
 20
50.6617864185
 30
0.0
 10
45.1357463183
 20
49.5698205354
 30
0.0
 10
45.1482543037
 20
48.720021082
 30
0.0
 10
45.1482543037
 20
48.138751483
 30
0.0
  0
LINE
  5
3A1
100
AcDbEntity
  8
0
100
AcDbLine
 62
7
  6
CONTINUOUS
 10
59.6299167827
 20
68.7357728171
 11
44.5799167827
 21
68.9928650334
  0
SPLINE
  5
3A2
100
AcDbEntity
  8
0
100
AcDbSpline
 62
7
  6
CONTINUOUS
 70
0
 71
3
 72
10
 73
6
 74
0
 42
0.0000001
 43
0.0000001
 44
0.0000000001
 40
0.0
 40
0.0
 40
0.0
 40
0.0
 40
0.2484949409
 40
0.6253007886
 40
1.0
 40
1.0
 40
1.0
 40
1.0
 10
44.0799167827
 20
72.2504241282
 30
0.0
 10
44.0890583311
 20
72.156497144
 30
0.0
 10
44.1229516705
 20
71.9210851271
 30
0.0
 10
44.2185266308
 20
71.5525465992
 30
0.0
 10
44.3213134808
 20
71.28556825
 30
0.0
 10
44.3799167827
 20
71.1558965511
 30
0.0
  0
SPLINE
  5
3A3
100
AcDbEntity
  8
0
100
AcDbSpline
 62
7
  6
CONTINUOUS
 70
0
 71
3
 72
31
 73
27
 74
0
 42
0.0000001
 43
0.0000001
 44
0.0000000001
 40
0.0
 40
0.0
 40
0.0
 40
0.0
 40
0.1256214386
 40
0.1884025185
 40
0.2511497718
 40
0.3138416619
 40
0.3451567567
 40
0.3764364825
 40
0.4076591171
 40
0.43877156
 40
0.4542677867
 40
0.4696660207
 40
0.4849516486
 40
0.4999156813
 40
0.5149438627
 40
0.5302177401
 40
0.5456231242
 40
0.561121951
 40
0.5922476166
 40
0.6234807416
 40
0.6547700631
 40
0.6860939521
 40
0.7488015311
 40
0.8115626417
 40
0.874356261
 40
1.0
 40
1.0
 40
1.0
 40
1.0
 10
44.0799167827
 20
72.8005884824
 30
0.0
 10
44.0078213795
 20
72.7882625051
 30
0.0
 10
43.8998810653
 20
72.7686154203
 30
0.0
 10
43.7567281517
 20
72.7387356278
 30
0.0
 10
43.6499880312
 20
72.713864294
 30
0.0
 10
43.5617902397
 20
72.6902708872
 30
0.0
 10
43.4920987262
 20
72.668691855
 30
0.0
 10
43.4405007832
 20
72.6507072853
 30
0.0
 10
43.3899779946
 20
72.6301974955
 30
0.0
 10
43.3493385221
 20
72.6099115235
 30
0.0
 10
43.3189844605
 20
72.5902674192
 30
0.0
 10
43.2982022713
 20
72.573086924
 30
0.0
 10
43.2811004877
 20
72.5523339499
 30
0.0
 10
43.2731920769
 20
72.5259043452
 30
0.0
 10
43.2810326142
 20
72.4994254131
 30
0.0
 10
43.2982568536
 20
72.4787279461
 30
0.0
 10
43.3189779423
 20
72.4614877351
 30
0.0
 10
43.3493466979
 20
72.4418323156
 30
0.0
 10
43.3899751482
 20
72.421498906
 30
0.0
 10
43.4405008914
 20
72.4009409099
 30
0.0
 10
43.492098042
 20
72.382904441
 30
0.0
 10
43.5617892366
 20
72.3612568916
 30
0.0
 10
43.6499865689
 20
72.337575961
 30
0.0
 10
43.7567271271
 20
72.3125986455
 30
0.0
 10
43.8998792349
 20
72.2825766332
 30
0.0
 10
44.0078205348
 20
72.2628220088
 30
0.0
 10
44.0799167827
 20
72.2504241282
 30
0.0
  0
SPLINE
  5
3A4
100
AcDbEntity
  8
0
100
AcDbSpline
 62
7
  6
CONTINUOUS
 70
0
 71
3
 72
9
 73
5
 74
0
 42
0.0000001
 43
0.0000001
 44
0.0000000001
 40
0.0
 40
0.0
 40
0.0
 40
0.0
 40
0.4739234855
 40
1.0
 40
1.0
 40
1.0
 40
1.0
 10
44.3799167827
 20
73.6951361321
 30
0.0
 10
44.2985270211
 20
73.5690441065
 30
0.0
 10
44.1621821574
 20
73.2791897916
 30
0.0
 10
44.0971680119
 20
72.9662865588
 30
0.0
 10
44.0799167827
 20
72.8005884824
 30
0.0
  0
SPLINE
  5
3A5
100
AcDbEntity
  8
0
100
AcDbSpline
 62
7
  6
CONTINUOUS
 70
0
 71
3
 72
11
 73
7
 74
0
 42
0.0000001
 43
0.0000001
 44
0.0000000001
 40
0.0
 40
0.0
 40
0.0
 40
0.0
 40
0.2530043502
 40
0.50476801
 40
0.7541233245
 40
1.0
 40
1.0
 40
1.0
 40
1.0
 10
59.6299167827
 20
68.7357728171
 30
0.0
 10
59.9394553718
 20
68.7357728171
 30
0.0
 10
60.561110542
 20
68.8307188187
 30
0.0
 10
61.4015714456
 20
69.2440467666
 30
0.0
 10
62.072603613
 20
69.885091676
 30
0.0
 10
62.3660920675
 20
70.4288645563
 30
0.0
 10
62.4646227374
 20
70.7130886067
 30
0.0
  0
SPLINE
  5
3A6
100
AcDbEntity
  8
0
100
AcDbSpline
 62
7
  6
CONTINUOUS
 70
0
 71
3
 72
14
 73
10
 74
0
 42
0.0000001
 43
0.0000001
 44
0.0000000001
 40
0.0
 40
0.0
 40
0.0
 40
0.0
 40
0.3385085938
 40
0.4863028194
 40
0.6171875103
 40
0.7309307598
 40
0.8295662547
 40
0.9172178004
 40
1.0
 40
1.0
 40
1.0
 40
1.0
 10
44.3799167827
 20
37.9118226636
 30
0.0
 10
44.3185704697
 20
37.7660768386
 30
0.0
 10
44.2414824558
 20
37.5510818474
 30
0.0
 10
44.1833896499
 20
37.2682246905
 30
0.0
 10
44.1678409482
 20
37.0849870553
 30
0.0
 10
44.1797082648
 20
36.9242344613
 30
0.0
 10
44.2188478728
 20
36.788246706
 30
0.0
 10
44.2856236142
 20
36.6796967945
 30
0.0
 10
44.347137534
 20
36.6268683246
 30
0.0
 10
44.3799167827
 20
36.6063513182
 30
0.0
  0
ELLIPSE
  5
3A7
100
AcDbEntity
  8
0
100
AcDbEllipse
 62
7
  6
CONTINUOUS
 10
10.7654988991
 20
40.558751483
 30
0.0
 11
0.0
 21
1.2
 31
0.0
 40
0.0174550649
 41
-2.3824037133
 42
-1.5707963268
  0
ELLIPSE
  5
3A8
100
AcDbEntity
  8
0
100
AcDbEllipse
 62
7
  6
CONTINUOUS
 10
10.7654988991
 20
48.708751483
 30
0.0
 11
-0.0
 21
1.2
 31
0.0
 40
0.0174550649
 41
-1.5707963268
 42
-0.7591889403
  0
ELLIPSE
  5
3A9
100
AcDbEntity
  8
0
100
AcDbEllipse
 62
7
  6
CONTINUOUS
 10
77.1711892502
 20
32.633751483
 30
0.0
 11
0.0
 21
0.5
 31
0.0
 40
0.0174550649
 41
-4.7123889804
 42
-3.1415926536
  0
ELLIPSE
  5
3AA
100
AcDbEntity
  8
0
100
AcDbEllipse
 62
7
  6
CONTINUOUS
 10
77.1048600035
 20
20.683751483
 30
0.0
 11
0.0
 21
1.2
 31
0.0
 40
0.0174550649
 41
-4.7123889804
 42
-3.1415926536
  0
ELLIPSE
  5
3AB
100
AcDbEntity
  8
0
100
AcDbEllipse
 62
7
  6
CONTINUOUS
 10
77.1048600035
 20
28.433751483
 30
0.0
 11
0.0
 21
1.2
 31
0.0
 40
0.0174550649
 41
-0.0
 42
1.5707963268
  0
ENDSEC
  0
SECTION
  2
OBJECTS
  0
DICTIONARY
  5
C
100
AcDbDictionary
280
0
281
1
  3
ACAD_GROUP
350
D
  3
ACAD_MLINESTYLE
350
17
  3
ACAD_LAYOUT
350
1A
  3
ACAD_PLOTSETTINGS
350
19
  3
ACAD_PLOTSTYLENAME
350
E
  0
DICTIONARY
  5
D
102
{ACAD_REACTORS
330
C
102
}
100
AcDbDictionary
280
0
281
1
  0
ACDBDICTIONARYWDFLT
  5
E
102
{ACAD_REACTORS
330
C
102
}
100
AcDbDictionary
281
1
  3
Normal
350
F
100
AcDbDictionaryWithDefault
340
F
  0
DICTIONARY
  5
17
102
{ACAD_REACTORS
330
C
102
}
100
AcDbDictionary
280
0
281
1
  3
Standard
350
18
  0
DICTIONARY
  5
19
102
{ACAD_REACTORS
330
C
102
}
100
AcDbDictionary
281
1
  0
DICTIONARY
  5
1A
102
{ACAD_REACTORS
330
C
102
}
100
AcDbDictionary
281
1
  3
Model
350
3AC
  3
Layout1
350
3AD
  0
ACDBPLACEHOLDER
  5
F
102
{ACAD_REACTORS
330
E
102
}
  0
MLINESTYLE
  5
18
102
{ACAD_REACTORS
330
17
102
}
100
AcDbMlineStyle
  2
STANDARD
 70
0
  3

 62
256
 51
90.0
 52
90.0
 71
2
 49
0.5
 62
256
  6
BYLAYER
 49
-0.5
 62
256
  6
BYLAYER
  0
LAYOUT
  5
3AC
102
{ACAD_REACTORS
330
1A
102
}
100
AcDbPlotSettings
  1

  2
none_device
  4

  6

 40
0.0
 41
0.0
 42
0.0
 43
0.0
 44
210.0
 45
297.0
 46
0.0
 47
0.0
 48
0.0
 49
0.0
140
0.0
141
0.0
142
1.0
143
1.0
 70
1024
 72
1
 73
0
 74
0
  7

 75
0
147
1.0
148
0.0
149
0.0
100
AcDbLayout
  1
Model
 70
0
 71
0
 10
0.0
 20
0.0
 11
210.0
 21
297.0
 12
0.0
 22
0.0
 32
0.0
 14
0.0
 24
0.0
 34
0.0
 15
0.0
 25
0.0
 35
0.0
146
0.0
 13
0.0
 23
0.0
 33
0.0
 16
1.0
 26
0.0
 36
0.0
 17
0.0
 27
1.0
 37
0.0
 76
0
330
210
345
0
346
0
  0
LAYOUT
  5
3AD
102
{ACAD_REACTORS
330
1A
102
}
100
AcDbPlotSettings
  1

  2
none_device
  4

  6

 40
0.0
 41
0.0
 42
0.0
 43
0.0
 44
210.0
 45
297.0
 46
0.0
 47
0.0
 48
0.0
 49
0.0
140
0.0
141
0.0
142
1.0
143
1.0
 70
0
 72
1
 73
0
 74
0
  7

 75
0
147
1.0
148
0.0
149
0.0
100
AcDbLayout
  1
Layout1
 70
0
 71
1
 10
0.0
 20
0.0
 11
210.0
 21
297.0
 12
0.0
 22
0.0
 32
0.0
 14
0.0
 24
0.0
 34
0.0
 15
0.0
 25
0.0
 35
0.0
146
0.0
 13
0.0
 23
0.0
 33
0.0
 16
1.0
 26
0.0
 36
0.0
 17
0.0
 27
1.0
 37
0.0
 76
0
330
211
345
0
346
0
  0
ENDSEC
  0
EOF
