999
DXF file: C:\Users\sesa63760\Dev\_Creo\CAD\MCADID0000553_3D-CAD\drw0001_3.dxf
999
Pro/ENGINEER 2019471 by Parametric Technology Corporation
  0
SECTION
  2
HEADER
  9
$ACADVER
  1
AC1024
  9
$DWGCODEPAGE
  3
ANSI_1252
  9
$EXTMAX
 10
232.329936816
 20
328.5809106398
 30
0.0
  9
$EXTMIN
 10
0.0
 20
0.0
 30
0.0
  9
$LIMMIN
 10
0.0
 20
0.0
  9
$LIMMAX
 10
232.329936816
 20
328.5809106398
  9
$VIEWCTR
 10
116.164968408
 20
164.2904553199
  9
$VIEWSIZE
 40
328.5809106398
  9
$CLAYER
  8
0
  9
$LTSCALE
 40
21.4186075084
  9
$CELTYPE
  6
BYLAYER
  9
$DIMSCALE
 40
1.0
  9
$DIMASZ
 40
2.7658325811
  9
$DIMEXO
 40
1.0
  9
$DIMDLI
 40
14.7983106421
  9
$DIMEXE
 40
1.0
  9
$DIMCEN
 40
3.5048630468
  9
$DIMLFAC
 40
1.0
  9
$DIMBLK
  1
_FILLED
  9
$DIMALT
 70
0
  9
$DIMALTF
 40
0.0393700787
  9
$DIMTXT
 40
3.8721656136
  9
$DIMTOL
 70
1
  9
$DIMLIM
 70
0
  9
$DIMTFAC
 40
1.0
  9
$DIMTP
 40
0.01
  9
$DIMTM
 40
0.01
  9
$DIMGAP
 40
0.625
  9
$DIMDSEP
 70
46
  9
$AUNITS
 70
0
  9
$PDMODE
 70
3
  9
$PDSIZE
 40
0.3125
  9
$HANDSEED
  5
255
  9
$TILEMODE
 70
1
  9
$MEASUREMENT
 70
1
  9
$INSUNITS
 70
4
  0
ENDSEC
  0
SECTION
  2
CLASSES
  0
CLASS
  1
ACDBDICTIONARYWDFLT
  2
AcDbDictionaryWithDefault
  3
AutoCAD 2000
 90
0
 91
1
280
0
281
0
  0
CLASS
  1
ACDBPLACEHOLDER
  2
AcDbPlaceHolder
  3
AutoCAD 2000
 90
0
 91
1
280
0
281
0
  0
CLASS
  1
LAYOUT
  2
AcDbLayout
  3
AutoCAD 2000
 90
0
 91
0
280
0
281
0
  0
ENDSEC
  0
SECTION
  2
TABLES
  0
TABLE
  2
VPORT
  5
8
100
AcDbSymbolTable
 70
2
  0
VPORT
  5
1F4
100
AcDbSymbolTableRecord
100
AcDbViewportTableRecord
  2
*ACTIVE
 70
0
 10
0.0
 20
0.0
 11
1.0
 21
1.0
 12
116.164968408
 22
164.2904553199
 13
0.0
 23
0.0
 14
1.0
 24
1.0
 15
0.0
 25
0.0
 16
0.0
 26
0.0
 36
1.0
 17
0.0
 27
0.0
 37
0.0
 40
328.5809106398
 41
0.7070707071
 42
50.0
 43
0.0
 44
0.0
 50
0.0
 51
0.0
 71
0
 72
100
 73
1
 74
1
 75
0
 76
0
 77
0
 78
0
  0
ENDTAB
  0
TABLE
  2
LTYPE
  5
5
100
AcDbSymbolTable
 70
6
  0
LTYPE
  5
14
100
AcDbSymbolTableRecord
100
AcDbLinetypeTableRecord
  2
BYBLOCK
 70
0
  3

 72
65
 73
0
 40
0.0
  0
LTYPE
  5
15
100
AcDbSymbolTableRecord
100
AcDbLinetypeTableRecord
  2
BYLAYER
 70
0
  3

 72
65
 73
0
 40
0.0
  0
LTYPE
  5
16
100
AcDbSymbolTableRecord
100
AcDbLinetypeTableRecord
  2
CONTINUOUS
 70
64
  3
Solid line
 72
65
 73
0
 40
0.0
  0
LTYPE
  5
1F5
100
AcDbSymbolTableRecord
100
AcDbLinetypeTableRecord
  2
CENTER
 70
64
  3
____ _ ____ _ ____ _ ____ _ ____ _ ____ _ ____
 72
65
 73
4
 40
0.6
 49
0.375
 74
0
 49
-0.075
 74
0
 49
0.075
 74
0
 49
-0.075
 74
0
  0
LTYPE
  5
1F6
100
AcDbSymbolTableRecord
100
AcDbLinetypeTableRecord
  2
HIDDEN
 70
64
  3
- - - - - - - - - - - - - - - - - - - -
 72
65
 73
2
 40
0.2
 49
0.1
 74
0
 49
-0.1
 74
0
  0
LTYPE
  5
1F7
100
AcDbSymbolTableRecord
100
AcDbLinetypeTableRecord
  2
PHANTOM
 70
64
  3
_____ _ _ _____ _ _ _____ _ _ _____
 72
65
 73
6
 40
0.8
 49
0.45
 74
0
 49
-0.05
 74
0
 49
0.1
 74
0
 49
-0.05
 74
0
 49
0.1
 74
0
 49
-0.05
 74
0
  0
LTYPE
  5
1F8
100
AcDbSymbolTableRecord
100
AcDbLinetypeTableRecord
  2
DOT
 70
64
  3
. . . . . . . . . . . . . . . . . . . .
 72
65
 73
2
 40
0.2
 49
0.1
 74
0
 49
-0.1
 74
0
  0
LTYPE
  5
1F9
100
AcDbSymbolTableRecord
100
AcDbLinetypeTableRecord
  2
DASHED
 70
64
  3
- - - - - - - - - - - - - - - - - - - -
 72
65
 73
2
 40
0.2
 49
0.1
 74
0
 49
-0.1
 74
0
  0
ENDTAB
  0
TABLE
  2
LAYER
  5
2
100
AcDbSymbolTable
 70
36
  0
LAYER
  5
10
100
AcDbSymbolTableRecord
100
AcDbLayerTableRecord
  2
0
 70
0
 62
7
  6
CONTINUOUS
370
-3
390
F
  0
LAYER
  5
1FA
100
AcDbSymbolTableRecord
100
AcDbLayerTableRecord
  2
DEFAULT_1
 70
0
 62
7
  6
CENTER
370
-3
390
F
  0
LAYER
  5
1FB
100
AcDbSymbolTableRecord
100
AcDbLayerTableRecord
  2
DEFAULT_2
 70
0
 62
8
  6
HIDDEN
370
-3
390
F
  0
LAYER
  5
1FC
100
AcDbSymbolTableRecord
100
AcDbLayerTableRecord
  2
DEFAULT_3
 70
0
 62
7
  6
PHANTOM
370
-3
390
F
  0
LAYER
  5
1FD
100
AcDbSymbolTableRecord
100
AcDbLayerTableRecord
  2
00_COMPONENTS
 70
0
 62
7
  6
CONTINUOUS
370
-3
390
F
  0
LAYER
  5
1FE
100
AcDbSymbolTableRecord
100
AcDbLayerTableRecord
  2
01_1_DEFAULT_DATUMS
 70
0
 62
7
  6
CONTINUOUS
370
-3
390
F
  0
LAYER
  5
1FF
100
AcDbSymbolTableRecord
100
AcDbLayerTableRecord
  2
01_PLANES
 70
0
 62
7
  6
CONTINUOUS
370
-3
390
F
  0
LAYER
  5
200
100
AcDbSymbolTableRecord
100
AcDbLayerTableRecord
  2
02_COORD_SYS
 70
0
 62
7
  6
CONTINUOUS
370
-3
390
F
  0
LAYER
  5
201
100
AcDbSymbolTableRecord
100
AcDbLayerTableRecord
  2
03_AXES
 70
0
 62
7
  6
CONTINUOUS
370
-3
390
F
  0
LAYER
  5
202
100
AcDbSymbolTableRecord
100
AcDbLayerTableRecord
  2
04_POINTS
 70
0
 62
7
  6
CONTINUOUS
370
-3
390
F
  0
LAYER
  5
203
100
AcDbSymbolTableRecord
100
AcDbLayerTableRecord
  2
05_CURVES
 70
0
 62
7
  6
CONTINUOUS
370
-3
390
F
  0
LAYER
  5
204
100
AcDbSymbolTableRecord
100
AcDbLayerTableRecord
  2
06_SURFS
 70
0
 62
7
  6
CONTINUOUS
370
-3
390
F
  0
LAYER
  5
205
100
AcDbSymbolTableRecord
100
AcDbLayerTableRecord
  2
07_COSMETICS
 70
0
 62
7
  6
CONTINUOUS
370
-3
390
F
  0
LAYER
  5
206
100
AcDbSymbolTableRecord
100
AcDbLayerTableRecord
  2
10_NOTES
 70
0
 62
7
  6
CONTINUOUS
370
-3
390
F
  0
LAYER
  5
207
100
AcDbSymbolTableRecord
100
AcDbLayerTableRecord
  2
11_NOTES_PUB
 70
0
 62
7
  6
CONTINUOUS
370
-3
390
F
  0
LAYER
  5
208
100
AcDbSymbolTableRecord
100
AcDbLayerTableRecord
  2
13_REF_GTOL
 70
0
 62
7
  6
CONTINUOUS
370
-3
390
F
  0
LAYER
  5
209
100
AcDbSymbolTableRecord
100
AcDbLayerTableRecord
  2
16_MISC
 70
0
 62
7
  6
CONTINUOUS
370
-3
390
F
  0
LAYER
  5
20A
100
AcDbSymbolTableRecord
100
AcDbLayerTableRecord
  2
17_NO_PRINT
 70
0
 62
7
  6
CONTINUOUS
370
-3
390
F
  0
LAYER
  5
20B
100
AcDbSymbolTableRecord
100
AcDbLayerTableRecord
  2
18_DATUM_CAMS_JOINTS
 70
0
 62
7
  6
CONTINUOUS
370
-3
390
F
  0
LAYER
  5
20C
100
AcDbSymbolTableRecord
100
AcDbLayerTableRecord
  2
19_DATUM_FUNCTIONAL
 70
0
 62
7
  6
CONTINUOUS
370
-3
390
F
  0
LAYER
  5
20D
100
AcDbSymbolTableRecord
100
AcDbLayerTableRecord
  2
20_DATUM_KINEMATIC_SCHEME
 70
0
 62
7
  6
CONTINUOUS
370
-3
390
F
  0
ENDTAB
  0
TABLE
  2
STYLE
  5
3
100
AcDbSymbolTable
 70
1
  0
STYLE
  5
11
100
AcDbSymbolTableRecord
100
AcDbTextStyleTableRecord
  2
STANDARD
 70
0
 40
0.0
 41
0.8
 50
0.0
 71
0
 42
0.2
  3
txt
  4

  0
STYLE
  5
20E
100
AcDbSymbolTableRecord
100
AcDbTextStyleTableRecord
  2
TEXTSTYLE_1
 70
0
 40
0.0
 41
0.8
 50
0.0
 71
0
 42
0.2
  3
gdt
  4

  0
ENDTAB
  0
TABLE
  2
VIEW
  5
6
100
AcDbSymbolTable
 70
0
  0
ENDTAB
  0
TABLE
  2
UCS
  5
7
100
AcDbSymbolTable
 70
0
  0
ENDTAB
  0
TABLE
  2
APPID
  5
9
100
AcDbSymbolTable
 70
1
  0
APPID
  5
20F
100
AcDbSymbolTableRecord
100
AcDbRegAppTableRecord
  2
ACAD
 70
0
  0
ENDTAB
  0
TABLE
  2
BLOCK_RECORD
  5
1
100
AcDbSymbolTable
 70
0
  0
BLOCK_RECORD
  5
210
100
AcDbSymbolTableRecord
100
AcDbBlockTableRecord
  2
*Model_Space
  0
BLOCK_RECORD
  5
211
100
AcDbSymbolTableRecord
100
AcDbBlockTableRecord
  2
*Paper_Space
  0
BLOCK_RECORD
  5
212
100
AcDbSymbolTableRecord
100
AcDbBlockTableRecord
  2
_FILLED
  0
ENDTAB
  0
TABLE
  2
DIMSTYLE
  5
A
100
AcDbSymbolTable
 70
1
100
AcDbDimStyleTable
 71
0
  0
DIMSTYLE
105
213
100
AcDbSymbolTableRecord
100
AcDbDimStyleTableRecord
  2
STANDARD
 70
0
  3

  4

 40
1.0
 41
2.7658325811
 42
1.0
 43
0.38
 44
1.0
 45
0.0
 46
0.0
 47
0.01
 48
0.01
140
3.8721656136
141
0.09
142
0.0
143
25.4
144
1.0
145
0.0
146
1.0
147
0.625
 71
1
 72
0
 73
0
 74
0
 75
0
 76
0
 77
1
 78
8
 79
2
170
0
171
1
172
0
173
0
174
0
175
0
176
0
177
0
178
0
270
2
179
2
271
2
272
2
273
2
274
2
275
0
280
0
281
0
282
0
283
1
284
8
285
0
286
0
287
3
288
0
340
11
278
46
341
212
342
212
343
212
344
212
  0
ENDTAB
  0
ENDSEC
  0
SECTION
  2
BLOCKS
  0
BLOCK
  5
20
100
AcDbEntity
  8
0
100
AcDbBlockBegin
  2
*Model_Space
 70
0
 10
0.0
 20
0.0
 30
0.0
  3
*Model_Space
  1

  0
ENDBLK
  5
21
100
AcDbEntity
  8
0
100
AcDbBlockEnd
  0
BLOCK
  5
1C
100
AcDbEntity
  8
0
100
AcDbBlockBegin
  2
*Paper_Space
 70
0
 10
0.0
 20
0.0
 30
0.0
  3
*Paper_Space
  1

  0
ENDBLK
  5
1D
100
AcDbEntity
  8
0
100
AcDbBlockEnd
  0
BLOCK
  5
214
100
AcDbEntity
  8
0
100
AcDbBlockBegin
  2
_FILLED
 70
64
 10
0.0
 20
0.0
  3
_FILLED
  1

  0
SOLID
  5
215
100
AcDbEntity
  8
0
  6
BYBLOCK
 62
0
100
AcDbTrace
 10
0.0
 20
0.0
 11
-1.0
 21
0.25
 12
-1.0
 22
-0.25
 13
-1.0
 23
-0.25
  0
ENDBLK
  5
216
100
AcDbEntity
  8
0
  6
BYBLOCK
 62
0
100
AcDbBlockEnd
  0
ENDSEC
  0
SECTION
  2
ENTITIES
  0
LINE
  5
217
100
AcDbEntity
  8
0
100
AcDbLine
 62
7
  6
CONTINUOUS
 10
27.4804951722
 20
190.9448149543
 11
27.4804951722
 21
133.7448149543
  0
LINE
  5
218
100
AcDbEntity
  8
0
100
AcDbLine
 62
7
  6
CONTINUOUS
 10
30.5926543973
 20
136.7448149543
 11
30.5926511156
 21
187.9611606846
  0
LINE
  5
219
100
AcDbEntity
  8
0
100
AcDbLine
 62
7
  6
CONTINUOUS
 10
34.9804951722
 20
190.9448149543
 11
34.9804951722
 21
133.7448149543
  0
LINE
  5
21A
100
AcDbEntity
  8
0
100
AcDbLine
 62
7
  6
CONTINUOUS
 10
43.9304951722
 20
192.9448149543
 11
43.9304951722
 21
190.9448149543
  0
LINE
  5
21B
100
AcDbEntity
  8
0
100
AcDbLine
 62
7
  6
CONTINUOUS
 10
48.7304951722
 20
190.9448149543
 11
48.7304951722
 21
192.9448149543
  0
LINE
  5
21C
100
AcDbEntity
  8
0
100
AcDbLine
 62
7
  6
CONTINUOUS
 10
50.2304951722
 20
194.4448149543
 11
50.2304951722
 21
192.9448149543
  0
LINE
  5
21D
100
AcDbEntity
  8
0
100
AcDbLine
 62
7
  6
CONTINUOUS
 10
50.7304951722
 20
196.4448149543
 11
50.7304951722
 21
194.4448149543
  0
LINE
  5
21E
100
AcDbEntity
  8
0
100
AcDbLine
 62
7
  6
CONTINUOUS
 10
57.7304951722
 20
194.4448149543
 11
57.7304951722
 21
196.4448149543
  0
LINE
  5
21F
100
AcDbEntity
  8
0
100
AcDbLine
 62
7
  6
CONTINUOUS
 10
58.2304951722
 20
192.9448149543
 11
58.2304951722
 21
194.4448149543
  0
LINE
  5
220
100
AcDbEntity
  8
0
100
AcDbLine
 62
7
  6
CONTINUOUS
 10
62.9804951722
 20
196.4448149543
 11
62.7304951722
 21
195.0269944994
  0
LINE
  5
221
100
AcDbEntity
  8
0
100
AcDbLine
 62
7
  6
CONTINUOUS
 10
62.7304951722
 20
192.9448149543
 11
62.7304951722
 21
195.0269944994
  0
LINE
  5
222
100
AcDbEntity
  8
0
100
AcDbLine
 62
7
  6
CONTINUOUS
 10
72.7304951722
 20
192.9448149543
 11
72.7304951722
 21
195.0269944994
  0
LINE
  5
223
100
AcDbEntity
  8
0
100
AcDbLine
 62
7
  6
CONTINUOUS
 10
76.4804951722
 20
196.4448149543
 11
76.2304951722
 21
195.0269944994
  0
LINE
  5
224
100
AcDbEntity
  8
0
100
AcDbLine
 62
7
  6
CONTINUOUS
 10
76.2304951722
 20
192.9448149543
 11
76.2304951722
 21
195.0269944994
  0
LINE
  5
225
100
AcDbEntity
  8
0
100
AcDbLine
 62
7
  6
CONTINUOUS
 10
72.7304951722
 20
195.0269944994
 11
72.4804951722
 21
196.4448149543
  0
LINE
  5
226
100
AcDbEntity
  8
0
100
AcDbLine
 62
7
  6
CONTINUOUS
 10
81.4804951722
 20
190.9448149543
 11
81.4804951722
 21
133.7448149543
  0
LINE
  5
227
100
AcDbEntity
  8
0
100
AcDbLine
 62
7
  6
CONTINUOUS
 10
86.2304951722
 20
192.9448149543
 11
86.2304951722
 21
195.0269944994
  0
LINE
  5
228
100
AcDbEntity
  8
0
100
AcDbLine
 62
7
  6
CONTINUOUS
 10
86.7304951722
 20
192.9448149543
 11
86.7304951722
 21
190.9448149543
  0
LINE
  5
229
100
AcDbEntity
  8
0
100
AcDbLine
 62
7
  6
CONTINUOUS
 10
91.4804951722
 20
190.9448149543
 11
91.4804951722
 21
133.7448149543
  0
LINE
  5
22A
100
AcDbEntity
  8
0
100
AcDbLine
 62
7
  6
CONTINUOUS
 10
91.5304951722
 20
190.9448149543
 11
91.5304951722
 21
192.9448149543
  0
LINE
  5
22B
100
AcDbEntity
  8
0
100
AcDbLine
 62
7
  6
CONTINUOUS
 10
27.4805015529
 20
133.7448149543
 11
191.2804951722
 21
133.7448149543
  0
LINE
  5
22C
100
AcDbEntity
  8
0
100
AcDbLine
 62
7
  6
CONTINUOUS
 10
30.5926543973
 20
136.7448149543
 11
125.3803076319
 21
136.7448149543
  0
LINE
  5
22D
100
AcDbEntity
  8
0
100
AcDbLine
 62
7
  6
CONTINUOUS
 10
191.2804951722
 20
137.3448149543
 11
192.8804951722
 21
137.3448149543
  0
LINE
  5
22E
100
AcDbEntity
  8
0
100
AcDbLine
 62
7
  6
CONTINUOUS
 10
185.4804951722
 20
137.7448149543
 11
131.6804951722
 21
137.7448149543
  0
LINE
  5
22F
100
AcDbEntity
  8
0
100
AcDbLine
 62
7
  6
CONTINUOUS
 10
131.6804951722
 20
138.7448149543
 11
191.2804951722
 21
138.7448149543
  0
LINE
  5
230
100
AcDbEntity
  8
0
100
AcDbLine
 62
7
  6
CONTINUOUS
 10
86.2304951722
 20
195.0269944994
 11
85.9804951722
 21
196.4448149543
  0
LINE
  5
231
100
AcDbEntity
  8
0
100
AcDbLine
 62
7
  6
CONTINUOUS
 10
131.6804951722
 20
143.3448149543
 11
185.4804951722
 21
143.3448149543
  0
LINE
  5
232
100
AcDbEntity
  8
0
100
AcDbLine
 62
7
  6
CONTINUOUS
 10
185.4804951722
 20
147.3448149543
 11
131.6804951722
 21
147.3448149543
  0
LINE
  5
233
100
AcDbEntity
  8
0
100
AcDbLine
 62
7
  6
CONTINUOUS
 10
192.8804951722
 20
157.8448149543
 11
211.2804951722
 21
157.8448149543
  0
LINE
  5
234
100
AcDbEntity
  8
0
100
AcDbLine
 62
7
  6
CONTINUOUS
 10
114.4804951722
 20
190.9448149543
 11
114.4804951722
 21
133.7448149543
  0
LINE
  5
235
100
AcDbEntity
  8
0
100
AcDbLine
 62
7
  6
CONTINUOUS
 10
125.3803076319
 20
190.9448149543
 11
125.3803076319
 21
187.9448149543
  0
LINE
  5
236
100
AcDbEntity
  8
0
100
AcDbLine
 62
7
  6
CONTINUOUS
 10
125.3803076319
 20
136.7448149543
 11
125.3803076319
 21
133.7448149543
  0
LINE
  5
237
100
AcDbEntity
  8
0
100
AcDbLine
 62
7
  6
CONTINUOUS
 10
192.8804951722
 20
166.8448149543
 11
211.2804951722
 21
166.8448149543
  0
LINE
  5
238
100
AcDbEntity
  8
0
100
AcDbLine
 62
7
  6
CONTINUOUS
 10
131.6804951722
 20
133.7448149543
 11
131.6804951722
 21
190.9448149543
  0
LINE
  5
239
100
AcDbEntity
  8
0
100
AcDbLine
 62
7
  6
CONTINUOUS
 10
131.6804951722
 20
177.3448149543
 11
185.4804951722
 21
177.3448149543
  0
LINE
  5
23A
100
AcDbEntity
  8
0
100
AcDbLine
 62
7
  6
CONTINUOUS
 10
185.4804951722
 20
181.3448149543
 11
131.6804951722
 21
181.3448149543
  0
LINE
  5
23B
100
AcDbEntity
  8
0
100
AcDbLine
 62
7
  6
CONTINUOUS
 10
131.6804951722
 20
179.0350042893
 11
125.3803076319
 21
187.9448149543
  0
LINE
  5
23C
100
AcDbEntity
  8
0
100
AcDbLine
 62
7
  6
CONTINUOUS
 10
125.3803076319
 20
136.7448149543
 11
131.6804951722
 21
145.6546256193
  0
LINE
  5
23D
100
AcDbEntity
  8
0
100
AcDbLine
 62
7
  6
CONTINUOUS
 10
131.6804951722
 20
185.9448149543
 11
191.2804951722
 21
185.9448149543
  0
LINE
  5
23E
100
AcDbEntity
  8
0
100
AcDbLine
 62
7
  6
CONTINUOUS
 10
131.6804951722
 20
186.9448149543
 11
185.4804951722
 21
186.9448149543
  0
LINE
  5
23F
100
AcDbEntity
  8
0
100
AcDbLine
 62
7
  6
CONTINUOUS
 10
191.2804951722
 20
187.3448149543
 11
192.8804951722
 21
187.3448149543
  0
LINE
  5
240
100
AcDbEntity
  8
0
100
AcDbLine
 62
7
  6
CONTINUOUS
 10
30.5926543973
 20
187.9448149543
 11
125.3803076319
 21
187.9448149543
  0
LINE
  5
241
100
AcDbEntity
  8
0
100
AcDbLine
 62
7
  6
CONTINUOUS
 10
27.4805015529
 20
190.9448149543
 11
191.2804951722
 21
190.9448149543
  0
LINE
  5
242
100
AcDbEntity
  8
0
100
AcDbLine
 62
7
  6
CONTINUOUS
 10
43.9304951722
 20
192.9448149543
 11
91.5304951722
 21
192.9448149543
  0
LINE
  5
243
100
AcDbEntity
  8
0
100
AcDbLine
 62
7
  6
CONTINUOUS
 10
50.2304951722
 20
194.4448149543
 11
58.2304951722
 21
194.4448149543
  0
LINE
  5
244
100
AcDbEntity
  8
0
100
AcDbLine
 62
7
  6
CONTINUOUS
 10
50.7304951722
 20
196.4448149543
 11
57.7304951722
 21
196.4448149543
  0
LINE
  5
245
100
AcDbEntity
  8
0
100
AcDbLine
 62
7
  6
CONTINUOUS
 10
62.9804951722
 20
196.4448149543
 11
72.4804951722
 21
196.4448149543
  0
LINE
  5
246
100
AcDbEntity
  8
0
100
AcDbLine
 62
7
  6
CONTINUOUS
 10
76.4804951722
 20
196.4448149543
 11
85.9804951722
 21
196.4448149543
  0
LINE
  5
247
100
AcDbEntity
  8
0
100
AcDbLine
 62
7
  6
CONTINUOUS
 10
172.6804951722
 20
190.9448149543
 11
172.6804951722
 21
133.7448149543
  0
LINE
  5
248
100
AcDbEntity
  8
0
100
AcDbLine
 62
7
  6
CONTINUOUS
 10
185.4804951722
 20
133.7448149543
 11
185.4804951722
 21
147.3448149543
  0
LINE
  5
249
100
AcDbEntity
  8
0
100
AcDbLine
 62
7
  6
CONTINUOUS
 10
185.4804951722
 20
177.3448149543
 11
185.4804951722
 21
190.9448149543
  0
LINE
  5
24A
100
AcDbEntity
  8
0
100
AcDbLine
 62
7
  6
CONTINUOUS
 10
191.2804951722
 20
190.9448149543
 11
191.2804951722
 21
133.7448149543
  0
LINE
  5
24B
100
AcDbEntity
  8
0
100
AcDbLine
 62
7
  6
CONTINUOUS
 10
192.8804951722
 20
187.3448010908
 11
192.8804951722
 21
137.3448288178
  0
LINE
  5
24C
100
AcDbEntity
  8
0
100
AcDbLine
 62
7
  6
CONTINUOUS
 10
211.2804951722
 20
166.8448100441
 11
211.2804951722
 21
157.8448198645
  0
SPLINE
  5
24D
100
AcDbEntity
  8
0
100
AcDbSpline
 62
7
  6
CONTINUOUS
 70
0
 71
3
 72
17
 73
13
 74
0
 42
0.0000001
 43
0.0000001
 44
0.0000000001
 40
0.0
 40
0.0
 40
0.0
 40
0.0
 40
0.375024486
 40
0.5442886237
 40
0.6927843205
 40
0.7575315424
 40
0.8151825806
 40
0.8653263089
 40
0.9076360627
 40
0.9419278884
 40
0.9682497617
 40
1.0
 40
1.0
 40
1.0
 40
1.0
 10
30.5926511156
 20
187.9611606846
 30
0.0
 10
30.5923483843
 20
188.3438824464
 30
0.0
 10
30.5771638545
 20
188.8995862327
 30
0.0
 10
30.5234700346
 20
189.604646712
 30
0.0
 10
30.4789303461
 20
189.9926049302
 30
0.0
 10
30.436214631
 20
190.2657953539
 30
0.0
 10
30.4034138485
 20
190.4387874746
 30
0.0
 10
30.3686156669
 20
190.5881757417
 30
0.0
 10
30.3328547654
 20
190.7121118365
 30
0.0
 10
30.2948644989
 20
190.8115362278
 30
0.0
 10
30.2538120756
 20
190.8925250741
 30
0.0
 10
30.2049927171
 20
190.9448149543
 30
0.0
 10
30.1725908037
 20
190.9448149543
 30
0.0
  0
SPLINE
  5
24E
100
AcDbEntity
  8
0
100
AcDbSpline
 62
7
  6
CONTINUOUS
 70
0
 71
3
 72
17
 73
13
 74
0
 42
0.0000001
 43
0.0000001
 44
0.0000000001
 40
0.0
 40
0.0
 40
0.0
 40
0.0
 40
0.0317290024
 40
0.0580711894
 40
0.0924005544
 40
0.134758777
 40
0.1849583689
 40
0.242666752
 40
0.3074701227
 40
0.4560532341
 40
0.6253385607
 40
1.0
 40
1.0
 40
1.0
 40
1.0
 10
30.1725908037
 20
133.7448149543
 30
0.0
 10
30.2051436104
 20
133.7448149543
 30
0.0
 10
30.2541295751
 20
133.7975374912
 30
0.0
 10
30.2952876812
 20
133.8790247158
 30
0.0
 10
30.3333957642
 20
133.9791389319
 30
0.0
 10
30.3692554518
 20
134.1039088179
 30
0.0
 10
30.4041379814
 20
134.2542882641
 30
0.0
 10
30.4370038751
 20
134.4283992976
 30
0.0
 10
30.4797698661
 20
134.7032820063
 30
0.0
 10
30.5242979298
 20
135.0935060185
 30
0.0
 10
30.57777948
 20
135.8020999125
 30
0.0
 10
30.5926543973
 20
136.3604258936
 30
0.0
 10
30.5926543973
 20
136.7448149543
 30
0.0
  0
SPLINE
  5
24F
100
AcDbEntity
  8
0
100
AcDbSpline
 62
7
  6
CONTINUOUS
 70
0
 71
3
 72
27
 73
23
 74
0
 42
0.0000001
 43
0.0000001
 44
0.0000000001
 40
0.0
 40
0.0
 40
0.0
 40
0.0
 40
0.0647901901
 40
0.1293282787
 40
0.1935222571
 40
0.2572246119
 40
0.3201838013
 40
0.3819581792
 40
0.4122378005
 40
0.4419809843
 40
0.4711770688
 40
0.4999990467
 40
0.5288209372
 40
0.5580172668
 40
0.5877606831
 40
0.6180403915
 40
0.6798148764
 40
0.7427746508
 40
0.8064773035
 40
0.8706714655
 40
0.9352097075
 40
1.0
 40
1.0
 40
1.0
 40
1.0
 10
66.9192546691
 20
192.9467747868
 30
0.0
 10
66.8724260952
 20
193.0582058959
 30
0.0
 10
66.7760857899
 20
193.2794489911
 30
0.0
 10
66.6213397254
 20
193.6057215367
 30
0.0
 10
66.4540573874
 20
193.9235085462
 30
0.0
 10
66.2706318671
 20
194.2290187611
 30
0.0
 10
66.0659349797
 20
194.5153109413
 30
0.0
 10
65.8694814278
 20
194.7295257605
 30
0.0
 10
65.6914283568
 20
194.8715328585
 30
0.0
 10
65.547578915
 20
194.9566492803
 30
0.0
 10
65.3927896289
 20
195.0134612199
 30
0.0
 10
65.2304328835
 20
195.0337251329
 30
0.0
 10
65.0680798792
 20
195.0134303717
 30
0.0
 10
64.9132989046
 20
194.9565949321
 30
0.0
 10
64.7694590772
 20
194.8714606006
 30
0.0
 10
64.5914190261
 20
194.7294364418
 30
0.0
 10
64.394974224
 20
194.5152124345
 30
0.0
 10
64.1902891217
 20
194.2289094614
 30
0.0
 10
64.0068694037
 20
193.9233936862
 30
0.0
 10
63.8395918898
 20
193.6056027668
 30
0.0
 10
63.6848501386
 20
193.2793273121
 30
0.0
 10
63.5885112107
 20
193.058083093
 30
0.0
 10
63.5416839625
 20
192.9466512196
 30
0.0
  0
SPLINE
  5
250
100
AcDbEntity
  8
0
100
AcDbSpline
 62
7
  6
CONTINUOUS
 70
0
 71
3
 72
27
 73
23
 74
0
 42
0.0000001
 43
0.0000001
 44
0.0000000001
 40
0.0
 40
0.0
 40
0.0
 40
0.0
 40
0.0647901901
 40
0.1293282787
 40
0.1935222571
 40
0.2572246119
 40
0.3201838013
 40
0.3819581792
 40
0.4122378005
 40
0.4419809843
 40
0.4711770688
 40
0.4999990467
 40
0.5288209372
 40
0.5580172668
 40
0.5877606831
 40
0.6180403915
 40
0.6798148764
 40
0.7427746508
 40
0.8064773035
 40
0.8706714655
 40
0.9352097075
 40
1.0
 40
1.0
 40
1.0
 40
1.0
 10
80.4192546691
 20
192.9467747868
 30
0.0
 10
80.3724260952
 20
193.0582058959
 30
0.0
 10
80.2760857899
 20
193.2794489911
 30
0.0
 10
80.1213397254
 20
193.6057215367
 30
0.0
 10
79.9540573874
 20
193.9235085462
 30
0.0
 10
79.7706318671
 20
194.2290187611
 30
0.0
 10
79.5659349797
 20
194.5153109413
 30
0.0
 10
79.3694814278
 20
194.7295257605
 30
0.0
 10
79.1914283568
 20
194.8715328585
 30
0.0
 10
79.047578915
 20
194.9566492803
 30
0.0
 10
78.8927896289
 20
195.0134612199
 30
0.0
 10
78.7304328835
 20
195.0337251329
 30
0.0
 10
78.5680798792
 20
195.0134303717
 30
0.0
 10
78.4132989046
 20
194.9565949321
 30
0.0
 10
78.2694590772
 20
194.8714606006
 30
0.0
 10
78.0914190261
 20
194.7294364418
 30
0.0
 10
77.894974224
 20
194.5152124345
 30
0.0
 10
77.6902891217
 20
194.2289094614
 30
0.0
 10
77.5068694037
 20
193.9233936862
 30
0.0
 10
77.3395918898
 20
193.6056027668
 30
0.0
 10
77.1848501386
 20
193.2793273121
 30
0.0
 10
77.0885112107
 20
193.058083093
 30
0.0
 10
77.0416839625
 20
192.9466512196
 30
0.0
  0
SPLINE
  5
251
100
AcDbEntity
  8
0
100
AcDbSpline
 62
7
  6
CONTINUOUS
 70
0
 71
3
 72
27
 73
23
 74
0
 42
0.0000001
 43
0.0000001
 44
0.0000000001
 40
0.0
 40
0.0
 40
0.0
 40
0.0
 40
0.0647901901
 40
0.1293282787
 40
0.1935222571
 40
0.2572246119
 40
0.3201838013
 40
0.3819581792
 40
0.4122378005
 40
0.4419809843
 40
0.4711770688
 40
0.4999990467
 40
0.5288209372
 40
0.5580172668
 40
0.5877606831
 40
0.6180403915
 40
0.6798148764
 40
0.7427746508
 40
0.8064773035
 40
0.8706714655
 40
0.9352097075
 40
1.0
 40
1.0
 40
1.0
 40
1.0
 10
71.9192546691
 20
192.9467747868
 30
0.0
 10
71.8724260952
 20
193.0582058959
 30
0.0
 10
71.7760857899
 20
193.2794489911
 30
0.0
 10
71.6213397254
 20
193.6057215367
 30
0.0
 10
71.4540573874
 20
193.9235085462
 30
0.0
 10
71.2706318671
 20
194.2290187611
 30
0.0
 10
71.0659349797
 20
194.5153109413
 30
0.0
 10
70.8694814278
 20
194.7295257605
 30
0.0
 10
70.6914283568
 20
194.8715328585
 30
0.0
 10
70.547578915
 20
194.9566492803
 30
0.0
 10
70.3927896289
 20
195.0134612199
 30
0.0
 10
70.2304328835
 20
195.0337251329
 30
0.0
 10
70.0680798792
 20
195.0134303717
 30
0.0
 10
69.9132989046
 20
194.9565949321
 30
0.0
 10
69.7694590772
 20
194.8714606006
 30
0.0
 10
69.5914190261
 20
194.7294364418
 30
0.0
 10
69.394974224
 20
194.5152124345
 30
0.0
 10
69.1902891217
 20
194.2289094614
 30
0.0
 10
69.0068694037
 20
193.9233936862
 30
0.0
 10
68.8395918898
 20
193.6056027668
 30
0.0
 10
68.6848501386
 20
193.2793273121
 30
0.0
 10
68.5885112107
 20
193.058083093
 30
0.0
 10
68.5416839625
 20
192.9466512196
 30
0.0
  0
SPLINE
  5
252
100
AcDbEntity
  8
0
100
AcDbSpline
 62
7
  6
CONTINUOUS
 70
0
 71
3
 72
27
 73
23
 74
0
 42
0.0000001
 43
0.0000001
 44
0.0000000001
 40
0.0
 40
0.0
 40
0.0
 40
0.0
 40
0.0647901901
 40
0.1293282787
 40
0.1935222571
 40
0.2572246119
 40
0.3201838013
 40
0.3819581792
 40
0.4122378005
 40
0.4419809843
 40
0.4711770688
 40
0.4999990467
 40
0.5288209372
 40
0.5580172668
 40
0.5877606831
 40
0.6180403915
 40
0.6798148764
 40
0.7427746508
 40
0.8064773035
 40
0.8706714655
 40
0.9352097075
 40
1.0
 40
1.0
 40
1.0
 40
1.0
 10
85.4192546691
 20
192.9467747868
 30
0.0
 10
85.3724260952
 20
193.0582058959
 30
0.0
 10
85.2760857899
 20
193.2794489911
 30
0.0
 10
85.1213397254
 20
193.6057215367
 30
0.0
 10
84.9540573874
 20
193.9235085462
 30
0.0
 10
84.7706318671
 20
194.2290187611
 30
0.0
 10
84.5659349797
 20
194.5153109413
 30
0.0
 10
84.3694814278
 20
194.7295257605
 30
0.0
 10
84.1914283568
 20
194.8715328585
 30
0.0
 10
84.047578915
 20
194.9566492803
 30
0.0
 10
83.8927896289
 20
195.0134612199
 30
0.0
 10
83.7304328835
 20
195.0337251329
 30
0.0
 10
83.5680798792
 20
195.0134303717
 30
0.0
 10
83.4132989046
 20
194.9565949321
 30
0.0
 10
83.2694590772
 20
194.8714606006
 30
0.0
 10
83.0914190261
 20
194.7294364418
 30
0.0
 10
82.894974224
 20
194.5152124345
 30
0.0
 10
82.6902891217
 20
194.2289094614
 30
0.0
 10
82.5068694037
 20
193.9233936862
 30
0.0
 10
82.3395918898
 20
193.6056027668
 30
0.0
 10
82.1848501386
 20
193.2793273121
 30
0.0
 10
82.0885112107
 20
193.058083093
 30
0.0
 10
82.0416839625
 20
192.9466512196
 30
0.0
  0
ENDSEC
  0
SECTION
  2
OBJECTS
  0
DICTIONARY
  5
C
100
AcDbDictionary
280
0
281
1
  3
ACAD_GROUP
350
D
  3
ACAD_MLINESTYLE
350
17
  3
ACAD_LAYOUT
350
1A
  3
ACAD_PLOTSETTINGS
350
19
  3
ACAD_PLOTSTYLENAME
350
E
  0
DICTIONARY
  5
D
102
{ACAD_REACTORS
330
C
102
}
100
AcDbDictionary
280
0
281
1
  0
ACDBDICTIONARYWDFLT
  5
E
102
{ACAD_REACTORS
330
C
102
}
100
AcDbDictionary
281
1
  3
Normal
350
F
100
AcDbDictionaryWithDefault
340
F
  0
DICTIONARY
  5
17
102
{ACAD_REACTORS
330
C
102
}
100
AcDbDictionary
280
0
281
1
  3
Standard
350
18
  0
DICTIONARY
  5
19
102
{ACAD_REACTORS
330
C
102
}
100
AcDbDictionary
281
1
  0
DICTIONARY
  5
1A
102
{ACAD_REACTORS
330
C
102
}
100
AcDbDictionary
281
1
  3
Model
350
253
  3
Layout1
350
254
  0
ACDBPLACEHOLDER
  5
F
102
{ACAD_REACTORS
330
E
102
}
  0
MLINESTYLE
  5
18
102
{ACAD_REACTORS
330
17
102
}
100
AcDbMlineStyle
  2
STANDARD
 70
0
  3

 62
256
 51
90.0
 52
90.0
 71
2
 49
0.5
 62
256
  6
BYLAYER
 49
-0.5
 62
256
  6
BYLAYER
  0
LAYOUT
  5
253
102
{ACAD_REACTORS
330
1A
102
}
100
AcDbPlotSettings
  1

  2
none_device
  4

  6

 40
0.0
 41
0.0
 42
0.0
 43
0.0
 44
210.0
 45
297.0
 46
0.0
 47
0.0
 48
0.0
 49
0.0
140
0.0
141
0.0
142
1.0
143
1.0
 70
1024
 72
1
 73
0
 74
0
  7

 75
0
147
1.0
148
0.0
149
0.0
100
AcDbLayout
  1
Model
 70
0
 71
0
 10
0.0
 20
0.0
 11
210.0
 21
297.0
 12
0.0
 22
0.0
 32
0.0
 14
0.0
 24
0.0
 34
0.0
 15
0.0
 25
0.0
 35
0.0
146
0.0
 13
0.0
 23
0.0
 33
0.0
 16
1.0
 26
0.0
 36
0.0
 17
0.0
 27
1.0
 37
0.0
 76
0
330
210
345
0
346
0
  0
LAYOUT
  5
254
102
{ACAD_REACTORS
330
1A
102
}
100
AcDbPlotSettings
  1

  2
none_device
  4

  6

 40
0.0
 41
0.0
 42
0.0
 43
0.0
 44
210.0
 45
297.0
 46
0.0
 47
0.0
 48
0.0
 49
0.0
140
0.0
141
0.0
142
1.0
143
1.0
 70
0
 72
1
 73
0
 74
0
  7

 75
0
147
1.0
148
0.0
149
0.0
100
AcDbLayout
  1
Layout1
 70
0
 71
1
 10
0.0
 20
0.0
 11
210.0
 21
297.0
 12
0.0
 22
0.0
 32
0.0
 14
0.0
 24
0.0
 34
0.0
 15
0.0
 25
0.0
 35
0.0
146
0.0
 13
0.0
 23
0.0
 33
0.0
 16
1.0
 26
0.0
 36
0.0
 17
0.0
 27
1.0
 37
0.0
 76
0
330
211
345
0
346
0
  0
ENDSEC
  0
EOF
