ISO-10303-21;
HEADER;
FILE_DESCRIPTION(('STEP AP242'),'1');
FILE_NAME('tag_xghb90e340.stp','2019-10-14T20:49:25',('TraceParts'),('TraceParts S.A.'),'Spatial InterOp 3D',' ',' ');
FILE_SCHEMA(('AP242_MANAGED_MODEL_BASED_3D_ENGINEERING_MIM_LF  {1 0 10303 442 1 1 4}'));
ENDSEC;
DATA;
#1=PRODUCT_DEFINITION_CONTEXT('',#9,'design');
#2=APPLICATION_PROTOCOL_DEFINITION('INTERNATIONAL STANDARD','ap242_managed_model_based_3d_engineering',2014,#9);
#3=PRODUCT_CATEGORY_RELATIONSHIP('NONE','NONE',#10,#11);
#4=SHAPE_DEFINITION_REPRESENTATION(#12,#13);
#5= (GEOMETRIC_REPRESENTATION_CONTEXT(3)GLOBAL_UNCERTAINTY_ASSIGNED_CONTEXT((#16))GLOBAL_UNIT_ASSIGNED_CONTEXT((#18,#19,#20))REPRESENTATION_CONTEXT('NONE','WORKSPACE'));
#9=APPLICATION_CONTEXT('managed model based 3d engineering');
#10=PRODUCT_CATEGORY('part','NONE');
#11=PRODUCT_RELATED_PRODUCT_CATEGORY('detail',' ',(#22));
#12=PRODUCT_DEFINITION_SHAPE('NONE','NONE',#23);
#13=ADVANCED_BREP_SHAPE_REPRESENTATION('tag_xghb90e340',(#24,#25),#5);
#16=UNCERTAINTY_MEASURE_WITH_UNIT(LENGTH_MEASURE(1.0E-06),#18,'','');
#18= (CONVERSION_BASED_UNIT('MILLIMETRE',#28)LENGTH_UNIT()NAMED_UNIT(#31));
#19= (NAMED_UNIT(#33)PLANE_ANGLE_UNIT()SI_UNIT($,.RADIAN.));
#20= (NAMED_UNIT(#33)SOLID_ANGLE_UNIT()SI_UNIT($,.STERADIAN.));
#22=PRODUCT('tag_xghb90e340','tag_xghb90e340','PART-tag_xghb90e340-DESC',(#39));
#23=PRODUCT_DEFINITION('','NONE',#40,#1);
#24=MANIFOLD_SOLID_BREP('tag_xghb90e340',#41);
#25=AXIS2_PLACEMENT_3D('',#42,#43,#44);
#28=LENGTH_MEASURE_WITH_UNIT(LENGTH_MEASURE(1.0),#45);
#31=DIMENSIONAL_EXPONENTS(1.0,0.0,0.0,0.0,0.0,0.0,0.0);
#33=DIMENSIONAL_EXPONENTS(0.0,0.0,0.0,0.0,0.0,0.0,0.0);
#39=PRODUCT_CONTEXT('',#9,'mechanical');
#40=PRODUCT_DEFINITION_FORMATION_WITH_SPECIFIED_SOURCE(' ','NONE',#22,.NOT_KNOWN.);
#41=CLOSED_SHELL('',(#46,#47,#48,#49,#50,#51,#52,#53,#54,#55));
#42=CARTESIAN_POINT('',(0.0,0.0,0.0));
#43=DIRECTION('',(0.0,0.0,1.0));
#44=DIRECTION('',(1.0,0.0,0.0));
#45= (NAMED_UNIT(#31)LENGTH_UNIT()SI_UNIT(.MILLI.,.METRE.));
#46=ADVANCED_FACE('',(#57),#58,.F.);
#47=ADVANCED_FACE('',(#59),#60,.T.);
#48=ADVANCED_FACE('',(#61),#62,.T.);
#49=ADVANCED_FACE('',(#63),#64,.T.);
#50=ADVANCED_FACE('',(#65),#66,.T.);
#51=ADVANCED_FACE('',(#67),#68,.T.);
#52=ADVANCED_FACE('',(#69),#70,.T.);
#53=ADVANCED_FACE('',(#71),#72,.T.);
#54=ADVANCED_FACE('',(#73),#74,.T.);
#55=ADVANCED_FACE('',(#75),#76,.T.);
#57=FACE_OUTER_BOUND('',#77,.T.);
#58=PLANE('',#78);
#59=FACE_OUTER_BOUND('',#79,.T.);
#60=CYLINDRICAL_SURFACE('',#80,3.18);
#61=FACE_OUTER_BOUND('',#81,.T.);
#62=PLANE('',#82);
#63=FACE_OUTER_BOUND('',#83,.T.);
#64=CYLINDRICAL_SURFACE('',#84,3.18);
#65=FACE_OUTER_BOUND('',#85,.T.);
#66=PLANE('',#86);
#67=FACE_OUTER_BOUND('',#87,.T.);
#68=CYLINDRICAL_SURFACE('',#88,3.18);
#69=FACE_OUTER_BOUND('',#89,.T.);
#70=PLANE('',#90);
#71=FACE_OUTER_BOUND('',#91,.T.);
#72=CYLINDRICAL_SURFACE('',#92,3.18);
#73=FACE_OUTER_BOUND('',#93,.T.);
#74=PLANE('',#94);
#75=FACE_OUTER_BOUND('',#95,.T.);
#76=PLANE('',#96);
#77=EDGE_LOOP('',(#97,#98,#99,#100,#101,#102,#103,#104));
#78=AXIS2_PLACEMENT_3D('',#105,#106,#107);
#79=EDGE_LOOP('',(#108,#109,#110,#111));
#80=AXIS2_PLACEMENT_3D('',#112,#113,#114);
#81=EDGE_LOOP('',(#115,#116,#117,#118));
#82=AXIS2_PLACEMENT_3D('',#119,#120,#121);
#83=EDGE_LOOP('',(#122,#123,#124,#125));
#84=AXIS2_PLACEMENT_3D('',#126,#127,#128);
#85=EDGE_LOOP('',(#129,#130,#131,#132));
#86=AXIS2_PLACEMENT_3D('',#133,#134,#135);
#87=EDGE_LOOP('',(#136,#137,#138,#139));
#88=AXIS2_PLACEMENT_3D('',#140,#141,#142);
#89=EDGE_LOOP('',(#143,#144,#145,#146));
#90=AXIS2_PLACEMENT_3D('',#147,#148,#149);
#91=EDGE_LOOP('',(#150,#151,#152,#153));
#92=AXIS2_PLACEMENT_3D('',#154,#155,#156);
#93=EDGE_LOOP('',(#157,#158,#159,#160));
#94=AXIS2_PLACEMENT_3D('',#161,#162,#163);
#95=EDGE_LOOP('',(#164,#165,#166,#167,#168,#169,#170,#171));
#96=AXIS2_PLACEMENT_3D('',#172,#173,#174);
#97=ORIENTED_EDGE('',*,*,#175,.F.);
#98=ORIENTED_EDGE('',*,*,#176,.T.);
#99=ORIENTED_EDGE('',*,*,#177,.F.);
#100=ORIENTED_EDGE('',*,*,#178,.T.);
#101=ORIENTED_EDGE('',*,*,#179,.F.);
#102=ORIENTED_EDGE('',*,*,#180,.T.);
#103=ORIENTED_EDGE('',*,*,#181,.F.);
#104=ORIENTED_EDGE('',*,*,#182,.T.);
#105=CARTESIAN_POINT('',(0.0,0.0,0.0));
#106=DIRECTION('',(0.0,0.0,1.0));
#107=DIRECTION('',(1.0,-0.0,0.0));
#108=ORIENTED_EDGE('',*,*,#183,.F.);
#109=ORIENTED_EDGE('',*,*,#184,.F.);
#110=ORIENTED_EDGE('',*,*,#185,.T.);
#111=ORIENTED_EDGE('',*,*,#182,.F.);
#112=CARTESIAN_POINT('',(39.6625,-23.845,0.9343725513262));
#113=DIRECTION('',(-0.0,0.0,1.0));
#114=DIRECTION('',(1.0,0.0,0.0));
#115=ORIENTED_EDGE('',*,*,#186,.F.);
#116=ORIENTED_EDGE('',*,*,#187,.T.);
#117=ORIENTED_EDGE('',*,*,#175,.T.);
#118=ORIENTED_EDGE('',*,*,#185,.F.);
#119=CARTESIAN_POINT('',(-42.8425,-27.025,0.0));
#120=DIRECTION('',(0.0,-1.0,0.0));
#121=DIRECTION('',(0.0,0.0,-1.0));
#122=ORIENTED_EDGE('',*,*,#187,.F.);
#123=ORIENTED_EDGE('',*,*,#188,.F.);
#124=ORIENTED_EDGE('',*,*,#189,.T.);
#125=ORIENTED_EDGE('',*,*,#176,.F.);
#126=CARTESIAN_POINT('',(-39.6625,-23.845,0.9343725513262));
#127=DIRECTION('',(-0.0,0.0,1.0));
#128=DIRECTION('',(0.0,-1.0,0.0));
#129=ORIENTED_EDGE('',*,*,#190,.F.);
#130=ORIENTED_EDGE('',*,*,#191,.T.);
#131=ORIENTED_EDGE('',*,*,#177,.T.);
#132=ORIENTED_EDGE('',*,*,#189,.F.);
#133=CARTESIAN_POINT('',(-42.8425,27.025,0.0));
#134=DIRECTION('',(-1.0,0.0,0.0));
#135=DIRECTION('',(0.0,0.0,1.0));
#136=ORIENTED_EDGE('',*,*,#191,.F.);
#137=ORIENTED_EDGE('',*,*,#192,.F.);
#138=ORIENTED_EDGE('',*,*,#193,.T.);
#139=ORIENTED_EDGE('',*,*,#178,.F.);
#140=CARTESIAN_POINT('',(-39.6625,23.845,0.9343725513262));
#141=DIRECTION('',(0.0,0.0,1.0));
#142=DIRECTION('',(-1.0,0.0,0.0));
#143=ORIENTED_EDGE('',*,*,#194,.F.);
#144=ORIENTED_EDGE('',*,*,#195,.T.);
#145=ORIENTED_EDGE('',*,*,#179,.T.);
#146=ORIENTED_EDGE('',*,*,#193,.F.);
#147=CARTESIAN_POINT('',(42.8425,27.025,0.0));
#148=DIRECTION('',(0.0,1.0,0.0));
#149=DIRECTION('',(1.0,0.0,-0.0));
#150=ORIENTED_EDGE('',*,*,#195,.F.);
#151=ORIENTED_EDGE('',*,*,#196,.F.);
#152=ORIENTED_EDGE('',*,*,#197,.T.);
#153=ORIENTED_EDGE('',*,*,#180,.F.);
#154=CARTESIAN_POINT('',(39.6625,23.845,0.9343725513262));
#155=DIRECTION('',(-0.0,0.0,1.0));
#156=DIRECTION('',(0.0,1.0,0.0));
#157=ORIENTED_EDGE('',*,*,#181,.T.);
#158=ORIENTED_EDGE('',*,*,#197,.F.);
#159=ORIENTED_EDGE('',*,*,#198,.F.);
#160=ORIENTED_EDGE('',*,*,#183,.T.);
#161=CARTESIAN_POINT('',(42.8425,-27.025,0.0));
#162=DIRECTION('',(1.0,0.0,0.0));
#163=DIRECTION('',(0.0,1.0,-0.0));
#164=ORIENTED_EDGE('',*,*,#198,.T.);
#165=ORIENTED_EDGE('',*,*,#196,.T.);
#166=ORIENTED_EDGE('',*,*,#194,.T.);
#167=ORIENTED_EDGE('',*,*,#192,.T.);
#168=ORIENTED_EDGE('',*,*,#190,.T.);
#169=ORIENTED_EDGE('',*,*,#188,.T.);
#170=ORIENTED_EDGE('',*,*,#186,.T.);
#171=ORIENTED_EDGE('',*,*,#184,.T.);
#172=CARTESIAN_POINT('',(0.0,0.0,0.76));
#173=DIRECTION('',(0.0,0.0,1.0));
#174=DIRECTION('',(1.0,-0.0,0.0));
#175=EDGE_CURVE('',#199,#200,#201,.T.);
#176=EDGE_CURVE('',#199,#202,#203,.T.);
#177=EDGE_CURVE('',#204,#202,#205,.T.);
#178=EDGE_CURVE('',#204,#206,#207,.T.);
#179=EDGE_CURVE('',#208,#206,#209,.T.);
#180=EDGE_CURVE('',#208,#210,#211,.T.);
#181=EDGE_CURVE('',#212,#210,#213,.T.);
#182=EDGE_CURVE('',#212,#200,#214,.T.);
#183=EDGE_CURVE('',#215,#212,#216,.T.);
#184=EDGE_CURVE('',#217,#215,#218,.T.);
#185=EDGE_CURVE('',#217,#200,#219,.T.);
#186=EDGE_CURVE('',#220,#217,#221,.T.);
#187=EDGE_CURVE('',#220,#199,#222,.T.);
#188=EDGE_CURVE('',#223,#220,#224,.T.);
#189=EDGE_CURVE('',#223,#202,#225,.T.);
#190=EDGE_CURVE('',#226,#223,#227,.T.);
#191=EDGE_CURVE('',#226,#204,#228,.T.);
#192=EDGE_CURVE('',#229,#226,#230,.T.);
#193=EDGE_CURVE('',#229,#206,#231,.T.);
#194=EDGE_CURVE('',#232,#229,#233,.T.);
#195=EDGE_CURVE('',#232,#208,#234,.T.);
#196=EDGE_CURVE('',#235,#232,#236,.T.);
#197=EDGE_CURVE('',#235,#210,#237,.T.);
#198=EDGE_CURVE('',#215,#235,#238,.T.);
#199=VERTEX_POINT('',#239);
#200=VERTEX_POINT('',#240);
#201=LINE('',#241,#242);
#202=VERTEX_POINT('',#243);
#203=CIRCLE('',#244,3.18);
#204=VERTEX_POINT('',#245);
#205=LINE('',#246,#247);
#206=VERTEX_POINT('',#248);
#207=CIRCLE('',#249,3.18);
#208=VERTEX_POINT('',#250);
#209=LINE('',#251,#252);
#210=VERTEX_POINT('',#253);
#211=CIRCLE('',#254,3.18);
#212=VERTEX_POINT('',#255);
#213=LINE('',#256,#257);
#214=CIRCLE('',#258,3.18);
#215=VERTEX_POINT('',#259);
#216=LINE('',#260,#261);
#217=VERTEX_POINT('',#262);
#218=CIRCLE('',#263,3.18);
#219=LINE('',#264,#265);
#220=VERTEX_POINT('',#266);
#221=LINE('',#267,#268);
#222=LINE('',#269,#270);
#223=VERTEX_POINT('',#271);
#224=CIRCLE('',#272,3.18);
#225=LINE('',#273,#274);
#226=VERTEX_POINT('',#275);
#227=LINE('',#276,#277);
#228=LINE('',#278,#279);
#229=VERTEX_POINT('',#280);
#230=CIRCLE('',#281,3.18);
#231=LINE('',#282,#283);
#232=VERTEX_POINT('',#284);
#233=LINE('',#285,#286);
#234=LINE('',#287,#288);
#235=VERTEX_POINT('',#289);
#236=CIRCLE('',#290,3.18);
#237=LINE('',#291,#292);
#238=LINE('',#293,#294);
#239=CARTESIAN_POINT('',(-39.6625,-27.025,0.0));
#240=CARTESIAN_POINT('',(39.6625,-27.025,0.0));
#241=CARTESIAN_POINT('',(-39.6625,-27.025,0.0));
#242=VECTOR('',#295,79.325);
#243=CARTESIAN_POINT('',(-42.8425,-23.845,0.0));
#244=AXIS2_PLACEMENT_3D('',#296,#297,#298);
#245=CARTESIAN_POINT('',(-42.8425,23.845,0.0));
#246=CARTESIAN_POINT('',(-42.8425,23.845,0.0));
#247=VECTOR('',#299,47.69);
#248=CARTESIAN_POINT('',(-39.6625,27.025,0.0));
#249=AXIS2_PLACEMENT_3D('',#300,#301,#302);
#250=CARTESIAN_POINT('',(39.6625,27.025,0.0));
#251=CARTESIAN_POINT('',(39.6625,27.025,0.0));
#252=VECTOR('',#303,79.325);
#253=CARTESIAN_POINT('',(42.8425,23.845,0.0));
#254=AXIS2_PLACEMENT_3D('',#304,#305,#306);
#255=CARTESIAN_POINT('',(42.8425,-23.845,0.0));
#256=CARTESIAN_POINT('',(42.8425,-23.845,0.0));
#257=VECTOR('',#307,47.69);
#258=AXIS2_PLACEMENT_3D('',#308,#309,#310);
#259=CARTESIAN_POINT('',(42.8425,-23.845,0.76));
#260=CARTESIAN_POINT('',(42.8425,-23.845,0.76));
#261=VECTOR('',#311,0.76);
#262=CARTESIAN_POINT('',(39.6625,-27.025,0.76));
#263=AXIS2_PLACEMENT_3D('',#312,#313,#314);
#264=CARTESIAN_POINT('',(39.6625,-27.025,0.76));
#265=VECTOR('',#315,0.76);
#266=CARTESIAN_POINT('',(-39.6625,-27.025,0.76));
#267=CARTESIAN_POINT('',(-39.6625,-27.025,0.76));
#268=VECTOR('',#316,79.325);
#269=CARTESIAN_POINT('',(-39.6625,-27.025,0.76));
#270=VECTOR('',#317,0.76);
#271=CARTESIAN_POINT('',(-42.8425,-23.845,0.76));
#272=AXIS2_PLACEMENT_3D('',#318,#319,#320);
#273=CARTESIAN_POINT('',(-42.8425,-23.845,0.76));
#274=VECTOR('',#321,0.76);
#275=CARTESIAN_POINT('',(-42.8425,23.845,0.76));
#276=CARTESIAN_POINT('',(-42.8425,23.845,0.76));
#277=VECTOR('',#322,47.69);
#278=CARTESIAN_POINT('',(-42.8425,23.845,0.76));
#279=VECTOR('',#323,0.76);
#280=CARTESIAN_POINT('',(-39.6625,27.025,0.76));
#281=AXIS2_PLACEMENT_3D('',#324,#325,#326);
#282=CARTESIAN_POINT('',(-39.6625,27.025,0.76));
#283=VECTOR('',#327,0.76);
#284=CARTESIAN_POINT('',(39.6625,27.025,0.76));
#285=CARTESIAN_POINT('',(39.6625,27.025,0.76));
#286=VECTOR('',#328,79.325);
#287=CARTESIAN_POINT('',(39.6625,27.025,0.76));
#288=VECTOR('',#329,0.76);
#289=CARTESIAN_POINT('',(42.8425,23.845,0.76));
#290=AXIS2_PLACEMENT_3D('',#330,#331,#332);
#291=CARTESIAN_POINT('',(42.8425,23.845,0.76));
#292=VECTOR('',#333,0.76);
#293=CARTESIAN_POINT('',(42.8425,-23.845,0.76));
#294=VECTOR('',#334,47.69);
#295=DIRECTION('',(1.0,0.0,0.0));
#296=CARTESIAN_POINT('',(-39.6625,-23.845,0.0));
#297=DIRECTION('',(0.0,0.0,-1.0));
#298=DIRECTION('',(0.0,-1.0,0.0));
#299=DIRECTION('',(0.0,-1.0,0.0));
#300=CARTESIAN_POINT('',(-39.6625,23.845,0.0));
#301=DIRECTION('',(0.0,0.0,-1.0));
#302=DIRECTION('',(-1.0,0.0,0.0));
#303=DIRECTION('',(-1.0,0.0,0.0));
#304=CARTESIAN_POINT('',(39.6625,23.845,0.0));
#305=DIRECTION('',(0.0,0.0,-1.0));
#306=DIRECTION('',(0.0,1.0,0.0));
#307=DIRECTION('',(0.0,1.0,0.0));
#308=CARTESIAN_POINT('',(39.6625,-23.845,0.0));
#309=DIRECTION('',(0.0,0.0,-1.0));
#310=DIRECTION('',(1.0,0.0,0.0));
#311=DIRECTION('',(0.0,0.0,-1.0));
#312=CARTESIAN_POINT('',(39.6625,-23.845,0.76));
#313=DIRECTION('',(0.0,0.0,1.0));
#314=DIRECTION('',(0.0,-1.0,0.0));
#315=DIRECTION('',(0.0,0.0,-1.0));
#316=DIRECTION('',(1.0,0.0,0.0));
#317=DIRECTION('',(0.0,0.0,-1.0));
#318=CARTESIAN_POINT('',(-39.6625,-23.845,0.76));
#319=DIRECTION('',(0.0,0.0,1.0));
#320=DIRECTION('',(-1.0,0.0,0.0));
#321=DIRECTION('',(0.0,0.0,-1.0));
#322=DIRECTION('',(0.0,-1.0,0.0));
#323=DIRECTION('',(0.0,0.0,-1.0));
#324=CARTESIAN_POINT('',(-39.6625,23.845,0.76));
#325=DIRECTION('',(0.0,-0.0,1.0));
#326=DIRECTION('',(0.0,1.0,0.0));
#327=DIRECTION('',(0.0,0.0,-1.0));
#328=DIRECTION('',(-1.0,0.0,0.0));
#329=DIRECTION('',(0.0,0.0,-1.0));
#330=CARTESIAN_POINT('',(39.6625,23.845,0.76));
#331=DIRECTION('',(0.0,0.0,1.0));
#332=DIRECTION('',(1.0,0.0,0.0));
#333=DIRECTION('',(0.0,0.0,-1.0));
#334=DIRECTION('',(0.0,1.0,0.0));
ENDSEC;
END-ISO-10303-21;
