999
DXF file: C:\Users\sesa63760\Dev\_Creo\CAD\MCADID0003992_3D-CAD\drw0001_1.dxf
999
Pro/ENGINEER 2019471 by Parametric Technology Corporation
  0
SECTION
  2
HEADER
  9
$ACADVER
  1
AC1024
  9
$DWGCODEPAGE
  3
ANSI_1252
  9
$EXTMAX
 10
65.0695073368
 20
92.026874662
 30
0.0
  9
$EXTMIN
 10
0.0
 20
0.0
 30
0.0
  9
$LIMMIN
 10
0.0
 20
0.0
  9
$LIMMAX
 10
65.0695073368
 20
92.026874662
  9
$VIEWCTR
 10
32.5347536684
 20
46.013437331
  9
$VIEWSIZE
 40
92.026874662
  9
$CLAYER
  8
0
  9
$LTSCALE
 40
5.9987888669
  9
$CELTYPE
  6
BYLAYER
  9
$DIMSCALE
 40
1.0
  9
$DIMASZ
 40
0.7746369921
  9
$DIMEXO
 40
1.0
  9
$DIMDLI
 40
4.1446177626
  9
$DIMEXE
 40
1.0
  9
$DIMCEN
 40
0.9816199964
  9
$DIMLFAC
 40
1.0
  9
$DIMBLK
  1
_FILLED
  9
$DIMALT
 70
0
  9
$DIMALTF
 40
0.0393700787
  9
$DIMTXT
 40
1.0844917889
  9
$DIMTOL
 70
1
  9
$DIMLIM
 70
0
  9
$DIMTFAC
 40
1.0
  9
$DIMTP
 40
0.01
  9
$DIMTM
 40
0.01
  9
$DIMGAP
 40
0.625
  9
$DIMDSEP
 70
46
  9
$AUNITS
 70
0
  9
$PDMODE
 70
3
  9
$PDSIZE
 40
0.3125
  9
$HANDSEED
  5
285
  9
$TILEMODE
 70
1
  9
$MEASUREMENT
 70
1
  9
$INSUNITS
 70
4
  0
ENDSEC
  0
SECTION
  2
CLASSES
  0
CLASS
  1
ACDBDICTIONARYWDFLT
  2
AcDbDictionaryWithDefault
  3
AutoCAD 2000
 90
0
 91
1
280
0
281
0
  0
CLASS
  1
ACDBPLACEHOLDER
  2
AcDbPlaceHolder
  3
AutoCAD 2000
 90
0
 91
1
280
0
281
0
  0
CLASS
  1
LAYOUT
  2
AcDbLayout
  3
AutoCAD 2000
 90
0
 91
0
280
0
281
0
  0
ENDSEC
  0
SECTION
  2
TABLES
  0
TABLE
  2
VPORT
  5
8
100
AcDbSymbolTable
 70
2
  0
VPORT
  5
1F4
100
AcDbSymbolTableRecord
100
AcDbViewportTableRecord
  2
*ACTIVE
 70
0
 10
0.0
 20
0.0
 11
1.0
 21
1.0
 12
32.5347536684
 22
46.013437331
 13
0.0
 23
0.0
 14
1.0
 24
1.0
 15
0.0
 25
0.0
 16
0.0
 26
0.0
 36
1.0
 17
0.0
 27
0.0
 37
0.0
 40
92.026874662
 41
0.7070707071
 42
50.0
 43
0.0
 44
0.0
 50
0.0
 51
0.0
 71
0
 72
100
 73
1
 74
1
 75
0
 76
0
 77
0
 78
0
  0
ENDTAB
  0
TABLE
  2
LTYPE
  5
5
100
AcDbSymbolTable
 70
6
  0
LTYPE
  5
14
100
AcDbSymbolTableRecord
100
AcDbLinetypeTableRecord
  2
BYBLOCK
 70
0
  3

 72
65
 73
0
 40
0.0
  0
LTYPE
  5
15
100
AcDbSymbolTableRecord
100
AcDbLinetypeTableRecord
  2
BYLAYER
 70
0
  3

 72
65
 73
0
 40
0.0
  0
LTYPE
  5
16
100
AcDbSymbolTableRecord
100
AcDbLinetypeTableRecord
  2
CONTINUOUS
 70
64
  3
Solid line
 72
65
 73
0
 40
0.0
  0
LTYPE
  5
1F5
100
AcDbSymbolTableRecord
100
AcDbLinetypeTableRecord
  2
CENTER
 70
64
  3
____ _ ____ _ ____ _ ____ _ ____ _ ____ _ ____
 72
65
 73
4
 40
0.6
 49
0.375
 74
0
 49
-0.075
 74
0
 49
0.075
 74
0
 49
-0.075
 74
0
  0
LTYPE
  5
1F6
100
AcDbSymbolTableRecord
100
AcDbLinetypeTableRecord
  2
HIDDEN
 70
64
  3
- - - - - - - - - - - - - - - - - - - -
 72
65
 73
2
 40
0.2
 49
0.1
 74
0
 49
-0.1
 74
0
  0
LTYPE
  5
1F7
100
AcDbSymbolTableRecord
100
AcDbLinetypeTableRecord
  2
PHANTOM
 70
64
  3
_____ _ _ _____ _ _ _____ _ _ _____
 72
65
 73
6
 40
0.8
 49
0.45
 74
0
 49
-0.05
 74
0
 49
0.1
 74
0
 49
-0.05
 74
0
 49
0.1
 74
0
 49
-0.05
 74
0
  0
LTYPE
  5
1F8
100
AcDbSymbolTableRecord
100
AcDbLinetypeTableRecord
  2
DOT
 70
64
  3
. . . . . . . . . . . . . . . . . . . .
 72
65
 73
2
 40
0.2
 49
0.1
 74
0
 49
-0.1
 74
0
  0
LTYPE
  5
1F9
100
AcDbSymbolTableRecord
100
AcDbLinetypeTableRecord
  2
DASHED
 70
64
  3
- - - - - - - - - - - - - - - - - - - -
 72
65
 73
2
 40
0.2
 49
0.1
 74
0
 49
-0.1
 74
0
  0
ENDTAB
  0
TABLE
  2
LAYER
  5
2
100
AcDbSymbolTable
 70
36
  0
LAYER
  5
10
100
AcDbSymbolTableRecord
100
AcDbLayerTableRecord
  2
0
 70
0
 62
7
  6
CONTINUOUS
370
-3
390
F
  0
LAYER
  5
1FA
100
AcDbSymbolTableRecord
100
AcDbLayerTableRecord
  2
DEFAULT_1
 70
0
 62
7
  6
CENTER
370
-3
390
F
  0
LAYER
  5
1FB
100
AcDbSymbolTableRecord
100
AcDbLayerTableRecord
  2
DEFAULT_2
 70
0
 62
7
  6
HIDDEN
370
-3
390
F
  0
LAYER
  5
1FC
100
AcDbSymbolTableRecord
100
AcDbLayerTableRecord
  2
DEFAULT_3
 70
0
 62
7
  6
PHANTOM
370
-3
390
F
  0
LAYER
  5
1FD
100
AcDbSymbolTableRecord
100
AcDbLayerTableRecord
  2
00_COMPONENTS
 70
0
 62
7
  6
CONTINUOUS
370
-3
390
F
  0
LAYER
  5
1FE
100
AcDbSymbolTableRecord
100
AcDbLayerTableRecord
  2
01_1_DEFAULT_DATUMS
 70
0
 62
7
  6
CONTINUOUS
370
-3
390
F
  0
LAYER
  5
1FF
100
AcDbSymbolTableRecord
100
AcDbLayerTableRecord
  2
01_PLANES
 70
0
 62
7
  6
CONTINUOUS
370
-3
390
F
  0
LAYER
  5
200
100
AcDbSymbolTableRecord
100
AcDbLayerTableRecord
  2
02_COORD_SYS
 70
0
 62
7
  6
CONTINUOUS
370
-3
390
F
  0
LAYER
  5
201
100
AcDbSymbolTableRecord
100
AcDbLayerTableRecord
  2
03_AXES
 70
0
 62
7
  6
CONTINUOUS
370
-3
390
F
  0
LAYER
  5
202
100
AcDbSymbolTableRecord
100
AcDbLayerTableRecord
  2
04_POINTS
 70
0
 62
7
  6
CONTINUOUS
370
-3
390
F
  0
LAYER
  5
203
100
AcDbSymbolTableRecord
100
AcDbLayerTableRecord
  2
05_CURVES
 70
0
 62
7
  6
CONTINUOUS
370
-3
390
F
  0
LAYER
  5
204
100
AcDbSymbolTableRecord
100
AcDbLayerTableRecord
  2
06_SURFS
 70
0
 62
7
  6
CONTINUOUS
370
-3
390
F
  0
LAYER
  5
205
100
AcDbSymbolTableRecord
100
AcDbLayerTableRecord
  2
07_COSMETICS
 70
0
 62
7
  6
CONTINUOUS
370
-3
390
F
  0
LAYER
  5
206
100
AcDbSymbolTableRecord
100
AcDbLayerTableRecord
  2
10_NOTES
 70
0
 62
7
  6
CONTINUOUS
370
-3
390
F
  0
LAYER
  5
207
100
AcDbSymbolTableRecord
100
AcDbLayerTableRecord
  2
11_NOTES_PUB
 70
0
 62
7
  6
CONTINUOUS
370
-3
390
F
  0
LAYER
  5
208
100
AcDbSymbolTableRecord
100
AcDbLayerTableRecord
  2
13_REF_GTOL
 70
0
 62
7
  6
CONTINUOUS
370
-3
390
F
  0
LAYER
  5
209
100
AcDbSymbolTableRecord
100
AcDbLayerTableRecord
  2
16_MISC
 70
0
 62
7
  6
CONTINUOUS
370
-3
390
F
  0
LAYER
  5
20A
100
AcDbSymbolTableRecord
100
AcDbLayerTableRecord
  2
17_NO_PRINT
 70
0
 62
7
  6
CONTINUOUS
370
-3
390
F
  0
LAYER
  5
20B
100
AcDbSymbolTableRecord
100
AcDbLayerTableRecord
  2
18_DATUM_CAMS_JOINTS
 70
0
 62
7
  6
CONTINUOUS
370
-3
390
F
  0
LAYER
  5
20C
100
AcDbSymbolTableRecord
100
AcDbLayerTableRecord
  2
19_DATUM_FUNCTIONAL
 70
0
 62
7
  6
CONTINUOUS
370
-3
390
F
  0
LAYER
  5
20D
100
AcDbSymbolTableRecord
100
AcDbLayerTableRecord
  2
20_DATUM_KINEMATIC_SCHEME
 70
0
 62
7
  6
CONTINUOUS
370
-3
390
F
  0
ENDTAB
  0
TABLE
  2
STYLE
  5
3
100
AcDbSymbolTable
 70
1
  0
STYLE
  5
11
100
AcDbSymbolTableRecord
100
AcDbTextStyleTableRecord
  2
STANDARD
 70
0
 40
0.0
 41
1.0
 50
0.0
 71
0
 42
0.2
  3
ARIAL.TTF
  4

  0
STYLE
  5
20E
100
AcDbSymbolTableRecord
100
AcDbTextStyleTableRecord
  2
TEXTSTYLE_1
 70
0
 40
0.0
 41
0.8
 50
0.0
 71
0
 42
0.2
  3
gdt
  4

  0
ENDTAB
  0
TABLE
  2
VIEW
  5
6
100
AcDbSymbolTable
 70
0
  0
ENDTAB
  0
TABLE
  2
UCS
  5
7
100
AcDbSymbolTable
 70
0
  0
ENDTAB
  0
TABLE
  2
APPID
  5
9
100
AcDbSymbolTable
 70
1
  0
APPID
  5
20F
100
AcDbSymbolTableRecord
100
AcDbRegAppTableRecord
  2
ACAD
 70
0
  0
ENDTAB
  0
TABLE
  2
BLOCK_RECORD
  5
1
100
AcDbSymbolTable
 70
0
  0
BLOCK_RECORD
  5
210
100
AcDbSymbolTableRecord
100
AcDbBlockTableRecord
  2
*Model_Space
  0
BLOCK_RECORD
  5
211
100
AcDbSymbolTableRecord
100
AcDbBlockTableRecord
  2
*Paper_Space
  0
BLOCK_RECORD
  5
212
100
AcDbSymbolTableRecord
100
AcDbBlockTableRecord
  2
_FILLED
  0
ENDTAB
  0
TABLE
  2
DIMSTYLE
  5
A
100
AcDbSymbolTable
 70
1
100
AcDbDimStyleTable
 71
0
  0
DIMSTYLE
105
213
100
AcDbSymbolTableRecord
100
AcDbDimStyleTableRecord
  2
STANDARD
 70
0
  3

  4

 40
1.0
 41
0.7746369921
 42
1.0
 43
0.38
 44
1.0
 45
0.0
 46
0.0
 47
0.01
 48
0.01
140
1.0844917889
141
0.09
142
0.0
143
25.4
144
1.0
145
0.0
146
1.0
147
0.625
 71
1
 72
0
 73
0
 74
0
 75
0
 76
0
 77
1
 78
8
 79
2
170
0
171
1
172
0
173
0
174
0
175
0
176
0
177
0
178
0
270
2
179
2
271
2
272
2
273
2
274
2
275
0
280
0
281
0
282
0
283
1
284
8
285
0
286
0
287
3
288
0
340
11
278
46
341
212
342
212
343
212
344
212
  0
ENDTAB
  0
ENDSEC
  0
SECTION
  2
BLOCKS
  0
BLOCK
  5
20
100
AcDbEntity
  8
0
100
AcDbBlockBegin
  2
*Model_Space
 70
0
 10
0.0
 20
0.0
 30
0.0
  3
*Model_Space
  1

  0
ENDBLK
  5
21
100
AcDbEntity
  8
0
100
AcDbBlockEnd
  0
BLOCK
  5
1C
100
AcDbEntity
  8
0
100
AcDbBlockBegin
  2
*Paper_Space
 70
0
 10
0.0
 20
0.0
 30
0.0
  3
*Paper_Space
  1

  0
ENDBLK
  5
1D
100
AcDbEntity
  8
0
100
AcDbBlockEnd
  0
BLOCK
  5
214
100
AcDbEntity
  8
0
100
AcDbBlockBegin
  2
_FILLED
 70
64
 10
0.0
 20
0.0
  3
_FILLED
  1

  0
SOLID
  5
215
100
AcDbEntity
  8
0
  6
BYBLOCK
 62
0
100
AcDbTrace
 10
0.0
 20
0.0
 11
-1.0
 21
0.25
 12
-1.0
 22
-0.25
 13
-1.0
 23
-0.25
  0
ENDBLK
  5
216
100
AcDbEntity
  8
0
  6
BYBLOCK
 62
0
100
AcDbBlockEnd
  0
ENDSEC
  0
SECTION
  2
ENTITIES
  0
LINE
  5
217
100
AcDbEntity
  8
0
100
AcDbLine
 62
7
  6
BYLAYER
 10
21.6202955812
 20
48.8014644355
 11
21.6203008804
 21
48.0666218989
  0
LINE
  5
218
100
AcDbEntity
  8
0
100
AcDbLine
 62
7
  6
BYLAYER
 10
25.8629239035
 20
55.4151421186
 11
25.2265251509
 21
55.0477066222
  0
LINE
  5
219
100
AcDbEntity
  8
0
100
AcDbLine
 62
7
  6
BYLAYER
 10
38.537516377
 20
32.7735751478
 11
39.164240949
 21
32.4117437332
  0
LINE
  5
21A
100
AcDbEntity
  8
0
100
AcDbLine
 62
7
  6
BYLAYER
 10
42.1204413543
 20
30.7050192447
 11
42.7471659263
 21
30.3431878301
  0
LINE
  5
21B
100
AcDbEntity
  8
0
100
AcDbLine
 62
7
  6
BYLAYER
 10
42.4296051463
 20
30.7949738667
 11
41.8028805743
 21
31.1568052814
  0
LINE
  5
21C
100
AcDbEntity
  8
0
100
AcDbLine
 62
7
  6
BYLAYER
 10
38.8466801689
 20
32.8635297699
 11
38.2199555969
 21
33.2253611845
  0
LINE
  5
21D
100
AcDbEntity
  8
0
100
AcDbLine
 62
7
  6
BYLAYER
 10
22.8629748046
 20
45.3199458057
 11
37.8163561415
 21
36.6868023733
  0
LINE
  5
21E
100
AcDbEntity
  8
0
100
AcDbLine
 62
7
  6
BYLAYER
 10
8.5843730655
 20
54.7182078768
 11
21.7911190431
 21
47.0934620263
  0
LINE
  5
21F
100
AcDbEntity
  8
0
100
AcDbLine
 62
7
  6
BYLAYER
 10
38.2199555969
 20
40.1237544971
 11
38.8466801689
 21
39.7619230824
  0
LINE
  5
220
100
AcDbEntity
  8
0
100
AcDbLine
 62
7
  6
BYLAYER
 10
41.8028805743
 20
38.0551985939
 11
42.4296051463
 21
37.6933671793
  0
LINE
  5
221
100
AcDbEntity
  8
0
100
AcDbLine
 62
7
  6
BYLAYER
 10
42.7471659263
 20
38.5118386308
 11
42.1204413543
 21
38.8736700454
  0
LINE
  5
222
100
AcDbEntity
  8
0
100
AcDbLine
 62
7
  6
BYLAYER
 10
39.164240949
 20
40.580394534
 11
38.537516377
 21
40.9422259486
  0
LINE
  5
223
100
AcDbEntity
  8
0
100
AcDbLine
 62
7
  6
BYLAYER
 10
13.5842882304
 20
63.3785108937
 11
26.7943544408
 21
55.7518481493
  0
LINE
  5
224
100
AcDbEntity
  8
0
100
AcDbLine
 62
7
  6
BYLAYER
 10
28.8628730024
 20
55.7123094259
 11
43.5472556773
 21
47.2344689301
  0
LINE
  5
225
100
AcDbEntity
  8
0
100
AcDbLine
 62
7
  6
BYLAYER
 10
43.7112528396
 20
47.3784629141
 11
44.3379774116
 21
47.0166314995
  0
LINE
  5
226
100
AcDbEntity
  8
0
100
AcDbLine
 62
7
  6
BYLAYER
 10
47.294177817
 20
45.3099070109
 11
47.920902389
 21
44.9480755963
  0
LINE
  5
227
100
AcDbEntity
  8
0
100
AcDbLine
 62
7
  6
BYLAYER
 10
48.556023949
 20
45.3147610111
 11
47.929299377
 21
45.6765924258
  0
LINE
  5
228
100
AcDbEntity
  8
0
100
AcDbLine
 62
7
  6
BYLAYER
 10
44.9730989717
 20
47.3833169143
 11
44.3463743997
 21
47.7451483289
  0
LINE
  5
229
100
AcDbEntity
  8
0
100
AcDbLine
 62
7
  6
BYLAYER
 10
49.5201108623
 20
47.2829919819
 11
50.1468354343
 21
46.9211605672
  0
LINE
  5
22A
100
AcDbEntity
  8
0
100
AcDbLine
 62
7
  6
BYLAYER
 10
53.1030358397
 20
45.2144360787
 11
53.7297604117
 21
44.8526046641
  0
LINE
  5
22B
100
AcDbEntity
  8
0
100
AcDbLine
 62
7
  6
BYLAYER
 10
58.5313631767
 20
35.8195124644
 11
58.5313578776
 21
36.554355001
  0
LINE
  5
22C
100
AcDbEntity
  8
0
100
AcDbLine
 62
7
  6
BYLAYER
 10
54.2887348544
 20
29.2058347813
 11
54.9251336071
 21
29.5732702776
  0
ARC
  5
22D
100
AcDbEntity
  8
0
100
AcDbCircle
 62
7
  6
BYLAYER
 10
31.0029546346
 20
51.6949239996
 40
27.7144896186
100
AcDbArc
 50
309.2979741749
 51
309.7483869424
  0
ARC
  5
22E
100
AcDbEntity
  8
0
100
AcDbCircle
 62
7
  6
BYLAYER
 10
25.0911311548
 20
41.320303354
 40
25.8904521738
100
AcDbArc
 50
9.5614115986
 51
11.4714225568
  0
ARC
  5
22F
100
AcDbEntity
  8
0
100
AcDbCircle
 62
7
  6
BYLAYER
 10
52.9803946017
 20
34.7489892907
 40
14.9963791919
100
AcDbArc
 50
157.1167759801
 51
160.4714653129
  0
ARC
  5
230
100
AcDbEntity
  8
0
100
AcDbCircle
 62
7
  6
BYLAYER
 10
56.563319579
 20
32.6804333876
 40
14.9963791919
100
AcDbArc
 50
157.1167759801
 51
160.4714653129
  0
ARC
  5
231
100
AcDbEntity
  8
0
100
AcDbCircle
 62
7
  6
BYLAYER
 10
52.2355043416
 20
35.1566681054
 40
14.8696857343
100
AcDbArc
 50
157.1024804457
 51
160.4857608473
  0
ARC
  5
232
100
AcDbEntity
  8
0
100
AcDbCircle
 62
7
  6
BYLAYER
 10
55.8184293189
 20
33.0881122023
 40
14.8696857342
100
AcDbArc
 50
157.1024804457
 51
160.4857608473
  0
ARC
  5
233
100
AcDbEntity
  8
0
100
AcDbCircle
 62
7
  6
BYLAYER
 10
48.5723457616
 20
39.7077332426
 40
9.0813169798
100
AcDbArc
 50
120.0209374201
 51
122.3632426874
  0
ARC
  5
234
100
AcDbEntity
  8
0
100
AcDbCircle
 62
7
  6
BYLAYER
 10
52.1552707389
 20
37.6391773395
 40
9.0813169798
100
AcDbArc
 50
120.0209374201
 51
122.3632426874
  0
ARC
  5
235
100
AcDbEntity
  8
0
100
AcDbCircle
 62
7
  6
BYLAYER
 10
49.1436308868
 20
39.4374717627
 40
8.9742948269
100
AcDbArc
 50
120.0069689633
 51
122.3772111441
  0
ARC
  5
236
100
AcDbEntity
  8
0
100
AcDbCircle
 62
7
  6
BYLAYER
 10
43.7503704738
 20
37.8268766346
 40
8.9742948269
100
AcDbArc
 50
300.0069689633
 51
302.3772111441
  0
ARC
  5
237
100
AcDbEntity
  8
0
100
AcDbCircle
 62
7
  6
BYLAYER
 10
52.7265558641
 20
37.3689158595
 40
8.9742948269
100
AcDbArc
 50
120.0069689633
 51
122.3772111441
  0
ARC
  5
238
100
AcDbEntity
  8
0
100
AcDbCircle
 62
7
  6
BYLAYER
 10
48.2522941233
 20
40.2576265315
 40
8.4450690674
100
AcDbArc
 50
117.5491220126
 51
120.0074110942
  0
ARC
  5
239
100
AcDbEntity
  8
0
100
AcDbCircle
 62
7
  6
BYLAYER
 10
51.8352191006
 20
38.1890706284
 40
8.4450690674
100
AcDbArc
 50
117.5491220126
 51
120.0074110942
  0
ARC
  5
23A
100
AcDbEntity
  8
0
100
AcDbCircle
 62
7
  6
BYLAYER
 10
48.8287230458
 20
39.9873648233
 40
8.3406201408
100
AcDbArc
 50
117.5337271264
 51
120.0228059804
  0
ARC
  5
23B
100
AcDbEntity
  8
0
100
AcDbCircle
 62
7
  6
BYLAYER
 10
44.0652783148
 20
37.2769835741
 40
8.3406201409
100
AcDbArc
 50
297.5337271264
 51
300.0228059804
  0
ARC
  5
23C
100
AcDbEntity
  8
0
100
AcDbCircle
 62
7
  6
BYLAYER
 10
52.4116480231
 20
37.9188089201
 40
8.3406201408
100
AcDbArc
 50
117.5337271264
 51
120.0228059804
  0
SPLINE
  5
23D
100
AcDbEntity
  8
0
100
AcDbSpline
 62
7
  6
BYLAYER
 70
0
 71
3
 72
22
 73
18
 74
0
 42
0.0000001
 43
0.0000001
 44
0.0000000001
 40
0.0
 40
0.0
 40
0.0
 40
0.0
 40
0.0558411352
 40
0.1141852788
 40
0.1747924006
 40
0.2373658324
 40
0.3015647397
 40
0.367012076
 40
0.4999725477
 40
0.5666935964
 40
0.6329872635
 40
0.6984341793
 40
0.762633739
 40
0.825206992
 40
0.8858109152
 40
0.9441674849
 40
1.0
 40
1.0
 40
1.0
 40
1.0
 10
40.8303591648
 20
36.97595016
 30
0.0
 10
40.8303579257
 20
37.1400844577
 30
0.0
 10
40.8449228296
 20
37.475833465
 30
0.0
 10
40.9067596113
 20
37.9863072067
 30
0.0
 10
41.0084727167
 20
38.5105152833
 30
0.0
 10
41.1490611227
 20
39.043420694
 30
0.0
 10
41.3272098181
 20
39.5799852473
 30
0.0
 10
41.6139815748
 20
40.2969883324
 30
0.0
 10
41.9661017866
 20
40.994478282
 30
0.0
 10
42.3761172157
 20
41.6604685777
 30
0.0
 10
42.7098867259
 20
42.1393047094
 30
0.0
 10
43.0662625503
 20
42.5921467256
 30
0.0
 10
43.4418560346
 20
43.0146948276
 30
0.0
 10
43.8330520985
 20
43.4029151231
 30
0.0
 10
44.2361895401
 20
43.7531267022
 30
0.0
 10
44.6473709986
 20
44.0618959614
 30
0.0
 10
44.9308510657
 20
44.2424114276
 30
0.0
 10
45.0729738066
 20
44.3244655405
 30
0.0
  0
SPLINE
  5
23E
100
AcDbEntity
  8
0
100
AcDbSpline
 62
7
  6
BYLAYER
 70
0
 71
3
 72
11
 73
7
 74
0
 42
0.0000001
 43
0.0000001
 44
0.0000000001
 40
0.0
 40
0.0
 40
0.0
 40
0.0
 40
0.2458901112
 40
0.4944463609
 40
0.7458381524
 40
1.0
 40
1.0
 40
1.0
 40
1.0
 10
38.537516377
 20
40.9422259486
 30
0.0
 10
38.6849479193
 20
41.2434052668
 30
0.0
 10
38.994542754
 20
41.8427393619
 30
0.0
 10
39.5066346797
 20
42.7221094753
 30
0.0
 10
40.074360987
 20
43.5803122898
 30
0.0
 10
40.4897914975
 20
44.1311970521
 30
0.0
 10
40.7069489934
 20
44.4013455438
 30
0.0
  0
SPLINE
  5
23F
100
AcDbEntity
  8
0
100
AcDbSpline
 62
7
  6
BYLAYER
 70
0
 71
3
 72
11
 73
7
 74
0
 42
0.0000001
 43
0.0000001
 44
0.0000000001
 40
0.0
 40
0.0
 40
0.0
 40
0.0
 40
0.2640471168
 40
0.5180924809
 40
0.7629848124
 40
1.0
 40
1.0
 40
1.0
 40
1.0
 10
37.802519982
 20
36.9155589533
 30
0.0
 10
37.802519982
 20
37.201074503
 30
0.0
 10
37.8204360561
 20
37.7615019074
 30
0.0
 10
37.9032767005
 20
38.5829753865
 30
0.0
 10
38.0359253833
 20
39.3681878596
 30
0.0
 10
38.1546703041
 20
39.8759234415
 30
0.0
 10
38.2199555969
 20
40.1237544971
 30
0.0
  0
SPLINE
  5
240
100
AcDbEntity
  8
0
100
AcDbSpline
 62
7
  6
BYLAYER
 70
0
 71
3
 72
9
 73
5
 74
0
 42
0.0000001
 43
0.0000001
 44
0.0000000001
 40
0.0
 40
0.0
 40
0.0
 40
0.0
 40
0.2461689079
 40
1.0
 40
1.0
 40
1.0
 40
1.0
 10
38.537516377
 20
32.7735751478
 30
0.0
 10
38.5087098563
 20
32.8085847164
 30
0.0
 10
38.3944567194
 20
32.9530642192
 30
0.0
 10
38.2913372945
 20
33.1062825129
 30
0.0
 10
38.2199555969
 20
33.2253611845
 30
0.0
  0
SPLINE
  5
241
100
AcDbEntity
  8
0
100
AcDbSpline
 62
7
  6
BYLAYER
 70
0
 71
3
 72
11
 73
7
 74
0
 42
0.0000001
 43
0.0000001
 44
0.0000000001
 40
0.0
 40
0.0
 40
0.0
 40
0.0
 40
0.2597138449
 40
0.5138055923
 40
0.7609569878
 40
1.0
 40
1.0
 40
1.0
 40
1.0
 10
38.2199555969
 20
33.2253611845
 30
0.0
 10
38.1562023889
 20
33.5409904551
 30
0.0
 10
38.0402664202
 20
34.1675552263
 30
0.0
 10
37.9068307069
 20
35.1018622796
 30
0.0
 10
37.8225245796
 20
36.0162454539
 30
0.0
 10
37.802519982
 20
36.6191838924
 30
0.0
 10
37.802519982
 20
36.9155589533
 30
0.0
  0
SPLINE
  5
242
100
AcDbEntity
  8
0
100
AcDbSpline
 62
7
  6
BYLAYER
 70
0
 71
3
 72
11
 73
7
 74
0
 42
0.0000001
 43
0.0000001
 44
0.0000000001
 40
0.0
 40
0.0
 40
0.0
 40
0.0
 40
0.2664727848
 40
0.5232021349
 40
0.7683103422
 40
1.0
 40
1.0
 40
1.0
 40
1.0
 10
39.164240949
 20
32.4117437332
 30
0.0
 10
39.3871468291
 20
32.3664165339
 30
0.0
 10
39.8253970609
 20
32.2802712812
 30
0.0
 10
40.4709631076
 20
32.1643818769
 30
0.0
 10
41.0894360071
 20
32.0662820711
 30
0.0
 10
41.4929381318
 20
32.0125149856
 30
0.0
 10
41.6893630226
 20
31.9894364068
 30
0.0
  0
SPLINE
  5
243
100
AcDbEntity
  8
0
100
AcDbSpline
 62
7
  6
BYLAYER
 70
0
 71
3
 72
11
 73
7
 74
0
 42
0.0000001
 43
0.0000001
 44
0.0000000001
 40
0.0
 40
0.0
 40
0.0
 40
0.0
 40
0.2138697203
 40
0.4498869344
 40
0.7112845036
 40
1.0
 40
1.0
 40
1.0
 40
1.0
 10
44.3463743997
 20
47.7451483289
 30
0.0
 10
44.5001212273
 20
47.7643215582
 30
0.0
 10
44.8248464331
 20
47.7946895873
 30
0.0
 10
45.3400893296
 20
47.812654046
 30
0.0
 10
45.9097427142
 20
47.8012514376
 30
0.0
 10
46.307476853
 20
47.7736808565
 30
0.0
 10
46.5158070161
 20
47.7550712679
 30
0.0
  0
SPLINE
  5
244
100
AcDbEntity
  8
0
100
AcDbSpline
 62
7
  6
BYLAYER
 70
0
 71
3
 72
11
 73
7
 74
0
 42
0.0000001
 43
0.0000001
 44
0.0000000001
 40
0.0
 40
0.0
 40
0.0
 40
0.0
 40
0.247773413
 40
0.4973923449
 40
0.7482965168
 40
1.0
 40
1.0
 40
1.0
 40
1.0
 10
40.7069489934
 20
44.4013455438
 30
0.0
 10
40.926183564
 20
44.6740779603
 30
0.0
 10
41.383504624
 20
45.2079618522
 30
0.0
 10
42.1177961736
 20
45.9687298776
 30
0.0
 10
42.8952339007
 20
46.6933546837
 30
0.0
 10
43.4361705726
 20
47.1533147152
 30
0.0
 10
43.7112528396
 20
47.3784629141
 30
0.0
  0
SPLINE
  5
245
100
AcDbEntity
  8
0
100
AcDbSpline
 62
7
  6
BYLAYER
 70
0
 71
3
 72
9
 73
5
 74
0
 42
0.0000001
 43
0.0000001
 44
0.0000000001
 40
0.0
 40
0.0
 40
0.0
 40
0.0
 40
0.2541982703
 40
1.0
 40
1.0
 40
1.0
 40
1.0
 10
50.4643962144
 20
46.4693745306
 30
0.0
 10
50.4403259641
 20
46.509528429
 30
0.0
 10
50.3428629777
 20
46.6658060893
 30
0.0
 10
50.2341076865
 20
46.8150955577
 30
0.0
 10
50.1468354343
 20
46.9211605672
 30
0.0
  0
SPLINE
  5
246
100
AcDbEntity
  8
0
100
AcDbSpline
 62
7
  6
BYLAYER
 70
0
 71
3
 72
11
 73
7
 74
0
 42
0.0000001
 43
0.0000001
 44
0.0000000001
 40
0.0
 40
0.0
 40
0.0
 40
0.0
 40
0.2256534176
 40
0.4692630009
 40
0.7283075039
 40
1.0
 40
1.0
 40
1.0
 40
1.0
 10
46.5158070161
 20
47.7550712679
 30
0.0
 10
46.7437567785
 20
47.7347091118
 30
0.0
 10
47.2169005349
 20
47.6820448728
 30
0.0
 10
47.9478987109
 20
47.5753040958
 30
0.0
 10
48.7217509351
 20
47.4410271955
 30
0.0
 10
49.2500868717
 20
47.3379004985
 30
0.0
 10
49.5201108623
 20
47.2829919819
 30
0.0
  0
SPLINE
  5
247
100
AcDbEntity
  8
0
100
AcDbSpline
 62
7
  6
BYLAYER
 70
0
 71
3
 72
9
 73
5
 74
0
 42
0.0000001
 43
0.0000001
 44
0.0000000001
 40
0.0
 40
0.0
 40
0.0
 40
0.0
 40
0.2541982703
 40
1.0
 40
1.0
 40
1.0
 40
1.0
 10
38.8466801689
 20
32.8635297699
 30
0.0
 10
38.8707504192
 20
32.8233758715
 30
0.0
 10
38.9682134056
 20
32.6670982111
 30
0.0
 10
39.0769686968
 20
32.5178087428
 30
0.0
 10
39.164240949
 20
32.4117437332
 30
0.0
  0
SPLINE
  5
248
100
AcDbEntity
  8
0
100
AcDbSpline
 62
7
  6
BYLAYER
 70
0
 71
3
 72
11
 73
7
 74
0
 42
0.0000001
 43
0.0000001
 44
0.0000000001
 40
0.0
 40
0.0
 40
0.0
 40
0.0
 40
0.2138697203
 40
0.4498869344
 40
0.7112845036
 40
1.0
 40
1.0
 40
1.0
 40
1.0
 10
50.1468354343
 20
46.9211605672
 30
0.0
 10
49.9930886067
 20
46.9019873379
 30
0.0
 10
49.6683634009
 20
46.8716193088
 30
0.0
 10
49.1531205044
 20
46.8536548501
 30
0.0
 10
48.5834671198
 20
46.8650574586
 30
0.0
 10
48.185732981
 20
46.8926280397
 30
0.0
 10
47.9774028179
 20
46.9112376283
 30
0.0
  0
SPLINE
  5
249
100
AcDbEntity
  8
0
100
AcDbSpline
 62
7
  6
BYLAYER
 70
0
 71
3
 72
11
 73
7
 74
0
 42
0.0000001
 43
0.0000001
 44
0.0000000001
 40
0.0
 40
0.0
 40
0.0
 40
0.0
 40
0.2256534176
 40
0.4692630009
 40
0.7283075039
 40
1.0
 40
1.0
 40
1.0
 40
1.0
 10
47.9774028179
 20
46.9112376283
 30
0.0
 10
47.7494530556
 20
46.9315997844
 30
0.0
 10
47.2763092991
 20
46.9842640234
 30
0.0
 10
46.5453111231
 20
47.0910048004
 30
0.0
 10
45.7714588989
 20
47.2252817007
 30
0.0
 10
45.2431229624
 20
47.3284083976
 30
0.0
 10
44.9730989717
 20
47.3833169143
 30
0.0
  0
SPLINE
  5
24A
100
AcDbEntity
  8
0
100
AcDbSpline
 62
7
  6
BYLAYER
 70
0
 71
3
 72
11
 73
7
 74
0
 42
0.0000001
 43
0.0000001
 44
0.0000000001
 40
0.0
 40
0.0
 40
0.0
 40
0.0
 40
0.2640471168
 40
0.5180924809
 40
0.7629848124
 40
1.0
 40
1.0
 40
1.0
 40
1.0
 10
39.2641157839
 20
36.0717253137
 30
0.0
 10
39.2641157839
 20
35.786209764
 30
0.0
 10
39.2461997098
 20
35.2257823596
 30
0.0
 10
39.1633590653
 20
34.4043088804
 30
0.0
 10
39.0307103825
 20
33.6190964074
 30
0.0
 10
38.9119654618
 20
33.1113608254
 30
0.0
 10
38.8466801689
 20
32.8635297699
 30
0.0
  0
SPLINE
  5
24B
100
AcDbEntity
  8
0
100
AcDbSpline
 62
7
  6
BYLAYER
 70
0
 71
3
 72
11
 73
7
 74
0
 42
0.0000001
 43
0.0000001
 44
0.0000000001
 40
0.0
 40
0.0
 40
0.0
 40
0.0
 40
0.2458901112
 40
0.4944463609
 40
0.7458381524
 40
1.0
 40
1.0
 40
1.0
 40
1.0
 10
44.3379774116
 20
47.0166314995
 30
0.0
 10
44.1905458693
 20
46.7154521812
 30
0.0
 10
43.8809510346
 20
46.1161180862
 30
0.0
 10
43.3688591089
 20
45.2367479727
 30
0.0
 10
42.8011328016
 20
44.3785451583
 30
0.0
 10
42.3857022911
 20
43.827660396
 30
0.0
 10
42.1685447952
 20
43.5575119042
 30
0.0
  0
SPLINE
  5
24C
100
AcDbEntity
  8
0
100
AcDbSpline
 62
7
  6
BYLAYER
 70
0
 71
3
 72
9
 73
5
 74
0
 42
0.0000001
 43
0.0000001
 44
0.0000000001
 40
0.0
 40
0.0
 40
0.0
 40
0.0
 40
0.2545657845
 40
1.0
 40
1.0
 40
1.0
 40
1.0
 10
45.0729738066
 20
34.526436535
 30
0.0
 10
45.0394178086
 20
34.5070630861
 30
0.0
 10
44.906821444
 20
34.4323218879
 30
0.0
 10
44.7710838549
 20
34.3631213467
 30
0.0
 10
44.6682694225
 20
34.3151350587
 30
0.0
  0
SPLINE
  5
24D
100
AcDbEntity
  8
0
100
AcDbSpline
 62
7
  6
BYLAYER
 70
0
 71
3
 72
11
 73
7
 74
0
 42
0.0000001
 43
0.0000001
 44
0.0000000001
 40
0.0
 40
0.0
 40
0.0
 40
0.0
 40
0.2243624116
 40
0.464778924
 40
0.7231498448
 40
1.0
 40
1.0
 40
1.0
 40
1.0
 10
41.3514522427
 20
34.9244848446
 30
0.0
 10
41.2638180303
 20
35.0587591586
 30
0.0
 10
41.1089610551
 20
35.3549332
 30
0.0
 10
40.9472473099
 20
35.8477555591
 30
0.0
 10
40.8503399557
 20
36.3951477859
 30
0.0
 10
40.8303606584
 20
36.7780982755
 30
0.0
 10
40.8303591648
 20
36.97595016
 30
0.0
  0
SPLINE
  5
24E
100
AcDbEntity
  8
0
100
AcDbSpline
 62
7
  6
BYLAYER
 70
0
 71
3
 72
10
 73
6
 74
0
 42
0.0000001
 43
0.0000001
 44
0.0000000001
 40
0.0
 40
0.0
 40
0.0
 40
0.0
 40
0.2721985728
 40
0.5296196438
 40
1.0
 40
1.0
 40
1.0
 40
1.0
 10
45.0729738066
 20
44.3244655405
 30
0.0
 10
45.2150086134
 20
44.406468885
 30
0.0
 10
45.4986461718
 20
44.5541751553
 30
0.0
 10
46.0581761637
 20
44.7785484111
 30
0.0
 10
46.4921028838
 20
44.8753150518
 30
0.0
 10
46.7747938125
 20
44.8955976279
 30
0.0
  0
SPLINE
  5
24F
100
AcDbEntity
  8
0
100
AcDbSpline
 62
7
  6
BYLAYER
 70
0
 71
3
 72
23
 73
19
 74
0
 42
0.0000001
 43
0.0000001
 44
0.0000000001
 40
0.0
 40
0.0
 40
0.0
 40
0.0
 40
0.0538838199
 40
0.1105974252
 40
0.1699357017
 40
0.2316136181
 40
0.2952810199
 40
0.3605385456
 40
0.426949268
 40
0.4940494201
 40
0.561360846
 40
0.6284005148
 40
0.6946904159
 40
0.759771728
 40
0.8232100335
 40
0.8846075238
 40
0.9436407921
 40
1.0
 40
1.0
 40
1.0
 40
1.0
 10
49.2981247071
 20
42.3089350284
 30
0.0
 10
49.3118067134
 20
42.1433123122
 30
0.0
 10
49.3226647656
 20
41.8017877132
 30
0.0
 10
49.2929972266
 20
41.2779437647
 30
0.0
 10
49.2181663672
 20
40.7343699464
 30
0.0
 10
49.0989761982
 20
40.1768967194
 30
0.0
 10
48.9367279897
 20
39.6114236755
 30
0.0
 10
48.7331572783
 20
39.0439800229
 30
0.0
 10
48.4904228638
 20
38.4806277513
 30
0.0
 10
48.2111311435
 20
37.9273840607
 30
0.0
 10
47.8982758145
 20
37.3901615922
 30
0.0
 10
47.5551908533
 20
36.8747160105
 30
0.0
 10
47.1855479938
 20
36.3865559365
 30
0.0
 10
46.7933006322
 20
35.9308952421
 30
0.0
 10
46.3826423961
 20
35.5126117058
 30
0.0
 10
45.9579018159
 20
35.1361226554
 30
0.0
 10
45.5236508853
 20
34.8055466559
 30
0.0
 10
45.2235077844
 20
34.6133468488
 30
0.0
 10
45.0729738066
 20
34.526436535
 30
0.0
  0
SPLINE
  5
250
100
AcDbEntity
  8
0
100
AcDbSpline
 62
7
  6
BYLAYER
 70
0
 71
3
 72
12
 73
8
 74
0
 42
0.0000001
 43
0.0000001
 44
0.0000000001
 40
0.0
 40
0.0
 40
0.0
 40
0.0
 40
0.2233590417
 40
0.3411489441
 40
0.4633937863
 40
0.7219826221
 40
1.0
 40
1.0
 40
1.0
 40
1.0
 10
47.9774028179
 20
46.9112376283
 30
0.0
 10
47.7511381323
 20
46.9314492609
 30
0.0
 10
47.4015450366
 20
46.9265438089
 30
0.0
 10
46.9348072891
 20
46.8591153819
 30
0.0
 10
46.439899795
 20
46.7459793225
 30
0.0
 10
45.8059199079
 20
46.5218441511
 30
0.0
 10
45.3178475871
 20
46.2743954936
 30
0.0
 10
45.0729738066
 20
46.1330183945
 30
0.0
  0
SPLINE
  5
251
100
AcDbEntity
  8
0
100
AcDbSpline
 62
7
  6
BYLAYER
 70
0
 71
3
 72
11
 73
7
 74
0
 42
0.0000001
 43
0.0000001
 44
0.0000000001
 40
0.0
 40
0.0
 40
0.0
 40
0.0
 40
0.232065918
 40
0.4774810713
 40
0.7342754496
 40
1.0
 40
1.0
 40
1.0
 40
1.0
 10
45.0729738066
 20
46.1330183945
 30
0.0
 10
44.8115610591
 20
45.9820925752
 30
0.0
 10
44.2914729037
 20
45.6400722385
 30
0.0
 10
43.548656384
 20
45.0376150857
 30
0.0
 10
42.8317451029
 20
44.3403226886
 30
0.0
 10
42.3850912983
 20
43.8269003081
 30
0.0
 10
42.1685447952
 20
43.5575119042
 30
0.0
  0
SPLINE
  5
252
100
AcDbEntity
  8
0
100
AcDbSpline
 62
7
  6
BYLAYER
 70
0
 71
3
 72
15
 73
11
 74
0
 42
0.0000001
 43
0.0000001
 44
0.0000000001
 40
0.0
 40
0.0
 40
0.0
 40
0.0
 40
0.129847411
 40
0.2611866596
 40
0.3925260486
 40
0.5223738886
 40
0.6492905064
 40
0.7719421396
 40
0.8891589506
 40
1.0
 40
1.0
 40
1.0
 40
1.0
 10
42.1685447952
 20
43.5575119042
 30
0.0
 10
41.9469964314
 20
43.2819010804
 30
0.0
 10
41.5232625966
 20
42.7095418913
 30
0.0
 10
40.9538411291
 20
41.8037144631
 30
0.0
 10
40.4540574159
 20
40.8576001961
 30
0.0
 10
40.0324195137
 20
39.8872664463
 30
0.0
 10
39.6960388311
 20
38.9090993695
 30
0.0
 10
39.4506018938
 20
37.9395345855
 30
0.0
 10
39.3002713934
 20
36.9950105945
 30
0.0
 10
39.2641157839
 20
36.3735817955
 30
0.0
 10
39.2641157839
 20
36.0717253137
 30
0.0
  0
SPLINE
  5
253
100
AcDbEntity
  8
0
100
AcDbSpline
 62
7
  6
BYLAYER
 70
0
 71
3
 72
19
 73
15
 74
0
 42
0.0000001
 43
0.0000001
 44
0.0000000001
 40
0.0
 40
0.0
 40
0.0
 40
0.0
 40
0.1510093575
 40
0.2926464178
 40
0.4250792373
 40
0.5491055383
 40
0.6084476701
 40
0.666290943
 40
0.7229244746
 40
0.7786708807
 40
0.833880653
 40
0.8889201723
 40
0.9441678215
 40
1.0
 40
1.0
 40
1.0
 40
1.0
 10
39.2641157839
 20
36.0717253137
 30
0.0
 10
39.2641157839
 20
35.8184095715
 30
0.0
 10
39.2881153327
 20
35.3270009136
 30
0.0
 10
39.4038422876
 20
34.6216520389
 30
0.0
 10
39.5970431392
 20
33.9802445413
 30
0.0
 10
39.8245942491
 20
33.4990855493
 30
0.0
 10
40.043380023
 20
33.1581608138
 30
0.0
 10
40.2224243342
 20
32.9274983146
 30
0.0
 10
40.4181565955
 20
32.7189947961
 30
0.0
 10
40.6299612197
 20
32.533439299
 30
0.0
 10
40.8570520223
 20
32.3714862957
 30
0.0
 10
41.0986437223
 20
32.2337422608
 30
0.0
 10
41.3538454856
 20
32.1207123745
 30
0.0
 10
41.5312266486
 20
32.062496518
 30
0.0
 10
41.6215184078
 20
32.0376140146
 30
0.0
  0
SPLINE
  5
254
100
AcDbEntity
  8
0
100
AcDbSpline
 62
7
  6
BYLAYER
 70
0
 71
3
 72
11
 73
7
 74
0
 42
0.0000001
 43
0.0000001
 44
0.0000000001
 40
0.0
 40
0.0
 40
0.0
 40
0.0
 40
0.247773413
 40
0.4973923449
 40
0.7482965168
 40
1.0
 40
1.0
 40
1.0
 40
1.0
 10
42.1685447952
 20
43.5575119042
 30
0.0
 10
41.9493102246
 20
43.2847794878
 30
0.0
 10
41.4919891646
 20
42.7508955958
 30
0.0
 10
40.757697615
 20
41.9901275704
 30
0.0
 10
39.9802598879
 20
41.2655027643
 30
0.0
 10
39.439323216
 20
40.8055427329
 30
0.0
 10
39.164240949
 20
40.580394534
 30
0.0
  0
SPLINE
  5
255
100
AcDbEntity
  8
0
100
AcDbSpline
 62
7
  6
BYLAYER
 70
0
 71
3
 72
11
 73
7
 74
0
 42
0.0000001
 43
0.0000001
 44
0.0000000001
 40
0.0
 40
0.0
 40
0.0
 40
0.0
 40
0.2597138449
 40
0.5138055923
 40
0.7609569878
 40
1.0
 40
1.0
 40
1.0
 40
1.0
 10
38.8466801689
 20
39.7619230824
 30
0.0
 10
38.910433377
 20
39.4462938119
 30
0.0
 10
39.0263693457
 20
38.8197290406
 30
0.0
 10
39.159805059
 20
37.8854219874
 30
0.0
 10
39.2441111863
 20
36.9710388131
 30
0.0
 10
39.2641157839
 20
36.3681003745
 30
0.0
 10
39.2641157839
 20
36.0717253137
 30
0.0
  0
SPLINE
  5
256
100
AcDbEntity
  8
0
100
AcDbSpline
 62
7
  6
BYLAYER
 70
0
 71
3
 72
15
 73
11
 74
0
 42
0.0000001
 43
0.0000001
 44
0.0000000001
 40
0.0
 40
0.0
 40
0.0
 40
0.0
 40
0.1284451789
 40
0.2539624627
 40
0.377462233
 40
0.4999328161
 40
0.6224068684
 40
0.7459387245
 40
0.8715268116
 40
1.0
 40
1.0
 40
1.0
 40
1.0
 10
50.100294454
 20
45.688325169
 30
0.0
 10
50.0378172434
 20
45.7768830163
 30
0.0
 10
49.9055333218
 20
45.9460258398
 30
0.0
 10
49.683625594
 20
46.1753100136
 30
0.0
 10
49.4417493414
 20
46.375704704
 30
0.0
 10
49.1810590624
 20
46.5462973618
 30
0.0
 10
48.9026861597
 20
46.6862508978
 30
0.0
 10
48.6079041638
 20
46.7949819747
 30
0.0
 10
48.2981314344
 20
46.8719544268
 30
0.0
 10
48.0853750083
 20
46.9015927549
 30
0.0
 10
47.9774028179
 20
46.9112376283
 30
0.0
  0
SPLINE
  5
257
100
AcDbEntity
  8
0
100
AcDbSpline
 62
7
  6
BYLAYER
 70
0
 71
3
 72
22
 73
18
 74
0
 42
0.0000001
 43
0.0000001
 44
0.0000000001
 40
0.0
 40
0.0
 40
0.0
 40
0.0
 40
0.0558411352
 40
0.1141852788
 40
0.1747924006
 40
0.2373658324
 40
0.3015647397
 40
0.367012076
 40
0.4999725477
 40
0.5666935964
 40
0.6329872635
 40
0.6984341793
 40
0.762633739
 40
0.825206992
 40
0.8858109152
 40
0.9441674849
 40
1.0
 40
1.0
 40
1.0
 40
1.0
 10
44.4132841421
 20
34.9073942569
 30
0.0
 10
44.4132829031
 20
35.0715285545
 30
0.0
 10
44.4278478069
 20
35.4072775618
 30
0.0
 10
44.4896845886
 20
35.9177513036
 30
0.0
 10
44.591397694
 20
36.4419593802
 30
0.0
 10
44.7319861
 20
36.9748647908
 30
0.0
 10
44.9101347954
 20
37.5114293442
 30
0.0
 10
45.1969065521
 20
38.2284324293
 30
0.0
 10
45.5490267639
 20
38.9259223788
 30
0.0
 10
45.9590421931
 20
39.5919126746
 30
0.0
 10
46.2928117032
 20
40.0707488063
 30
0.0
 10
46.6491875276
 20
40.5235908225
 30
0.0
 10
47.0247810119
 20
40.9461389245
 30
0.0
 10
47.4159770758
 20
41.3343592199
 30
0.0
 10
47.8191145174
 20
41.6845707991
 30
0.0
 10
48.2302959759
 20
41.9933400583
 30
0.0
 10
48.513776043
 20
42.1738555245
 30
0.0
 10
48.6558987839
 20
42.2559096374
 30
0.0
  0
SPLINE
  5
258
100
AcDbEntity
  8
0
100
AcDbSpline
 62
7
  6
BYLAYER
 70
0
 71
3
 72
11
 73
7
 74
0
 42
0.0000001
 43
0.0000001
 44
0.0000000001
 40
0.0
 40
0.0
 40
0.0
 40
0.0
 40
0.2458901112
 40
0.4944463609
 40
0.7458381524
 40
1.0
 40
1.0
 40
1.0
 40
1.0
 10
42.1204413543
 20
38.8736700454
 30
0.0
 10
42.2678728966
 20
39.1748493636
 30
0.0
 10
42.5774677313
 20
39.7741834587
 30
0.0
 10
43.089559657
 20
40.6535535721
 30
0.0
 10
43.6572859643
 20
41.5117563866
 30
0.0
 10
44.0727164748
 20
42.0626411489
 30
0.0
 10
44.2898739707
 20
42.3327896407
 30
0.0
  0
SPLINE
  5
259
100
AcDbEntity
  8
0
100
AcDbSpline
 62
7
  6
BYLAYER
 70
0
 71
3
 72
11
 73
7
 74
0
 42
0.0000001
 43
0.0000001
 44
0.0000000001
 40
0.0
 40
0.0
 40
0.0
 40
0.0
 40
0.2640471168
 40
0.5180924809
 40
0.7629848124
 40
1.0
 40
1.0
 40
1.0
 40
1.0
 10
41.3854449593
 20
34.8470030501
 30
0.0
 10
41.3854449593
 20
35.1325185998
 30
0.0
 10
41.4033610334
 20
35.6929460042
 30
0.0
 10
41.4862016779
 20
36.5144194834
 30
0.0
 10
41.6188503607
 20
37.2996319564
 30
0.0
 10
41.7375952814
 20
37.8073675384
 30
0.0
 10
41.8028805743
 20
38.0551985939
 30
0.0
  0
SPLINE
  5
25A
100
AcDbEntity
  8
0
100
AcDbSpline
 62
7
  6
BYLAYER
 70
0
 71
3
 72
9
 73
5
 74
0
 42
0.0000001
 43
0.0000001
 44
0.0000000001
 40
0.0
 40
0.0
 40
0.0
 40
0.0
 40
0.2461689079
 40
1.0
 40
1.0
 40
1.0
 40
1.0
 10
42.1204413543
 20
30.7050192447
 30
0.0
 10
42.0916348336
 20
30.7400288132
 30
0.0
 10
41.9773816967
 20
30.884508316
 30
0.0
 10
41.8742622718
 20
31.0377266097
 30
0.0
 10
41.8028805743
 20
31.1568052814
 30
0.0
  0
SPLINE
  5
25B
100
AcDbEntity
  8
0
100
AcDbSpline
 62
7
  6
BYLAYER
 70
0
 71
3
 72
11
 73
7
 74
0
 42
0.0000001
 43
0.0000001
 44
0.0000000001
 40
0.0
 40
0.0
 40
0.0
 40
0.0
 40
0.2597138449
 40
0.5138055923
 40
0.7609569878
 40
1.0
 40
1.0
 40
1.0
 40
1.0
 10
41.8028805743
 20
31.1568052814
 30
0.0
 10
41.7391273662
 20
31.4724345519
 30
0.0
 10
41.6231913975
 20
32.0989993232
 30
0.0
 10
41.4897556842
 20
33.0333063764
 30
0.0
 10
41.4054495569
 20
33.9476895507
 30
0.0
 10
41.3854449593
 20
34.5506279893
 30
0.0
 10
41.3854449593
 20
34.8470030501
 30
0.0
  0
SPLINE
  5
25C
100
AcDbEntity
  8
0
100
AcDbSpline
 62
7
  6
BYLAYER
 70
0
 71
3
 72
11
 73
7
 74
0
 42
0.0000001
 43
0.0000001
 44
0.0000000001
 40
0.0
 40
0.0
 40
0.0
 40
0.0
 40
0.2716820939
 40
0.5307340513
 40
0.7743437201
 40
1.0
 40
1.0
 40
1.0
 40
1.0
 10
42.7471659263
 20
30.3431878301
 30
0.0
 10
43.0171795786
 20
30.2882814156
 30
0.0
 10
43.5455154329
 20
30.185170727
 30
0.0
 10
44.3193599222
 20
30.05086608
 30
0.0
 10
45.0503708544
 20
29.9441384516
 30
0.0
 10
45.5235171188
 20
29.8914709584
 30
0.0
 10
45.7514697726
 20
29.871108544
 30
0.0
  0
SPLINE
  5
25D
100
AcDbEntity
  8
0
100
AcDbSpline
 62
7
  6
BYLAYER
 70
0
 71
3
 72
11
 73
7
 74
0
 42
0.0000001
 43
0.0000001
 44
0.0000000001
 40
0.0
 40
0.0
 40
0.0
 40
0.0
 40
0.2138697203
 40
0.4498869344
 40
0.7112845036
 40
1.0
 40
1.0
 40
1.0
 40
1.0
 10
47.929299377
 20
45.6765924258
 30
0.0
 10
48.0830462046
 20
45.6957656551
 30
0.0
 10
48.4077714104
 20
45.7261336842
 30
0.0
 10
48.9230143069
 20
45.7440981429
 30
0.0
 10
49.4926676916
 20
45.7326955344
 30
0.0
 10
49.8904018303
 20
45.7051249533
 30
0.0
 10
50.0987319934
 20
45.6865153647
 30
0.0
  0
SPLINE
  5
25E
100
AcDbEntity
  8
0
100
AcDbSpline
 62
7
  6
BYLAYER
 70
0
 71
3
 72
11
 73
7
 74
0
 42
0.0000001
 43
0.0000001
 44
0.0000000001
 40
0.0
 40
0.0
 40
0.0
 40
0.0
 40
0.247773413
 40
0.4973923449
 40
0.7482965168
 40
1.0
 40
1.0
 40
1.0
 40
1.0
 10
44.2898739707
 20
42.3327896407
 30
0.0
 10
44.5091085413
 20
42.6055220571
 30
0.0
 10
44.9664296013
 20
43.1394059491
 30
0.0
 10
45.7007211509
 20
43.9001739744
 30
0.0
 10
46.478158878
 20
44.6247987806
 30
0.0
 10
47.0190955499
 20
45.084758812
 30
0.0
 10
47.294177817
 20
45.3099070109
 30
0.0
  0
SPLINE
  5
25F
100
AcDbEntity
  8
0
100
AcDbSpline
 62
7
  6
BYLAYER
 70
0
 71
3
 72
9
 73
5
 74
0
 42
0.0000001
 43
0.0000001
 44
0.0000000001
 40
0.0
 40
0.0
 40
0.0
 40
0.0
 40
0.2541982703
 40
1.0
 40
1.0
 40
1.0
 40
1.0
 10
54.0473211917
 20
44.4008186274
 30
0.0
 10
54.0232509414
 20
44.4409725258
 30
0.0
 10
53.925787955
 20
44.5972501862
 30
0.0
 10
53.8170326638
 20
44.7465396545
 30
0.0
 10
53.7297604117
 20
44.8526046641
 30
0.0
  0
SPLINE
  5
260
100
AcDbEntity
  8
0
100
AcDbSpline
 62
7
  6
BYLAYER
 70
0
 71
3
 72
11
 73
7
 74
0
 42
0.0000001
 43
0.0000001
 44
0.0000000001
 40
0.0
 40
0.0
 40
0.0
 40
0.0
 40
0.2400046534
 40
0.4873962049
 40
0.7411093834
 40
1.0
 40
1.0
 40
1.0
 40
1.0
 10
54.4629395292
 20
40.9326417353
 30
0.0
 10
54.4583846445
 20
41.212415733
 30
0.0
 10
54.4318574951
 20
41.7803994557
 30
0.0
 10
54.3453168648
 20
42.6404154655
 30
0.0
 10
54.2164743634
 20
43.5173027242
 30
0.0
 10
54.1070801314
 20
44.1049641736
 30
0.0
 10
54.0473211917
 20
44.4008186274
 30
0.0
  0
SPLINE
  5
261
100
AcDbEntity
  8
0
100
AcDbSpline
 62
7
  6
BYLAYER
 70
0
 71
3
 72
11
 73
7
 74
0
 42
0.0000001
 43
0.0000001
 44
0.0000000001
 40
0.0
 40
0.0
 40
0.0
 40
0.0
 40
0.2256534176
 40
0.4692630009
 40
0.7283075039
 40
1.0
 40
1.0
 40
1.0
 40
1.0
 10
50.0987319934
 20
45.6865153647
 30
0.0
 10
50.3266817558
 20
45.6661532086
 30
0.0
 10
50.7998255122
 20
45.6134889696
 30
0.0
 10
51.5308236883
 20
45.5067481926
 30
0.0
 10
52.3046759124
 20
45.3724712923
 30
0.0
 10
52.833011849
 20
45.2693445954
 30
0.0
 10
53.1030358397
 20
45.2144360787
 30
0.0
  0
SPLINE
  5
262
100
AcDbEntity
  8
0
100
AcDbSpline
 62
7
  6
BYLAYER
 70
0
 71
3
 72
11
 73
7
 74
0
 42
0.0000001
 43
0.0000001
 44
0.0000000001
 40
0.0
 40
0.0
 40
0.0
 40
0.0
 40
0.2887117468
 40
0.5500998029
 40
0.7861348884
 40
1.0
 40
1.0
 40
1.0
 40
1.0
 10
45.7514697726
 20
29.871108544
 30
0.0
 10
45.9597972547
 20
29.8524991949
 30
0.0
 10
46.3575219628
 20
29.8249230248
 30
0.0
 10
46.9271783043
 20
29.8135452956
 30
0.0
 10
47.4424259627
 20
29.8314647421
 30
0.0
 10
47.7671588562
 20
29.8618586646
 30
0.0
 10
47.920902389
 20
29.881031483
 30
0.0
  0
SPLINE
  5
263
100
AcDbEntity
  8
0
100
AcDbSpline
 62
7
  6
BYLAYER
 70
0
 71
3
 72
9
 73
5
 74
0
 42
0.0000001
 43
0.0000001
 44
0.0000000001
 40
0.0
 40
0.0
 40
0.0
 40
0.0
 40
0.2541982703
 40
1.0
 40
1.0
 40
1.0
 40
1.0
 10
42.4296051463
 20
30.7949738667
 30
0.0
 10
42.4536753966
 20
30.7548199683
 30
0.0
 10
42.5511383829
 20
30.598542308
 30
0.0
 10
42.6598936741
 20
30.4492528396
 30
0.0
 10
42.7471659263
 20
30.3431878301
 30
0.0
  0
SPLINE
  5
264
100
AcDbEntity
  8
0
100
AcDbSpline
 62
7
  6
BYLAYER
 70
0
 71
3
 72
11
 73
7
 74
0
 42
0.0000001
 43
0.0000001
 44
0.0000000001
 40
0.0
 40
0.0
 40
0.0
 40
0.0
 40
0.2138697203
 40
0.4498869344
 40
0.7112845036
 40
1.0
 40
1.0
 40
1.0
 40
1.0
 10
53.7297604117
 20
44.8526046641
 30
0.0
 10
53.576013584
 20
44.8334314348
 30
0.0
 10
53.2512883783
 20
44.8030634057
 30
0.0
 10
52.7360454817
 20
44.785098947
 30
0.0
 10
52.1663920971
 20
44.7965015554
 30
0.0
 10
51.7686579583
 20
44.8240721365
 30
0.0
 10
51.5603277953
 20
44.8426817251
 30
0.0
  0
SPLINE
  5
265
100
AcDbEntity
  8
0
100
AcDbSpline
 62
7
  6
BYLAYER
 70
0
 71
3
 72
11
 73
7
 74
0
 42
0.0000001
 43
0.0000001
 44
0.0000000001
 40
0.0
 40
0.0
 40
0.0
 40
0.0
 40
0.2256534176
 40
0.4692630009
 40
0.7283075039
 40
1.0
 40
1.0
 40
1.0
 40
1.0
 10
51.5603277953
 20
44.8426817251
 30
0.0
 10
51.3323780329
 20
44.8630438812
 30
0.0
 10
50.8592342765
 20
44.9157081202
 30
0.0
 10
50.1282361004
 20
45.0224488972
 30
0.0
 10
49.3543838762
 20
45.1567257975
 30
0.0
 10
48.8260479397
 20
45.2598524945
 30
0.0
 10
48.556023949
 20
45.3147610111
 30
0.0
  0
SPLINE
  5
266
100
AcDbEntity
  8
0
100
AcDbSpline
 62
7
  6
BYLAYER
 70
0
 71
3
 72
11
 73
7
 74
0
 42
0.0000001
 43
0.0000001
 44
0.0000000001
 40
0.0
 40
0.0
 40
0.0
 40
0.0
 40
0.2640471168
 40
0.5180924809
 40
0.7629848124
 40
1.0
 40
1.0
 40
1.0
 40
1.0
 10
42.8470407612
 20
34.0031694105
 30
0.0
 10
42.8470407612
 20
33.7176538608
 30
0.0
 10
42.8291246871
 20
33.1572264564
 30
0.0
 10
42.7462840426
 20
32.3357529773
 30
0.0
 10
42.6136353599
 20
31.5505405042
 30
0.0
 10
42.4948904391
 20
31.0428049223
 30
0.0
 10
42.4296051463
 20
30.7949738667
 30
0.0
  0
SPLINE
  5
267
100
AcDbEntity
  8
0
100
AcDbSpline
 62
7
  6
BYLAYER
 70
0
 71
3
 72
11
 73
7
 74
0
 42
0.0000001
 43
0.0000001
 44
0.0000000001
 40
0.0
 40
0.0
 40
0.0
 40
0.0
 40
0.2458901112
 40
0.4944463609
 40
0.7458381524
 40
1.0
 40
1.0
 40
1.0
 40
1.0
 10
47.920902389
 20
44.9480755963
 30
0.0
 10
47.7734708466
 20
44.6468962781
 30
0.0
 10
47.4638760119
 20
44.047562183
 30
0.0
 10
46.9517840862
 20
43.1681920696
 30
0.0
 10
46.3840577789
 20
42.3099892551
 30
0.0
 10
45.9686272684
 20
41.7591044928
 30
0.0
 10
45.7514697726
 20
41.4889560011
 30
0.0
  0
SPLINE
  5
268
100
AcDbEntity
  8
0
100
AcDbSpline
 62
7
  6
BYLAYER
 70
0
 71
3
 72
25
 73
21
 74
0
 42
0.0000001
 43
0.0000001
 44
0.0000000001
 40
0.0
 40
0.0
 40
0.0
 40
0.0
 40
0.0742848108
 40
0.1447446536
 40
0.2113478214
 40
0.2432763916
 40
0.2743325797
 40
0.3340087879
 40
0.3909737915
 40
0.4459946783
 40
0.4999979711
 40
0.5540013102
 40
0.609022885
 40
0.6659883033
 40
0.7256638784
 40
0.7567201256
 40
0.7886510471
 40
0.8552582501
 40
0.9257013228
 40
1.0
 40
1.0
 40
1.0
 40
1.0
 10
48.6558987839
 20
32.4578806318
 30
0.0
 10
48.5205829339
 20
32.3797564557
 30
0.0
 10
48.2504279055
 20
32.2383405711
 30
0.0
 10
47.8383963892
 20
32.069682489
 30
0.0
 10
47.496361854
 20
31.9699720973
 30
0.0
 10
47.2287582296
 20
31.9173327239
 30
0.0
 10
46.9728703551
 20
31.8833401512
 30
0.0
 10
46.6613354864
 20
31.8724981905
 30
0.0
 10
46.3011161188
 20
31.9126652792
 30
0.0
 10
45.9631024546
 20
32.0061700927
 30
0.0
 10
45.6510403639
 20
32.152272125
 30
0.0
 10
45.3684730025
 20
32.3494696204
 30
0.0
 10
45.1185102661
 20
32.595470808
 30
0.0
 10
44.9036052339
 20
32.8873383654
 30
0.0
 10
44.7572229961
 20
33.1625547209
 30
0.0
 10
44.6587176789
 20
33.4011608077
 30
0.0
 10
44.5705206478
 20
33.6592525102
 30
0.0
 10
44.4858534296
 20
34.0052933916
 30
0.0
 10
44.4258685157
 20
34.4464516043
 30
0.0
 10
44.4132853219
 20
34.7511160388
 30
0.0
 10
44.4132841421
 20
34.9073942569
 30
0.0
  0
SPLINE
  5
269
100
AcDbEntity
  8
0
100
AcDbSpline
 62
7
  6
BYLAYER
 70
0
 71
3
 72
40
 73
36
 74
0
 42
0.0000001
 43
0.0000001
 44
0.0000000001
 40
0.0
 40
0.0
 40
0.0
 40
0.0
 40
0.030985425
 40
0.0603753843
 40
0.0881566533
 40
0.1014745789
 40
0.1144286183
 40
0.139320529
 40
0.1630815526
 40
0.1860316592
 40
0.208557322
 40
0.2310830207
 40
0.2540334619
 40
0.2777947334
 40
0.3026864763
 40
0.3156405943
 40
0.3289595575
 40
0.3567426295
 40
0.3861257167
 40
0.4171170468
 40
0.4496659847
 40
0.483673867
 40
0.5190007833
 40
0.5554738104
 40
0.5928942824
 40
0.6310424266
 40
0.7085427943
 40
0.7474333282
 40
0.7860747417
 40
0.8242225941
 40
0.8616433824
 40
0.8981162252
 40
0.9334411829
 40
0.9674562021
 40
1.0
 40
1.0
 40
1.0
 40
1.0
 10
48.6558987839
 20
42.2559096374
 30
0.0
 10
48.7912152611
 20
42.3340341756
 30
0.0
 10
49.0613715364
 20
42.4754506478
 30
0.0
 10
49.4734049743
 20
42.6441091885
 30
0.0
 10
49.8154410708
 20
42.7438195575
 30
0.0
 10
50.0830458557
 20
42.7964586405
 30
0.0
 10
50.3389347698
 20
42.8304507603
 30
0.0
 10
50.6504708356
 20
42.8412918456
 30
0.0
 10
51.0106914127
 20
42.8011231766
 30
0.0
 10
51.3487059735
 20
42.7076162752
 30
0.0
 10
51.6607685898
 20
42.5615116774
 30
0.0
 10
51.9433360646
 20
42.3643112
 30
0.0
 10
52.1932984739
 20
42.1183066637
 30
0.0
 10
52.4082027304
 20
41.8264354961
 30
0.0
 10
52.5545839482
 20
41.5512159271
 30
0.0
 10
52.6530882489
 20
41.3126074124
 30
0.0
 10
52.7412841098
 20
41.0545121981
 30
0.0
 10
52.8259495755
 20
40.7084738998
 30
0.0
 10
52.8859319123
 20
40.2672843729
 30
0.0
 10
52.9052962701
 20
39.7984748278
 30
0.0
 10
52.8839467898
 20
39.3065020141
 30
0.0
 10
52.8221074589
 20
38.7959973897
 30
0.0
 10
52.7203923286
 20
38.2718002159
 30
0.0
 10
52.5798023107
 20
37.7388943956
 30
0.0
 10
52.401652456
 20
37.2023330378
 30
0.0
 10
52.1148797741
 20
36.4853335027
 30
0.0
 10
51.762759461
 20
35.7878476219
 30
0.0
 10
51.352744619
 20
35.1218612796
 30
0.0
 10
51.0189759399
 20
34.6430281555
 30
0.0
 10
50.6626012552
 20
34.1901890236
 30
0.0
 10
50.287009175
 20
33.7676436217
 30
0.0
 10
49.8958147344
 20
33.3794257744
 30
0.0
 10
49.492679083
 20
33.0292163352
 30
0.0
 10
49.0814995288
 20
32.720448855
 30
0.0
 10
48.798020833
 20
32.5399343453
 30
0.0
 10
48.6558987839
 20
32.4578806318
 30
0.0
  0
SPLINE
  5
26A
100
AcDbEntity
  8
0
100
AcDbSpline
 62
7
  6
BYLAYER
 70
0
 71
3
 72
12
 73
8
 74
0
 42
0.0000001
 43
0.0000001
 44
0.0000000001
 40
0.0
 40
0.0
 40
0.0
 40
0.0
 40
0.2233590417
 40
0.3411489441
 40
0.4633937863
 40
0.7219826221
 40
1.0
 40
1.0
 40
1.0
 40
1.0
 10
51.5603277953
 20
44.8426817251
 30
0.0
 10
51.3340631096
 20
44.8628933577
 30
0.0
 10
50.9844700139
 20
44.8579879057
 30
0.0
 10
50.5177322664
 20
44.7905594788
 30
0.0
 10
50.0228247723
 20
44.6774234194
 30
0.0
 10
49.3888448852
 20
44.4532882479
 30
0.0
 10
48.9007725644
 20
44.2058395905
 30
0.0
 10
48.6558987839
 20
44.0644624913
 30
0.0
  0
SPLINE
  5
26B
100
AcDbEntity
  8
0
100
AcDbSpline
 62
7
  6
BYLAYER
 70
0
 71
3
 72
11
 73
7
 74
0
 42
0.0000001
 43
0.0000001
 44
0.0000000001
 40
0.0
 40
0.0
 40
0.0
 40
0.0
 40
0.232065918
 40
0.4774810713
 40
0.7342754496
 40
1.0
 40
1.0
 40
1.0
 40
1.0
 10
48.6558987839
 20
44.0644624913
 30
0.0
 10
48.3944860364
 20
43.9135366721
 30
0.0
 10
47.874397881
 20
43.5715163353
 30
0.0
 10
47.1315813613
 20
42.9690591825
 30
0.0
 10
46.4146700803
 20
42.2717667855
 30
0.0
 10
45.9680162756
 20
41.7583444049
 30
0.0
 10
45.7514697726
 20
41.4889560011
 30
0.0
  0
SPLINE
  5
26C
100
AcDbEntity
  8
0
100
AcDbSpline
 62
7
  6
BYLAYER
 70
0
 71
3
 72
15
 73
11
 74
0
 42
0.0000001
 43
0.0000001
 44
0.0000000001
 40
0.0
 40
0.0
 40
0.0
 40
0.0
 40
0.129847411
 40
0.2611866596
 40
0.3925260486
 40
0.5223738886
 40
0.6492905064
 40
0.7719421396
 40
0.8891589506
 40
1.0
 40
1.0
 40
1.0
 40
1.0
 10
45.7514697726
 20
41.4889560011
 30
0.0
 10
45.5299214087
 20
41.2133451772
 30
0.0
 10
45.1061875739
 20
40.6409859881
 30
0.0
 10
44.5367661065
 20
39.7351585599
 30
0.0
 10
44.0369823932
 20
38.789044293
 30
0.0
 10
43.6153444911
 20
37.8187105431
 30
0.0
 10
43.2789638084
 20
36.8405434663
 30
0.0
 10
43.0335268712
 20
35.8709786823
 30
0.0
 10
42.8831963707
 20
34.9264546913
 30
0.0
 10
42.8470407612
 20
34.3050258923
 30
0.0
 10
42.8470407612
 20
34.0031694105
 30
0.0
  0
SPLINE
  5
26D
100
AcDbEntity
  8
0
100
AcDbSpline
 62
7
  6
BYLAYER
 70
0
 71
3
 72
20
 73
16
 74
0
 42
0.0000001
 43
0.0000001
 44
0.0000000001
 40
0.0
 40
0.0
 40
0.0
 40
0.0
 40
0.1517980444
 40
0.2929881556
 40
0.3597374536
 40
0.4240474858
 40
0.5460017633
 40
0.6043352581
 40
0.6613307867
 40
0.7174028047
 40
0.7730016068
 40
0.8285978391
 40
0.8846722128
 40
0.9416802054
 40
1.0
 40
1.0
 40
1.0
 40
1.0
 10
42.8470407612
 20
34.0031694105
 30
0.0
 10
42.8470407612
 20
33.7204100176
 30
0.0
 10
42.8767787957
 20
33.1739972593
 30
0.0
 10
42.9996559077
 20
32.5128620843
 30
0.0
 10
43.1491363076
 20
32.0276994984
 30
0.0
 10
43.3241210135
 20
31.589724652
 30
0.0
 10
43.5479374974
 20
31.1891731673
 30
0.0
 10
43.8200819926
 20
30.8400448446
 30
0.0
 10
44.0422092516
 20
30.6098165525
 30
0.0
 10
44.284376185
 20
30.4086413938
 30
0.0
 10
44.5454602722
 20
30.2373760367
 30
0.0
 10
44.8243129295
 20
30.0968812148
 30
0.0
 10
45.1196553337
 20
29.9877413683
 30
0.0
 10
45.4300593695
 20
29.9104981026
 30
0.0
 10
45.6432663432
 20
29.8807740734
 30
0.0
 10
45.7514697726
 20
29.871108544
 30
0.0
  0
SPLINE
  5
26E
100
AcDbEntity
  8
0
100
AcDbSpline
 62
7
  6
BYLAYER
 70
0
 71
3
 72
11
 73
7
 74
0
 42
0.0000001
 43
0.0000001
 44
0.0000000001
 40
0.0
 40
0.0
 40
0.0
 40
0.0
 40
0.2253150322
 40
0.4658818245
 40
0.7238104497
 40
1.0
 40
1.0
 40
1.0
 40
1.0
 10
45.7514697726
 20
29.871108544
 30
0.0
 10
45.9608029734
 20
29.8524093567
 30
0.0
 10
46.3980170774
 20
29.8551746077
 30
0.0
 10
47.0657688307
 20
29.9703593194
 30
0.0
 10
47.7551803964
 20
30.1937625959
 30
0.0
 10
48.2076337906
 20
30.4053852949
 30
0.0
 10
48.4349445597
 20
30.5266219158
 30
0.0
  0
SPLINE
  5
26F
100
AcDbEntity
  8
0
100
AcDbSpline
 62
7
  6
BYLAYER
 70
0
 71
3
 72
11
 73
7
 74
0
 42
0.0000001
 43
0.0000001
 44
0.0000000001
 40
0.0
 40
0.0
 40
0.0
 40
0.0
 40
0.247773413
 40
0.4973923449
 40
0.7482965168
 40
1.0
 40
1.0
 40
1.0
 40
1.0
 10
45.7514697726
 20
41.4889560011
 30
0.0
 10
45.5322352019
 20
41.2162235846
 30
0.0
 10
45.0749141419
 20
40.6823396927
 30
0.0
 10
44.3406225923
 20
39.9215716673
 30
0.0
 10
43.5631848652
 20
39.1969468612
 30
0.0
 10
43.0222481933
 20
38.7369868297
 30
0.0
 10
42.7471659263
 20
38.5118386308
 30
0.0
  0
SPLINE
  5
270
100
AcDbEntity
  8
0
100
AcDbSpline
 62
7
  6
BYLAYER
 70
0
 71
3
 72
11
 73
7
 74
0
 42
0.0000001
 43
0.0000001
 44
0.0000000001
 40
0.0
 40
0.0
 40
0.0
 40
0.0
 40
0.2597138449
 40
0.5138055923
 40
0.7609569878
 40
1.0
 40
1.0
 40
1.0
 40
1.0
 10
42.4296051463
 20
37.6933671793
 30
0.0
 10
42.4933583543
 20
37.3777379087
 30
0.0
 10
42.609294323
 20
36.7511731375
 30
0.0
 10
42.7427300363
 20
35.8168660842
 30
0.0
 10
42.8270361636
 20
34.9024829099
 30
0.0
 10
42.8470407612
 20
34.2995444714
 30
0.0
 10
42.8470407612
 20
34.0031694105
 30
0.0
  0
SPLINE
  5
271
100
AcDbEntity
  8
0
100
AcDbSpline
 62
7
  6
BYLAYER
 70
0
 71
3
 72
20
 73
16
 74
0
 42
0.0000001
 43
0.0000001
 44
0.0000000001
 40
0.0
 40
0.0
 40
0.0
 40
0.0
 40
0.1503184306
 40
0.2903063494
 40
0.4205270632
 40
0.4824182503
 40
0.5424438462
 40
0.6009095031
 40
0.6581723241
 40
0.7146302087
 40
0.770709727
 40
0.8268546515
 40
0.8835151147
 40
0.9411135215
 40
1.0
 40
1.0
 40
1.0
 40
1.0
 10
54.4605403205
 20
40.9635155093
 30
0.0
 10
54.4515456431
 20
41.2307137983
 30
0.0
 10
54.4059771614
 20
41.7465193929
 30
0.0
 10
54.2440053737
 20
42.4789686117
 30
0.0
 10
54.0306676492
 20
43.0328683747
 30
0.0
 10
53.8154837696
 20
43.4269253716
 30
0.0
 10
53.6361042314
 20
43.6935106426
 30
0.0
 10
53.4366944196
 20
43.9349130397
 30
0.0
 10
53.2180521287
 20
44.1501468065
 30
0.0
 10
52.9810259216
 20
44.3382340031
 30
0.0
 10
52.7266432904
 20
44.4984095566
 30
0.0
 10
52.4559370156
 20
44.6299368171
 30
0.0
 10
52.1700546817
 20
44.7323125951
 30
0.0
 10
51.870279191
 20
44.8050666833
 30
0.0
 10
51.6646452854
 20
44.8333633166
 30
0.0
 10
51.5603277953
 20
44.8426817251
 30
0.0
  0
SPLINE
  5
272
100
AcDbEntity
  8
0
100
AcDbSpline
 62
7
  6
BYLAYER
 70
0
 71
3
 72
15
 73
11
 74
0
 42
0.0000001
 43
0.0000001
 44
0.0000000001
 40
0.0
 40
0.0
 40
0.0
 40
0.0
 40
0.148541072
 40
0.2895046219
 40
0.4227341418
 40
0.548638914
 40
0.667996025
 40
0.7819381288
 40
0.8919876537
 40
1.0
 40
1.0
 40
1.0
 40
1.0
 10
25.8629239035
 20
55.4151421186
 30
0.0
 10
25.9982034223
 20
55.4932453189
 30
0.0
 10
26.2683594086
 20
55.6346258866
 30
0.0
 10
26.6804043489
 20
55.8033474663
 30
0.0
 10
27.0851757212
 20
55.9213277328
 30
0.0
 10
27.4787237332
 20
55.9873531494
 30
0.0
 10
27.8574397433
 20
56.0005008348
 30
0.0
 10
28.2176999521
 20
55.960357359
 30
0.0
 10
28.5556385907
 20
55.8668880128
 30
0.0
 10
28.7645028922
 20
55.7691008669
 30
0.0
 10
28.8628674004
 20
55.7122997233
 30
0.0
  0
SPLINE
  5
273
100
AcDbEntity
  8
0
100
AcDbSpline
 62
7
  6
BYLAYER
 70
0
 71
3
 72
14
 73
10
 74
0
 42
0.0000001
 43
0.0000001
 44
0.0000000001
 40
0.0
 40
0.0
 40
0.0
 40
0.0
 40
0.2892707714
 40
0.4225381844
 40
0.548497032
 40
0.6678942071
 40
0.7818681538
 40
0.8919523281
 40
1.0
 40
1.0
 40
1.0
 40
1.0
 10
58.5313448722
 20
36.5543474923
 30
0.0
 10
58.5313426823
 20
36.8584582105
 30
0.0
 10
58.4958201841
 20
37.3048524342
 30
0.0
 10
58.3586184163
 20
37.8659429366
 30
0.0
 10
58.2189699724
 20
38.2398203855
 30
0.0
 10
58.041037154
 20
38.574409414
 30
0.0
 10
57.8260862784
 20
38.8663013153
 30
0.0
 10
57.576192925
 20
39.1122606153
 30
0.0
 10
57.3870462503
 20
39.24421829
 30
0.0
 10
57.2886783513
 20
39.3010213916
 30
0.0
  0
SPLINE
  5
274
100
AcDbEntity
  8
0
100
AcDbSpline
 62
7
  6
BYLAYER
 70
0
 71
3
 72
25
 73
21
 74
0
 42
0.0000001
 43
0.0000001
 44
0.0000000001
 40
0.0
 40
0.0
 40
0.0
 40
0.0
 40
0.021332063
 40
0.0428928007
 40
0.0648982116
 40
0.0875436935
 40
0.1353188016
 40
0.1872195546
 40
0.2436575672
 40
0.3046050679
 40
0.3696916555
 40
0.4382881123
 40
0.5095744853
 40
0.5825987779
 40
0.6563291973
 40
0.7297056401
 40
0.8016840009
 40
0.8712706163
 40
0.937626583
 40
1.0
 40
1.0
 40
1.0
 40
1.0
 10
8.5843756912
 20
54.7182124184
 30
0.0
 10
8.5229474613
 20
54.7536790657
 30
0.0
 10
8.403881561
 20
54.833023938
 30
0.0
 10
8.2404359663
 20
54.9747340233
 30
0.0
 10
8.0926287061
 20
55.1386397448
 30
0.0
 10
7.9144522145
 20
55.3897785627
 30
0.0
 10
7.7360358388
 20
55.7587667918
 30
0.0
 10
7.6000440255
 20
56.2622108642
 30
0.0
 10
7.5394569022
 20
56.823815686
 30
0.0
 10
7.5549464805
 20
57.4318849105
 30
0.0
 10
7.645814959
 20
58.0739198162
 30
0.0
 10
7.81005078
 20
58.7364965867
 30
0.0
 10
8.0441548806
 20
59.4056340477
 30
0.0
 10
8.3431216578
 20
60.0671223411
 30
0.0
 10
8.7005588622
 20
60.7068773579
 30
0.0
 10
9.108865627
 20
61.3112554188
 30
0.0
 10
9.5593459157
 20
61.8673148042
 30
0.0
 10
10.0424358962
 20
62.3633760107
 30
0.0
 10
10.5478474636
 20
62.7886425335
 30
0.0
 10
10.9047173369
 20
63.0271722964
 30
0.0
 10
11.0843306479
 20
63.1308714709
 30
0.0
  0
SPLINE
  5
275
100
AcDbEntity
  8
0
100
AcDbSpline
 62
7
  6
BYLAYER
 70
0
 71
3
 72
15
 73
11
 74
0
 42
0.0000001
 43
0.0000001
 44
0.0000000001
 40
0.0
 40
0.0
 40
0.0
 40
0.0
 40
0.148525264
 40
0.2894992353
 40
0.4227398305
 40
0.5486442889
 40
0.6679961009
 40
0.781940625
 40
0.8919884873
 40
1.0
 40
1.0
 40
1.0
 40
1.0
 10
11.0843306479
 20
63.1308714709
 30
0.0
 10
11.19705142
 20
63.1959504505
 30
0.0
 10
11.4221814504
 20
63.3137556362
 30
0.0
 10
11.7655510229
 20
63.4543721496
 30
0.0
 10
12.1028784948
 20
63.5526894245
 30
0.0
 10
12.4308384291
 20
63.6077286061
 30
0.0
 10
12.7464317098
 20
63.6186447413
 30
0.0
 10
13.046648444
 20
63.5852285322
 30
0.0
 10
13.3282554467
 20
63.5073052649
 30
0.0
 10
13.5023127931
 20
63.4258347679
 30
0.0
 10
13.5842856047
 20
63.3785063522
 30
0.0
  0
SPLINE
  5
276
100
AcDbEntity
  8
0
100
AcDbSpline
 62
7
  6
BYLAYER
 70
0
 71
3
 72
15
 73
11
 74
0
 42
0.0000001
 43
0.0000001
 44
0.0000000001
 40
0.0
 40
0.0
 40
0.0
 40
0.0
 40
0.1141537088
 40
0.237325408
 40
0.366975309
 40
0.4999975707
 40
0.6330231669
 40
0.7626742996
 40
0.8858461539
 40
1.0
 40
1.0
 40
1.0
 40
1.0
 10
54.9251336071
 20
29.5732702776
 30
0.0
 10
55.1720086748
 20
29.7158028137
 30
0.0
 10
55.6596341145
 20
30.057623365
 30
0.0
 10
56.3305812119
 20
30.6853481116
 30
0.0
 10
56.9488930919
 20
31.4273649321
 30
0.0
 10
57.4912838965
 20
32.2558419458
 30
0.0
 10
57.9375632772
 20
33.1398119833
 30
0.0
 10
58.2710063631
 20
34.0463091251
 30
0.0
 10
58.4791499827
 20
34.9412345151
 30
0.0
 10
58.5313583337
 20
35.5344417691
 30
0.0
 10
58.5313562396
 20
35.8195084602
 30
0.0
  0
SPLINE
  5
277
100
AcDbEntity
  8
0
100
AcDbSpline
 62
7
  6
BYLAYER
 70
0
 71
3
 72
14
 73
10
 74
0
 42
0.0000001
 43
0.0000001
 44
0.0000000001
 40
0.0
 40
0.0
 40
0.0
 40
0.0
 40
0.1080476719
 40
0.2181318462
 40
0.3321057929
 40
0.451502968
 40
0.5774618156
 40
0.7107292286
 40
1.0
 40
1.0
 40
1.0
 40
1.0
 10
22.8629804066
 20
45.3199555082
 30
0.0
 10
22.7646125077
 20
45.3767586098
 30
0.0
 10
22.575465833
 20
45.5087162845
 30
0.0
 10
22.3255724796
 20
45.7546755846
 30
0.0
 10
22.1106216039
 20
46.0465674859
 30
0.0
 10
21.9326887856
 20
46.3811565144
 30
0.0
 10
21.7930403416
 20
46.7550339633
 30
0.0
 10
21.6558385739
 20
47.3161244657
 30
0.0
 10
21.6203160756
 20
47.7625186894
 30
0.0
 10
21.6203138857
 20
48.0666294076
 30
0.0
  0
SPLINE
  5
278
100
AcDbEntity
  8
0
100
AcDbSpline
 62
7
  6
BYLAYER
 70
0
 71
3
 72
15
 73
11
 74
0
 42
0.0000001
 43
0.0000001
 44
0.0000000001
 40
0.0
 40
0.0
 40
0.0
 40
0.0
 40
0.1080123463
 40
0.2180618712
 40
0.332003975
 40
0.451361086
 40
0.5772658582
 40
0.7104953781
 40
0.851458928
 40
1.0
 40
1.0
 40
1.0
 40
1.0
 10
51.2887913576
 20
28.9086771765
 30
0.0
 10
51.3871558657
 20
28.851876033
 30
0.0
 10
51.5960201673
 20
28.7540888871
 30
0.0
 10
51.9339588059
 20
28.6606195409
 30
0.0
 10
52.2942190146
 20
28.6204760651
 30
0.0
 10
52.6729350247
 20
28.6336237504
 30
0.0
 10
53.0664830367
 20
28.6996491671
 30
0.0
 10
53.471254409
 20
28.8176294335
 30
0.0
 10
53.8832993493
 20
28.9863510133
 30
0.0
 10
54.1534553357
 20
29.1277315809
 30
0.0
 10
54.2887348544
 20
29.2058347813
 30
0.0
  0
SPLINE
  5
279
100
AcDbEntity
  8
0
100
AcDbSpline
 62
7
  6
BYLAYER
 70
0
 71
3
 72
15
 73
11
 74
0
 42
0.0000001
 43
0.0000001
 44
0.0000000001
 40
0.0
 40
0.0
 40
0.0
 40
0.0
 40
0.1141533074
 40
0.2373235594
 40
0.366972634
 40
0.4999968712
 40
0.633019369
 40
0.7626705123
 40
0.8858445816
 40
1.0
 40
1.0
 40
1.0
 40
1.0
 10
21.6203025183
 20
48.8014684416
 30
0.0
 10
21.6203004879
 20
49.086533778
 30
0.0
 10
21.6725080473
 20
49.6797356586
 30
0.0
 10
21.8806480199
 20
50.5746510328
 30
0.0
 10
22.2140843454
 20
51.4811371522
 30
0.0
 10
22.6603562753
 20
52.3651019878
 30
0.0
 10
23.2027440133
 20
53.1935812693
 30
0.0
 10
23.8210578248
 20
53.9356090444
 30
0.0
 10
24.4920134367
 20
54.5633442517
 30
0.0
 10
24.9796463941
 20
54.9051719564
 30
0.0
 10
25.2265251509
 20
55.0477066222
 30
0.0
  0
SPLINE
  5
27A
100
AcDbEntity
  8
0
100
AcDbSpline
 62
7
  6
BYLAYER
 70
0
 71
3
 72
24
 73
20
 74
0
 42
0.0000001
 43
0.0000001
 44
0.0000000001
 40
0.0
 40
0.0
 40
0.0
 40
0.0
 40
0.0623809267
 40
0.1287351717
 40
0.1983275049
 40
0.2703105488
 40
0.3436930144
 40
0.4174302405
 40
0.4904600428
 40
0.5617519129
 40
0.6303547837
 40
0.6954479233
 40
0.7564003143
 40
0.8128419503
 40
0.864746824
 40
0.9125259471
 40
0.957104251
 40
0.9786662009
 40
1.0
 40
1.0
 40
1.0
 40
1.0
 10
54.2887348544
 20
39.0038637869
 30
0.0
 10
54.0731888679
 20
38.8794189963
 30
0.0
 10
53.6449479347
 20
38.593204979
 30
0.0
 10
53.0384768067
 20
38.0828771215
 30
0.0
 10
52.4587810935
 20
37.487629943
 30
0.0
 10
51.9182034523
 20
36.8203568557
 30
0.0
 10
51.4282184695
 20
36.0951087384
 30
0.0
 10
50.9992810265
 20
35.3273996487
 30
0.0
 10
50.6405312518
 20
34.5336010998
 30
0.0
 10
50.3596119326
 20
33.7306281282
 30
0.0
 10
50.1625053572
 20
32.9355280994
 30
0.0
 10
50.0534411497
 20
32.1650775208
 30
0.0
 10
50.0348847072
 20
31.4353738697
 30
0.0
 10
50.107567423
 20
30.7614930062
 30
0.0
 10
50.2709045392
 20
30.1572207873
 30
0.0
 10
50.5228332087
 20
29.6354918607
 30
0.0
 10
50.8078536613
 20
29.2755251474
 30
0.0
 10
51.072181046
 20
29.0464463259
 30
0.0
 10
51.2150797559
 20
28.9512423593
 30
0.0
 10
51.2887913576
 20
28.9086771765
 30
0.0
  0
SPLINE
  5
27B
100
AcDbEntity
  8
0
100
AcDbSpline
 62
7
  6
BYLAYER
 70
0
 71
3
 72
29
 73
25
 74
0
 42
0.0000001
 43
0.0000001
 44
0.0000000001
 40
0.0
 40
0.0
 40
0.0
 40
0.0
 40
0.0662128495
 40
0.1374257289
 40
0.2123623681
 40
0.2894714983
 40
0.3670419017
 40
0.4433312237
 40
0.5166842201
 40
0.5856639433
 40
0.6491952171
 40
0.706742088
 40
0.7333478168
 40
0.758619673
 40
0.7827441686
 40
0.8059738921
 40
0.8286249693
 40
0.8510564836
 40
0.8736469129
 40
0.896761496
 40
0.9207250933
 40
0.9457974054
 40
0.9721770181
 40
1.0
 40
1.0
 40
1.0
 40
1.0
 10
54.9251336071
 20
37.9015949324
 30
0.0
 10
54.6940990744
 20
37.7682078789
 30
0.0
 10
54.2370204007
 20
37.4515322718
 30
0.0
 10
53.6033157642
 20
36.8736254804
 30
0.0
 10
53.0133855918
 20
36.1919617052
 30
0.0
 10
52.4868016951
 20
35.4291898633
 30
0.0
 10
52.0408977385
 20
34.6104156189
 30
0.0
 10
51.6904229121
 20
33.762738592
 30
0.0
 10
51.4469493743
 20
32.9141146372
 30
0.0
 10
51.3185666097
 20
32.0921462765
 30
0.0
 10
51.3096799618
 20
31.3235463116
 30
0.0
 10
51.4056755084
 20
30.7320662913
 30
0.0
 10
51.5467569843
 20
30.3134404599
 30
0.0
 10
51.6788219223
 20
30.0362624265
 30
0.0
 10
51.8388267815
 20
29.790162428
 30
0.0
 10
52.0256484424
 20
29.5774495018
 30
0.0
 10
52.2377003818
 20
29.4002087595
 30
0.0
 10
52.4730559199
 20
29.2602359214
 30
0.0
 10
52.7294449674
 20
29.1589447395
 30
0.0
 10
53.0043473951
 20
29.0971311228
 30
0.0
 10
53.2951718653
 20
29.0752491145
 30
0.0
 10
53.5993319667
 20
29.0930886898
 30
0.0
 10
53.9142333814
 20
29.1504542576
 30
0.0
 10
54.1239843372
 20
29.2128695937
 30
0.0
 10
54.2297731047
 20
29.2499536572
 30
0.0
  0
SPLINE
  5
27C
100
AcDbEntity
  8
0
100
AcDbSpline
 62
7
  6
BYLAYER
 70
0
 71
3
 72
9
 73
5
 74
0
 42
0.0000001
 43
0.0000001
 44
0.0000000001
 40
0.0
 40
0.0
 40
0.0
 40
0.0
 40
0.2404078707
 40
1.0
 40
1.0
 40
1.0
 40
1.0
 10
54.2297731047
 20
29.2499536572
 30
0.0
 10
54.2878136583
 20
29.2702996697
 30
0.0
 10
54.5269928261
 20
29.3612947469
 30
0.0
 10
54.7568421551
 20
29.4761077426
 30
0.0
 10
54.9251336071
 20
29.5732702776
 30
0.0
  0
SPLINE
  5
27D
100
AcDbEntity
  8
0
100
AcDbSpline
 62
7
  6
BYLAYER
 70
0
 71
3
 72
9
 73
5
 74
0
 42
0.0000001
 43
0.0000001
 44
0.0000000001
 40
0.0
 40
0.0
 40
0.0
 40
0.0
 40
0.2599540854
 40
1.0
 40
1.0
 40
1.0
 40
1.0
 10
58.5313562396
 20
35.8195084602
 30
0.0
 10
58.5313557514
 20
35.8859682847
 30
0.0
 10
58.5260355293
 20
36.1415657673
 30
0.0
 10
58.4988271117
 20
36.3969741382
 30
0.0
 10
58.4637651371
 20
36.5828970001
 30
0.0
  0
SPLINE
  5
27E
100
AcDbEntity
  8
0
100
AcDbSpline
 62
7
  6
BYLAYER
 70
0
 71
3
 72
19
 73
15
 74
0
 42
0.0000001
 43
0.0000001
 44
0.0000000001
 40
0.0
 40
0.0
 40
0.0
 40
0.0
 40
0.1335447048
 40
0.2549568652
 40
0.312326078
 40
0.3682331691
 40
0.4234350604
 40
0.478739355
 40
0.5349469033
 40
0.5927987469
 40
0.7155804531
 40
0.7815983372
 40
0.851001316
 40
1.0
 40
1.0
 40
1.0
 40
1.0
 10
58.4637651371
 20
36.5828970001
 30
0.0
 10
58.4258719286
 20
36.7838330242
 30
0.0
 10
58.3200593589
 20
37.1626145909
 30
0.0
 10
58.0897291691
 20
37.5877337204
 30
0.0
 10
57.8573738728
 20
37.8632596495
 30
0.0
 10
57.6640781083
 20
38.0354825198
 30
0.0
 10
57.4501208262
 20
38.1756017166
 30
0.0
 10
57.2171890079
 20
38.2822994934
 30
0.0
 10
56.9672788229
 20
38.3548965331
 30
0.0
 10
56.6073072349
 20
38.406413409
 30
0.0
 10
56.225935164
 20
38.3843446488
 30
0.0
 10
55.8395576604
 20
38.298745972
 30
0.0
 10
55.4251264905
 20
38.1629666309
 30
0.0
 10
55.1227091835
 20
38.0156645637
 30
0.0
 10
54.9251336071
 20
37.9015949324
 30
0.0
  0
SPLINE
  5
27F
100
AcDbEntity
  8
0
100
AcDbSpline
 62
7
  6
BYLAYER
 70
0
 71
3
 72
9
 73
5
 74
0
 42
0.0000001
 43
0.0000001
 44
0.0000000001
 40
0.0
 40
0.0
 40
0.0
 40
0.0
 40
0.2439417153
 40
1.0
 40
1.0
 40
1.0
 40
1.0
 10
21.6203138857
 20
48.0666294076
 30
0.0
 10
21.6203134717
 20
48.1241253294
 30
0.0
 10
21.6238984876
 20
48.3598135263
 30
0.0
 10
21.6414537237
 20
48.5952358998
 30
0.0
 10
21.6615947957
 20
48.7722934173
 30
0.0
  0
SPLINE
  5
280
100
AcDbEntity
  8
0
100
AcDbSpline
 62
7
  6
BYLAYER
 70
0
 71
3
 72
15
 73
11
 74
0
 42
0.0000001
 43
0.0000001
 44
0.0000000001
 40
0.0
 40
0.0
 40
0.0
 40
0.0
 40
0.1175912741
 40
0.2414453799
 40
0.3696738397
 40
0.5001396411
 40
0.630584721
 40
0.7587569885
 40
0.882510076
 40
1.0
 40
1.0
 40
1.0
 40
1.0
 10
21.6615947957
 20
48.7722934173
 30
0.0
 10
21.6944533045
 20
49.0611482504
 30
0.0
 10
21.79937806
 20
49.6503829044
 30
0.0
 10
22.0562826654
 20
50.5290336703
 30
0.0
 10
22.4108946795
 20
51.4074159677
 30
0.0
 10
22.8541162118
 20
52.2628581536
 30
0.0
 10
23.3745544789
 20
53.0734784187
 30
0.0
 10
23.95892109
 20
53.8184558881
 30
0.0
 10
24.5921051411
 20
54.4787098081
 30
0.0
 10
25.0503002085
 20
54.8629976909
 30
0.0
 10
25.2842109595
 20
55.0352095723
 30
0.0
  0
SPLINE
  5
281
100
AcDbEntity
  8
0
100
AcDbSpline
 62
7
  6
BYLAYER
 70
0
 71
3
 72
9
 73
5
 74
0
 42
0.0000001
 43
0.0000001
 44
0.0000000001
 40
0.0
 40
0.0
 40
0.0
 40
0.0
 40
0.2560879583
 40
1.0
 40
1.0
 40
1.0
 40
1.0
 10
25.2842109595
 20
55.0352095723
 30
0.0
 10
25.3318133164
 20
55.0702558086
 30
0.0
 10
25.5194548844
 20
55.2046912467
 30
0.0
 10
25.7142142972
 20
55.3292850998
 30
0.0
 10
25.8629239035
 20
55.4151421186
 30
0.0
  0
SPLINE
  5
282
100
AcDbEntity
  8
0
100
AcDbSpline
 62
7
  6
BYLAYER
 70
0
 71
3
 72
15
 73
11
 74
0
 42
0.0000001
 43
0.0000001
 44
0.0000000001
 40
0.0
 40
0.0
 40
0.0
 40
0.0
 40
0.1080123463
 40
0.2180618712
 40
0.332003975
 40
0.451361086
 40
0.5772658582
 40
0.7104953781
 40
0.851458928
 40
1.0
 40
1.0
 40
1.0
 40
1.0
 10
57.2886783513
 20
39.3010213916
 30
0.0
 10
57.1903138431
 20
39.3578225352
 30
0.0
 10
56.9814495416
 20
39.4556096811
 30
0.0
 10
56.643510903
 20
39.5490790272
 30
0.0
 10
56.2832506943
 20
39.5892225031
 30
0.0
 10
55.9045346842
 20
39.5760748177
 30
0.0
 10
55.5109866721
 20
39.510049401
 30
0.0
 10
55.1062152999
 20
39.3920691346
 30
0.0
 10
54.6941703596
 20
39.2233475549
 30
0.0
 10
54.4240143732
 20
39.0819669872
 30
0.0
 10
54.2887348544
 20
39.0038637869
 30
0.0
  0
ENDSEC
  0
SECTION
  2
OBJECTS
  0
DICTIONARY
  5
C
100
AcDbDictionary
280
0
281
1
  3
ACAD_GROUP
350
D
  3
ACAD_MLINESTYLE
350
17
  3
ACAD_LAYOUT
350
1A
  3
ACAD_PLOTSETTINGS
350
19
  3
ACAD_PLOTSTYLENAME
350
E
  0
DICTIONARY
  5
D
102
{ACAD_REACTORS
330
C
102
}
100
AcDbDictionary
280
0
281
1
  0
ACDBDICTIONARYWDFLT
  5
E
102
{ACAD_REACTORS
330
C
102
}
100
AcDbDictionary
281
1
  3
Normal
350
F
100
AcDbDictionaryWithDefault
340
F
  0
DICTIONARY
  5
17
102
{ACAD_REACTORS
330
C
102
}
100
AcDbDictionary
280
0
281
1
  3
Standard
350
18
  0
DICTIONARY
  5
19
102
{ACAD_REACTORS
330
C
102
}
100
AcDbDictionary
281
1
  0
DICTIONARY
  5
1A
102
{ACAD_REACTORS
330
C
102
}
100
AcDbDictionary
281
1
  3
Model
350
283
  3
Layout1
350
284
  0
ACDBPLACEHOLDER
  5
F
102
{ACAD_REACTORS
330
E
102
}
  0
MLINESTYLE
  5
18
102
{ACAD_REACTORS
330
17
102
}
100
AcDbMlineStyle
  2
STANDARD
 70
0
  3

 62
256
 51
90.0
 52
90.0
 71
2
 49
0.5
 62
256
  6
BYLAYER
 49
-0.5
 62
256
  6
BYLAYER
  0
LAYOUT
  5
283
102
{ACAD_REACTORS
330
1A
102
}
100
AcDbPlotSettings
  1

  2
none_device
  4

  6

 40
0.0
 41
0.0
 42
0.0
 43
0.0
 44
210.0
 45
297.0
 46
0.0
 47
0.0
 48
0.0
 49
0.0
140
0.0
141
0.0
142
1.0
143
1.0
 70
1024
 72
1
 73
0
 74
0
  7

 75
0
147
1.0
148
0.0
149
0.0
100
AcDbLayout
  1
Model
 70
0
 71
0
 10
0.0
 20
0.0
 11
210.0
 21
297.0
 12
0.0
 22
0.0
 32
0.0
 14
0.0
 24
0.0
 34
0.0
 15
0.0
 25
0.0
 35
0.0
146
0.0
 13
0.0
 23
0.0
 33
0.0
 16
1.0
 26
0.0
 36
0.0
 17
0.0
 27
1.0
 37
0.0
 76
0
330
210
345
0
346
0
  0
LAYOUT
  5
284
102
{ACAD_REACTORS
330
1A
102
}
100
AcDbPlotSettings
  1

  2
none_device
  4

  6

 40
0.0
 41
0.0
 42
0.0
 43
0.0
 44
210.0
 45
297.0
 46
0.0
 47
0.0
 48
0.0
 49
0.0
140
0.0
141
0.0
142
1.0
143
1.0
 70
0
 72
1
 73
0
 74
0
  7

 75
0
147
1.0
148
0.0
149
0.0
100
AcDbLayout
  1
Layout1
 70
0
 71
1
 10
0.0
 20
0.0
 11
210.0
 21
297.0
 12
0.0
 22
0.0
 32
0.0
 14
0.0
 24
0.0
 34
0.0
 15
0.0
 25
0.0
 35
0.0
146
0.0
 13
0.0
 23
0.0
 33
0.0
 16
1.0
 26
0.0
 36
0.0
 17
0.0
 27
1.0
 37
0.0
 76
0
330
211
345
0
346
0
  0
ENDSEC
  0
EOF
