999
DXF file: C:\Users\sesa63760\Dev\_Creo\CAD\MCADID0000549_3D-CAD\drw0001_1.dxf
999
Pro/ENGINEER 2019471 by Parametric Technology Corporation
  0
SECTION
  2
HEADER
  9
$ACADVER
  1
AC1024
  9
$DWGCODEPAGE
  3
ANSI_1252
  9
$EXTMAX
 10
212.9839371379
 20
301.2201396664
 30
0.0
  9
$EXTMIN
 10
0.0
 20
0.0
 30
0.0
  9
$LIMMIN
 10
0.0
 20
0.0
  9
$LIMMAX
 10
212.9839371379
 20
301.2201396664
  9
$VIEWCTR
 10
106.4919685689
 20
150.6100698332
  9
$VIEWSIZE
 40
301.2201396664
  9
$CLAYER
  8
0
  9
$LTSCALE
 40
19.6350905857
  9
$CELTYPE
  6
BYLAYER
  9
$DIMSCALE
 40
1.0
  9
$DIMASZ
 40
2.5355230612
  9
$DIMEXO
 40
1.0
  9
$DIMDLI
 40
13.5660625865
  9
$DIMEXE
 40
1.0
  9
$DIMCEN
 40
3.2130148231
  9
$DIMLFAC
 40
1.0
  9
$DIMBLK
  1
_FILLED
  9
$DIMALT
 70
0
  9
$DIMALTF
 40
0.0393700787
  9
$DIMTXT
 40
3.5497322856
  9
$DIMTOL
 70
1
  9
$DIMLIM
 70
0
  9
$DIMTFAC
 40
1.0
  9
$DIMTP
 40
0.01
  9
$DIMTM
 40
0.01
  9
$DIMGAP
 40
0.625
  9
$DIMDSEP
 70
46
  9
$AUNITS
 70
0
  9
$PDMODE
 70
3
  9
$PDSIZE
 40
0.3125
  9
$HANDSEED
  5
328
  9
$TILEMODE
 70
1
  9
$MEASUREMENT
 70
1
  9
$INSUNITS
 70
4
  0
ENDSEC
  0
SECTION
  2
CLASSES
  0
CLASS
  1
ACDBDICTIONARYWDFLT
  2
AcDbDictionaryWithDefault
  3
AutoCAD 2000
 90
0
 91
1
280
0
281
0
  0
CLASS
  1
ACDBPLACEHOLDER
  2
AcDbPlaceHolder
  3
AutoCAD 2000
 90
0
 91
1
280
0
281
0
  0
CLASS
  1
LAYOUT
  2
AcDbLayout
  3
AutoCAD 2000
 90
0
 91
0
280
0
281
0
  0
ENDSEC
  0
SECTION
  2
TABLES
  0
TABLE
  2
VPORT
  5
8
100
AcDbSymbolTable
 70
2
  0
VPORT
  5
1F4
100
AcDbSymbolTableRecord
100
AcDbViewportTableRecord
  2
*ACTIVE
 70
0
 10
0.0
 20
0.0
 11
1.0
 21
1.0
 12
106.4919685689
 22
150.6100698332
 13
0.0
 23
0.0
 14
1.0
 24
1.0
 15
0.0
 25
0.0
 16
0.0
 26
0.0
 36
1.0
 17
0.0
 27
0.0
 37
0.0
 40
301.2201396664
 41
0.7070707071
 42
50.0
 43
0.0
 44
0.0
 50
0.0
 51
0.0
 71
0
 72
100
 73
1
 74
1
 75
0
 76
0
 77
0
 78
0
  0
ENDTAB
  0
TABLE
  2
LTYPE
  5
5
100
AcDbSymbolTable
 70
6
  0
LTYPE
  5
14
100
AcDbSymbolTableRecord
100
AcDbLinetypeTableRecord
  2
BYBLOCK
 70
0
  3

 72
65
 73
0
 40
0.0
  0
LTYPE
  5
15
100
AcDbSymbolTableRecord
100
AcDbLinetypeTableRecord
  2
BYLAYER
 70
0
  3

 72
65
 73
0
 40
0.0
  0
LTYPE
  5
16
100
AcDbSymbolTableRecord
100
AcDbLinetypeTableRecord
  2
CONTINUOUS
 70
64
  3
Solid line
 72
65
 73
0
 40
0.0
  0
LTYPE
  5
1F5
100
AcDbSymbolTableRecord
100
AcDbLinetypeTableRecord
  2
CENTER
 70
64
  3
____ _ ____ _ ____ _ ____ _ ____ _ ____ _ ____
 72
65
 73
4
 40
0.6
 49
0.375
 74
0
 49
-0.075
 74
0
 49
0.075
 74
0
 49
-0.075
 74
0
  0
LTYPE
  5
1F6
100
AcDbSymbolTableRecord
100
AcDbLinetypeTableRecord
  2
HIDDEN
 70
64
  3
- - - - - - - - - - - - - - - - - - - -
 72
65
 73
2
 40
0.2
 49
0.1
 74
0
 49
-0.1
 74
0
  0
LTYPE
  5
1F7
100
AcDbSymbolTableRecord
100
AcDbLinetypeTableRecord
  2
PHANTOM
 70
64
  3
_____ _ _ _____ _ _ _____ _ _ _____
 72
65
 73
6
 40
0.8
 49
0.45
 74
0
 49
-0.05
 74
0
 49
0.1
 74
0
 49
-0.05
 74
0
 49
0.1
 74
0
 49
-0.05
 74
0
  0
LTYPE
  5
1F8
100
AcDbSymbolTableRecord
100
AcDbLinetypeTableRecord
  2
DOT
 70
64
  3
. . . . . . . . . . . . . . . . . . . .
 72
65
 73
2
 40
0.2
 49
0.1
 74
0
 49
-0.1
 74
0
  0
LTYPE
  5
1F9
100
AcDbSymbolTableRecord
100
AcDbLinetypeTableRecord
  2
DASHED
 70
64
  3
- - - - - - - - - - - - - - - - - - - -
 72
65
 73
2
 40
0.2
 49
0.1
 74
0
 49
-0.1
 74
0
  0
ENDTAB
  0
TABLE
  2
LAYER
  5
2
100
AcDbSymbolTable
 70
36
  0
LAYER
  5
10
100
AcDbSymbolTableRecord
100
AcDbLayerTableRecord
  2
0
 70
0
 62
7
  6
CONTINUOUS
370
-3
390
F
  0
LAYER
  5
1FA
100
AcDbSymbolTableRecord
100
AcDbLayerTableRecord
  2
DEFAULT_1
 70
0
 62
7
  6
CENTER
370
-3
390
F
  0
LAYER
  5
1FB
100
AcDbSymbolTableRecord
100
AcDbLayerTableRecord
  2
DEFAULT_2
 70
0
 62
8
  6
HIDDEN
370
-3
390
F
  0
LAYER
  5
1FC
100
AcDbSymbolTableRecord
100
AcDbLayerTableRecord
  2
DEFAULT_3
 70
0
 62
7
  6
PHANTOM
370
-3
390
F
  0
LAYER
  5
1FD
100
AcDbSymbolTableRecord
100
AcDbLayerTableRecord
  2
00_COMPONENTS
 70
0
 62
7
  6
CONTINUOUS
370
-3
390
F
  0
LAYER
  5
1FE
100
AcDbSymbolTableRecord
100
AcDbLayerTableRecord
  2
01_1_DEFAULT_DATUMS
 70
0
 62
7
  6
CONTINUOUS
370
-3
390
F
  0
LAYER
  5
1FF
100
AcDbSymbolTableRecord
100
AcDbLayerTableRecord
  2
01_PLANES
 70
0
 62
7
  6
CONTINUOUS
370
-3
390
F
  0
LAYER
  5
200
100
AcDbSymbolTableRecord
100
AcDbLayerTableRecord
  2
02_COORD_SYS
 70
0
 62
7
  6
CONTINUOUS
370
-3
390
F
  0
LAYER
  5
201
100
AcDbSymbolTableRecord
100
AcDbLayerTableRecord
  2
03_AXES
 70
0
 62
7
  6
CONTINUOUS
370
-3
390
F
  0
LAYER
  5
202
100
AcDbSymbolTableRecord
100
AcDbLayerTableRecord
  2
04_POINTS
 70
0
 62
7
  6
CONTINUOUS
370
-3
390
F
  0
LAYER
  5
203
100
AcDbSymbolTableRecord
100
AcDbLayerTableRecord
  2
05_CURVES
 70
0
 62
7
  6
CONTINUOUS
370
-3
390
F
  0
LAYER
  5
204
100
AcDbSymbolTableRecord
100
AcDbLayerTableRecord
  2
06_SURFS
 70
0
 62
7
  6
CONTINUOUS
370
-3
390
F
  0
LAYER
  5
205
100
AcDbSymbolTableRecord
100
AcDbLayerTableRecord
  2
07_COSMETICS
 70
0
 62
7
  6
CONTINUOUS
370
-3
390
F
  0
LAYER
  5
206
100
AcDbSymbolTableRecord
100
AcDbLayerTableRecord
  2
10_NOTES
 70
0
 62
7
  6
CONTINUOUS
370
-3
390
F
  0
LAYER
  5
207
100
AcDbSymbolTableRecord
100
AcDbLayerTableRecord
  2
11_NOTES_PUB
 70
0
 62
7
  6
CONTINUOUS
370
-3
390
F
  0
LAYER
  5
208
100
AcDbSymbolTableRecord
100
AcDbLayerTableRecord
  2
13_REF_GTOL
 70
0
 62
7
  6
CONTINUOUS
370
-3
390
F
  0
LAYER
  5
209
100
AcDbSymbolTableRecord
100
AcDbLayerTableRecord
  2
16_MISC
 70
0
 62
7
  6
CONTINUOUS
370
-3
390
F
  0
LAYER
  5
20A
100
AcDbSymbolTableRecord
100
AcDbLayerTableRecord
  2
17_NO_PRINT
 70
0
 62
7
  6
CONTINUOUS
370
-3
390
F
  0
LAYER
  5
20B
100
AcDbSymbolTableRecord
100
AcDbLayerTableRecord
  2
18_DATUM_CAMS_JOINTS
 70
0
 62
7
  6
CONTINUOUS
370
-3
390
F
  0
LAYER
  5
20C
100
AcDbSymbolTableRecord
100
AcDbLayerTableRecord
  2
19_DATUM_FUNCTIONAL
 70
0
 62
7
  6
CONTINUOUS
370
-3
390
F
  0
LAYER
  5
20D
100
AcDbSymbolTableRecord
100
AcDbLayerTableRecord
  2
20_DATUM_KINEMATIC_SCHEME
 70
0
 62
7
  6
CONTINUOUS
370
-3
390
F
  0
ENDTAB
  0
TABLE
  2
STYLE
  5
3
100
AcDbSymbolTable
 70
1
  0
STYLE
  5
11
100
AcDbSymbolTableRecord
100
AcDbTextStyleTableRecord
  2
STANDARD
 70
0
 40
0.0
 41
0.8
 50
0.0
 71
0
 42
0.2
  3
txt
  4

  0
STYLE
  5
20E
100
AcDbSymbolTableRecord
100
AcDbTextStyleTableRecord
  2
TEXTSTYLE_1
 70
0
 40
0.0
 41
0.8
 50
0.0
 71
0
 42
0.2
  3
gdt
  4

  0
ENDTAB
  0
TABLE
  2
VIEW
  5
6
100
AcDbSymbolTable
 70
0
  0
ENDTAB
  0
TABLE
  2
UCS
  5
7
100
AcDbSymbolTable
 70
0
  0
ENDTAB
  0
TABLE
  2
APPID
  5
9
100
AcDbSymbolTable
 70
1
  0
APPID
  5
20F
100
AcDbSymbolTableRecord
100
AcDbRegAppTableRecord
  2
ACAD
 70
0
  0
ENDTAB
  0
TABLE
  2
BLOCK_RECORD
  5
1
100
AcDbSymbolTable
 70
0
  0
BLOCK_RECORD
  5
210
100
AcDbSymbolTableRecord
100
AcDbBlockTableRecord
  2
*Model_Space
  0
BLOCK_RECORD
  5
211
100
AcDbSymbolTableRecord
100
AcDbBlockTableRecord
  2
*Paper_Space
  0
BLOCK_RECORD
  5
212
100
AcDbSymbolTableRecord
100
AcDbBlockTableRecord
  2
_FILLED
  0
ENDTAB
  0
TABLE
  2
DIMSTYLE
  5
A
100
AcDbSymbolTable
 70
1
100
AcDbDimStyleTable
 71
0
  0
DIMSTYLE
105
213
100
AcDbSymbolTableRecord
100
AcDbDimStyleTableRecord
  2
STANDARD
 70
0
  3

  4

 40
1.0
 41
2.5355230612
 42
1.0
 43
0.38
 44
1.0
 45
0.0
 46
0.0
 47
0.01
 48
0.01
140
3.5497322856
141
0.09
142
0.0
143
25.4
144
1.0
145
0.0
146
1.0
147
0.625
 71
1
 72
0
 73
0
 74
0
 75
0
 76
0
 77
1
 78
8
 79
2
170
0
171
1
172
0
173
0
174
0
175
0
176
0
177
0
178
0
270
2
179
2
271
2
272
2
273
2
274
2
275
0
280
0
281
0
282
0
283
1
284
8
285
0
286
0
287
3
288
0
340
11
278
46
341
212
342
212
343
212
344
212
  0
ENDTAB
  0
ENDSEC
  0
SECTION
  2
BLOCKS
  0
BLOCK
  5
20
100
AcDbEntity
  8
0
100
AcDbBlockBegin
  2
*Model_Space
 70
0
 10
0.0
 20
0.0
 30
0.0
  3
*Model_Space
  1

  0
ENDBLK
  5
21
100
AcDbEntity
  8
0
100
AcDbBlockEnd
  0
BLOCK
  5
1C
100
AcDbEntity
  8
0
100
AcDbBlockBegin
  2
*Paper_Space
 70
0
 10
0.0
 20
0.0
 30
0.0
  3
*Paper_Space
  1

  0
ENDBLK
  5
1D
100
AcDbEntity
  8
0
100
AcDbBlockEnd
  0
BLOCK
  5
214
100
AcDbEntity
  8
0
100
AcDbBlockBegin
  2
_FILLED
 70
64
 10
0.0
 20
0.0
  3
_FILLED
  1

  0
SOLID
  5
215
100
AcDbEntity
  8
0
  6
BYBLOCK
 62
0
100
AcDbTrace
 10
0.0
 20
0.0
 11
-1.0
 21
0.25
 12
-1.0
 22
-0.25
 13
-1.0
 23
-0.25
  0
ENDBLK
  5
216
100
AcDbEntity
  8
0
  6
BYBLOCK
 62
0
100
AcDbBlockEnd
  0
ENDSEC
  0
SECTION
  2
ENTITIES
  0
LINE
  5
217
100
AcDbEntity
  8
0
100
AcDbLine
 62
7
  6
CONTINUOUS
 10
28.0648715033
 20
211.6843500144
 11
27.3929004349
 21
207.1732894121
  0
LINE
  5
218
100
AcDbEntity
  8
0
100
AcDbLine
 62
7
  6
CONTINUOUS
 10
28.0648715033
 20
211.6843500144
 11
68.511210992
 21
235.0359156158
  0
LINE
  5
219
100
AcDbEntity
  8
0
100
AcDbLine
 62
7
  6
CONTINUOUS
 10
30.009206418
 20
210.5618131232
 11
32.4840698482
 21
211.9906676617
  0
LINE
  5
21A
100
AcDbEntity
  8
0
100
AcDbLine
 62
7
  6
CONTINUOUS
 10
67.9806824764
 20
232.4845241861
 11
70.4555459066
 21
233.9133787246
  0
LINE
  5
21B
100
AcDbEntity
  8
0
100
AcDbLine
 62
7
  6
CONTINUOUS
 10
26.9065215336
 20
207.4540940491
 11
27.4844306681
 21
207.7877480518
  0
LINE
  5
21C
100
AcDbEntity
  8
0
100
AcDbLine
 62
7
  6
CONTINUOUS
 10
30.009206418
 20
208.1123058718
 11
31.6053990237
 21
209.0338626014
  0
LINE
  5
21D
100
AcDbEntity
  8
0
100
AcDbLine
 62
7
  6
CONTINUOUS
 10
74.6982042575
 20
231.4639341975
 11
72.2233408273
 21
230.035079659
  0
LINE
  5
21E
100
AcDbEntity
  8
0
100
AcDbLine
 62
7
  6
CONTINUOUS
 10
36.7267281991
 20
209.5412231346
 11
34.2518647689
 21
208.1123685961
  0
LINE
  5
21F
100
AcDbEntity
  8
0
100
AcDbLine
 62
7
  6
CONTINUOUS
 10
30.009206418
 20
210.5618131232
 11
30.009206418
 21
208.1123058718
  0
LINE
  5
220
100
AcDbEntity
  8
0
100
AcDbLine
 62
7
  6
CONTINUOUS
 10
30.009206418
 20
205.6627986204
 11
30.009206418
 21
137.7297975152
  0
LINE
  5
221
100
AcDbEntity
  8
0
100
AcDbLine
 62
7
  6
CONTINUOUS
 10
35.0297013639
 20
202.3152602075
 11
36.9388817244
 21
203.4175194229
  0
LINE
  5
222
100
AcDbEntity
  8
0
100
AcDbLine
 62
7
  6
CONTINUOUS
 10
35.0297013639
 20
202.3152602075
 11
35.3082725381
 21
183.72612659
  0
LINE
  5
223
100
AcDbEntity
  8
0
100
AcDbLine
 62
7
  6
CONTINUOUS
 10
31.6053990237
 20
209.6228420142
 11
31.6053990237
 21
208.3164381468
  0
LINE
  5
224
100
AcDbEntity
  8
0
100
AcDbLine
 62
7
  6
CONTINUOUS
 10
32.4840698482
 20
211.9906676617
 11
32.4840698482
 21
210.8475642778
  0
LINE
  5
225
100
AcDbEntity
  8
0
100
AcDbLine
 62
7
  6
CONTINUOUS
 10
34.2518647689
 20
208.1123685961
 11
34.2518647689
 21
205.6628613447
  0
LINE
  5
226
100
AcDbEntity
  8
0
100
AcDbLine
 62
7
  6
CONTINUOUS
 10
130.4963654538
 20
86.989454603
 11
119.7412802638
 21
85.924069802
  0
LINE
  5
227
100
AcDbEntity
  8
0
100
AcDbLine
 62
7
  6
CONTINUOUS
 10
71.7286802017
 20
186.4756086065
 11
74.2035436319
 21
187.904463145
  0
LINE
  5
228
100
AcDbEntity
  8
0
100
AcDbLine
 62
7
  6
CONTINUOUS
 10
109.70015626
 20
208.3983196694
 11
112.1750196903
 21
209.8271742079
  0
LINE
  5
229
100
AcDbEntity
  8
0
100
AcDbLine
 62
7
  6
CONTINUOUS
 10
67.4860377482
 20
183.577009575
 11
69.3952181087
 21
184.6792687905
  0
LINE
  5
22A
100
AcDbEntity
  8
0
100
AcDbLine
 62
7
  6
CONTINUOUS
 10
71.7286802017
 20
184.0261013551
 11
73.3248728073
 21
184.9476580847
  0
LINE
  5
22B
100
AcDbEntity
  8
0
100
AcDbLine
 62
7
  6
CONTINUOUS
 10
27.4386005391
 20
138.19926644
 11
63.5111455995
 21
117.3732439866
  0
LINE
  5
22C
100
AcDbEntity
  8
0
100
AcDbLine
 62
7
  6
CONTINUOUS
 10
152.1726639393
 20
67.1422303611
 11
148.0714275334
 21
69.5100267373
  0
LINE
  5
22D
100
AcDbEntity
  8
0
100
AcDbLine
 62
7
  6
CONTINUOUS
 10
26.6094904814
 20
139.6925800223
 11
119.7412802638
 21
85.924069802
  0
LINE
  5
22E
100
AcDbEntity
  8
0
100
AcDbLine
 62
7
  6
CONTINUOUS
 10
151.1371023357
 20
69.4311611002
 11
147.0358659298
 21
71.7989574764
  0
LINE
  5
22F
100
AcDbEntity
  8
0
100
AcDbLine
 62
7
  6
CONTINUOUS
 10
62.8898086373
 20
163.5725851305
 11
62.8898086373
 21
118.74660243
  0
LINE
  5
230
100
AcDbEntity
  8
0
100
AcDbLine
 62
7
  6
CONTINUOUS
 10
67.9806824764
 20
231.3414208021
 11
67.9806824764
 21
232.4845241861
  0
LINE
  5
231
100
AcDbEntity
  8
0
100
AcDbLine
 62
7
  6
CONTINUOUS
 10
67.207466574
 20
165.3095349654
 11
67.4860377482
 21
183.577009575
  0
LINE
  5
232
100
AcDbEntity
  8
0
100
AcDbLine
 62
7
  6
CONTINUOUS
 10
69.3952181087
 20
184.6792687905
 11
69.1166469345
 21
166.4117941808
  0
LINE
  5
233
100
AcDbEntity
  8
0
100
AcDbLine
 62
7
  6
CONTINUOUS
 10
62.8898086373
 20
160.5515261871
 11
64.1979674851
 21
162.8173363536
  0
LINE
  5
234
100
AcDbEntity
  8
0
100
AcDbLine
 62
7
  6
CONTINUOUS
 10
80.921068357
 20
186.4756307023
 11
112.1750579619
 21
204.5200223034
  0
LINE
  5
235
100
AcDbEntity
  8
0
100
AcDbLine
 62
7
  6
CONTINUOUS
 10
78.4462049268
 20
182.5972689123
 11
80.921068357
 21
184.0261234509
  0
LINE
  5
236
100
AcDbEntity
  8
0
100
AcDbLine
 62
7
  6
CONTINUOUS
 10
112.1750579619
 20
202.070515052
 11
114.6499213921
 21
203.4993695906
  0
LINE
  5
237
100
AcDbEntity
  8
0
100
AcDbLine
 62
7
  6
CONTINUOUS
 10
80.3200300954
 20
182.9850888655
 11
112.7760962235
 21
201.7234955282
  0
LINE
  5
238
100
AcDbEntity
  8
0
100
AcDbLine
 62
7
  6
CONTINUOUS
 10
114.6499213921
 20
201.0498623392
 11
114.2964084039
 21
200.8457627386
  0
LINE
  5
239
100
AcDbEntity
  8
0
100
AcDbLine
 62
7
  6
CONTINUOUS
 10
80.3465665637
 20
181.2449294144
 11
78.4462049268
 21
180.147761661
  0
LINE
  5
23A
100
AcDbEntity
  8
0
100
AcDbLine
 62
7
  6
CONTINUOUS
 10
114.6852924814
 20
200.621245491
 11
82.2292263533
 21
181.8828388283
  0
LINE
  5
23B
100
AcDbEntity
  8
0
100
AcDbLine
 62
7
  6
CONTINUOUS
 10
130.4963654538
 20
86.989454603
 11
122.0748926321
 21
91.8517332208
  0
LINE
  5
23C
100
AcDbEntity
  8
0
100
AcDbLine
 62
7
  6
CONTINUOUS
 10
122.903341915
 20
91.400632307
 11
147.0358659298
 21
77.4680282685
  0
LINE
  5
23D
100
AcDbEntity
  8
0
100
AcDbLine
 62
7
  6
CONTINUOUS
 10
147.0358659298
 20
78.8208782637
 11
122.0748926321
 21
93.2317768983
  0
LINE
  5
23E
100
AcDbEntity
  8
0
100
AcDbLine
 62
7
  6
CONTINUOUS
 10
70.4555459066
 20
233.9133787246
 11
70.4555459066
 21
231.834268504
  0
LINE
  5
23F
100
AcDbEntity
  8
0
100
AcDbLine
 62
7
  6
CONTINUOUS
 10
71.7286802017
 20
186.4756086065
 11
71.7286802017
 21
184.0261013551
  0
LINE
  5
240
100
AcDbEntity
  8
0
100
AcDbLine
 62
7
  6
CONTINUOUS
 10
73.3248728073
 20
185.5366374975
 11
73.3248728073
 21
184.2302336301
  0
LINE
  5
241
100
AcDbEntity
  8
0
100
AcDbLine
 62
7
  6
CONTINUOUS
 10
74.2035436319
 20
187.904463145
 11
74.2035436319
 21
186.7613597611
  0
LINE
  5
242
100
AcDbEntity
  8
0
100
AcDbLine
 62
7
  6
CONTINUOUS
 10
74.2035642397
 20
182.5972587143
 11
74.2035642397
 21
157.0407330581
  0
LINE
  5
243
100
AcDbEntity
  8
0
100
AcDbLine
 62
7
  6
CONTINUOUS
 10
69.1166469345
 20
166.4117941808
 11
67.207466574
 21
165.3095349654
  0
LINE
  5
244
100
AcDbEntity
  8
0
100
AcDbLine
 62
7
  6
CONTINUOUS
 10
68.2886298651
 20
164.6374014343
 11
66.3794495046
 21
163.5351422189
  0
LINE
  5
245
100
AcDbEntity
  8
0
100
AcDbLine
 62
7
  6
CONTINUOUS
 10
158.8604841678
 20
78.725643403
 11
159.9918597281
 21
78.0724581957
  0
LINE
  5
246
100
AcDbEntity
  8
0
100
AcDbLine
 62
7
  6
CONTINUOUS
 10
80.59859895
 20
164.7176155951
 11
80.3200300954
 21
182.9850888655
  0
LINE
  5
247
100
AcDbEntity
  8
0
100
AcDbLine
 62
7
  6
CONTINUOUS
 10
82.2292263533
 20
181.8828388283
 11
82.5077952079
 21
163.6153655579
  0
LINE
  5
248
100
AcDbEntity
  8
0
100
AcDbLine
 62
7
  6
CONTINUOUS
 10
78.446184319
 20
186.7613699591
 11
78.446184319
 21
187.9044733431
  0
LINE
  5
249
100
AcDbEntity
  8
0
100
AcDbLine
 62
7
  6
CONTINUOUS
 10
78.4462049268
 20
157.0407432562
 11
78.4462049268
 21
182.5972689123
  0
LINE
  5
24A
100
AcDbEntity
  8
0
100
AcDbLine
 62
7
  6
CONTINUOUS
 10
79.3248728073
 20
185.5366374975
 11
79.3248728073
 21
184.2302336301
  0
LINE
  5
24B
100
AcDbEntity
  8
0
100
AcDbLine
 62
7
  6
CONTINUOUS
 10
80.921068357
 20
186.4756307023
 11
80.921068357
 21
184.0261234509
  0
LINE
  5
24C
100
AcDbEntity
  8
0
100
AcDbLine
 62
7
  6
CONTINUOUS
 10
86.5779844297
 20
146.8754609106
 11
86.5779844297
 21
105.0705371536
  0
LINE
  5
24D
100
AcDbEntity
  8
0
100
AcDbLine
 62
7
  6
CONTINUOUS
 10
88.6992959414
 20
150.5497006236
 11
86.5779844297
 21
146.8754609106
  0
LINE
  5
24E
100
AcDbEntity
  8
0
100
AcDbLine
 62
7
  6
CONTINUOUS
 10
85.3357797754
 20
162.0390835228
 11
111.5787390593
 21
177.1903726887
  0
LINE
  5
24F
100
AcDbEntity
  8
0
100
AcDbLine
 62
7
  6
CONTINUOUS
 10
114.6499213921
 20
177.9428439344
 11
78.4462049268
 21
157.0407432562
  0
LINE
  5
250
100
AcDbEntity
  8
0
100
AcDbLine
 62
7
  6
CONTINUOUS
 10
119.7412802638
 20
132.6280080618
 11
130.4963654538
 21
133.6933928628
  0
LINE
  5
251
100
AcDbEntity
  8
0
100
AcDbLine
 62
7
  6
CONTINUOUS
 10
122.0748926321
 20
117.7268494122
 11
147.0358659298
 21
103.3159507776
  0
LINE
  5
252
100
AcDbEntity
  8
0
100
AcDbLine
 62
7
  6
CONTINUOUS
 10
170.241685816
 20
95.8260793803
 11
183.2525047587
 21
88.3144494971
  0
LINE
  5
253
100
AcDbEntity
  8
0
100
AcDbLine
 62
7
  6
CONTINUOUS
 10
147.0358659298
 20
109.8478864824
 11
124.903307981
 21
122.6258356962
  0
LINE
  5
254
100
AcDbEntity
  8
0
100
AcDbLine
 62
7
  6
CONTINUOUS
 10
147.0358659298
 20
110.3378715649
 11
151.1371023357
 21
107.9700751887
  0
LINE
  5
255
100
AcDbEntity
  8
0
100
AcDbLine
 62
7
  6
CONTINUOUS
 10
125.6104118182
 20
123.03407985
 11
147.0828222612
 21
110.6372583542
  0
LINE
  5
256
100
AcDbEntity
  8
0
100
AcDbLine
 62
7
  6
CONTINUOUS
 10
93.6490816812
 20
142.7930533654
 11
93.6490816812
 21
100.9881296084
  0
LINE
  5
257
100
AcDbEntity
  8
0
100
AcDbLine
 62
7
  6
CONTINUOUS
 10
99.9018782992
 20
211.5826581554
 11
99.9018782992
 21
208.7248996954
  0
LINE
  5
258
100
AcDbEntity
  8
0
100
AcDbLine
 62
7
  6
CONTINUOUS
 10
95.7703931929
 20
146.4672930784
 11
93.6490816812
 21
142.7930533654
  0
LINE
  5
259
100
AcDbEntity
  8
0
100
AcDbLine
 62
7
  6
CONTINUOUS
 10
124.9030124067
 20
171.4518013019
 11
88.6992959414
 21
150.5497006236
  0
LINE
  5
25A
100
AcDbEntity
  8
0
100
AcDbLine
 62
7
  6
CONTINUOUS
 10
62.8898086373
 20
160.5515261871
 11
117.6199687521
 21
128.9537683488
  0
LINE
  5
25B
100
AcDbEntity
  8
0
100
AcDbLine
 62
7
  6
CONTINUOUS
 10
74.2035642397
 20
157.0407330581
 11
62.8898086373
 21
163.5725851305
  0
LINE
  5
25C
100
AcDbEntity
  8
0
100
AcDbLine
 62
7
  6
CONTINUOUS
 10
38.1362806538
 20
178.8844023397
 11
64.3794584584
 21
163.7332393349
  0
LINE
  5
25D
100
AcDbEntity
  8
0
100
AcDbLine
 62
7
  6
CONTINUOUS
 10
77.818431133
 20
156.8316287336
 11
119.7412802638
 21
132.6280080618
  0
LINE
  5
25E
100
AcDbEntity
  8
0
100
AcDbLine
 62
7
  6
CONTINUOUS
 10
150.3354390008
 20
116.2711277473
 11
128.8630894694
 21
128.6679140766
  0
LINE
  5
25F
100
AcDbEntity
  8
0
100
AcDbLine
 62
7
  6
CONTINUOUS
 10
154.6726215217
 20
114.0938080437
 11
150.5713851159
 21
116.4616044199
  0
LINE
  5
260
100
AcDbEntity
  8
0
100
AcDbLine
 62
7
  6
CONTINUOUS
 10
128.8630894694
 20
129.4844164938
 11
150.9955749895
 21
116.7065090958
  0
LINE
  5
261
100
AcDbEntity
  8
0
100
AcDbLine
 62
7
  6
CONTINUOUS
 10
174.7416094644
 20
103.6203520955
 11
187.7524284071
 21
96.1087222123
  0
LINE
  5
262
100
AcDbEntity
  8
0
100
AcDbLine
 62
7
  6
CONTINUOUS
 10
107.9018782992
 20
211.5826581554
 11
107.9018782992
 21
208.7248996954
  0
LINE
  5
263
100
AcDbEntity
  8
0
100
AcDbLine
 62
7
  6
CONTINUOUS
 10
131.9741096582
 20
167.3693937567
 11
95.7703931929
 21
146.4672930784
  0
LINE
  5
264
100
AcDbEntity
  8
0
100
AcDbLine
 62
7
  6
CONTINUOUS
 10
81.4266174515
 20
162.9432220218
 11
83.3358137094
 21
161.8409719846
  0
LINE
  5
265
100
AcDbEntity
  8
0
100
AcDbLine
 62
7
  6
CONTINUOUS
 10
156.6524781159
 20
119.9725041432
 11
131.6915048182
 21
134.3834027778
  0
LINE
  5
266
100
AcDbEntity
  8
0
100
AcDbLine
 62
7
  6
CONTINUOUS
 10
82.5077952079
 20
163.6153655579
 11
80.59859895
 21
164.7176155951
  0
LINE
  5
267
100
AcDbEntity
  8
0
100
AcDbLine
 62
7
  6
CONTINUOUS
 10
117.6199687521
 20
128.9537683488
 11
122.0748926321
 21
119.1068930896
  0
LINE
  5
268
100
AcDbEntity
  8
0
100
AcDbLine
 62
7
  6
CONTINUOUS
 10
109.70015626
 20
207.2552162854
 11
109.70015626
 21
208.3983196694
  0
LINE
  5
269
100
AcDbEntity
  8
0
100
AcDbLine
 62
7
  6
CONTINUOUS
 10
109.9126053596
 20
133.4035160115
 11
109.9126053596
 21
91.5985922544
  0
LINE
  5
26A
100
AcDbEntity
  8
0
100
AcDbLine
 62
7
  6
CONTINUOUS
 10
112.1750196903
 20
209.8271742079
 11
112.1750196903
 21
207.7480639873
  0
LINE
  5
26B
100
AcDbEntity
  8
0
100
AcDbLine
 62
7
  6
CONTINUOUS
 10
112.1750579619
 20
204.5200223034
 11
112.1750579619
 21
202.070515052
  0
LINE
  5
26C
100
AcDbEntity
  8
0
100
AcDbLine
 62
7
  6
CONTINUOUS
 10
114.6499213921
 20
203.4993695906
 11
114.6499213921
 21
200.641666537
  0
LINE
  5
26D
100
AcDbEntity
  8
0
100
AcDbLine
 62
7
  6
CONTINUOUS
 10
114.6499213921
 20
198.2609028277
 11
114.6499213921
 21
177.9428439344
  0
LINE
  5
26E
100
AcDbEntity
  8
0
100
AcDbLine
 62
7
  6
CONTINUOUS
 10
114.8214854355
 20
206.0304940219
 11
114.8214854355
 21
204.7240901544
  0
LINE
  5
26F
100
AcDbEntity
  8
0
100
AcDbLine
 62
7
  6
CONTINUOUS
 10
115.5285922167
 20
179.167566198
 11
115.5285922167
 21
204.7240918541
  0
LINE
  5
270
100
AcDbEntity
  8
0
100
AcDbLine
 62
7
  6
CONTINUOUS
 10
114.4067236268
 20
182.0321105343
 11
114.6852924814
 21
200.621245491
  0
LINE
  5
271
100
AcDbEntity
  8
0
100
AcDbLine
 62
7
  6
CONTINUOUS
 10
67.4860377482
 20
183.577009575
 11
35.0297013639
 21
202.3152602075
  0
LINE
  5
272
100
AcDbEntity
  8
0
100
AcDbLine
 62
7
  6
CONTINUOUS
 10
74.2035642397
 20
180.1477514629
 11
69.3686814194
 21
182.9391092117
  0
LINE
  5
273
100
AcDbEntity
  8
0
100
AcDbLine
 62
7
  6
CONTINUOUS
 10
35.418569544
 20
202.5397720158
 11
26.9065215336
 21
207.4540940491
  0
LINE
  5
274
100
AcDbEntity
  8
0
100
AcDbLine
 62
7
  6
CONTINUOUS
 10
122.0748926321
 20
119.1068930896
 11
122.0748926321
 21
91.8517332208
  0
LINE
  5
275
100
AcDbEntity
  8
0
100
AcDbLine
 62
7
  6
CONTINUOUS
 10
112.0339168712
 20
137.0777557245
 11
109.9126053596
 21
133.4035160115
  0
LINE
  5
276
100
AcDbEntity
  8
0
100
AcDbLine
 62
7
  6
CONTINUOUS
 10
148.2376333366
 20
157.9798564027
 11
112.0339168712
 21
137.0777557245
  0
LINE
  5
277
100
AcDbEntity
  8
0
100
AcDbLine
 62
7
  6
CONTINUOUS
 10
36.9388817244
 20
203.4175194229
 11
69.3952181087
 21
184.6792687905
  0
LINE
  5
278
100
AcDbEntity
  8
0
100
AcDbLine
 62
7
  6
CONTINUOUS
 10
30.009206418
 20
208.1123058718
 11
34.2518647689
 21
205.6628613447
  0
LINE
  5
279
100
AcDbEntity
  8
0
100
AcDbLine
 62
7
  6
CONTINUOUS
 10
71.7286802017
 20
184.0261013551
 11
74.2035642397
 21
182.5972587143
  0
LINE
  5
27A
100
AcDbEntity
  8
0
100
AcDbLine
 62
7
  6
CONTINUOUS
 10
28.0648715033
 20
211.6843500144
 11
30.009206418
 21
210.5618131232
  0
LINE
  5
27B
100
AcDbEntity
  8
0
100
AcDbLine
 62
7
  6
CONTINUOUS
 10
34.2518647689
 20
208.1123685961
 11
71.7286802017
 21
186.4756086065
  0
LINE
  5
27C
100
AcDbEntity
  8
0
100
AcDbLine
 62
7
  6
CONTINUOUS
 10
183.8600599921
 20
122.0271584873
 11
184.9914355524
 21
121.3739732801
  0
LINE
  5
27D
100
AcDbEntity
  8
0
100
AcDbLine
 62
7
  6
CONTINUOUS
 10
82.2292263533
 20
181.8828388283
 11
80.3200300954
 21
182.9850888655
  0
LINE
  5
27E
100
AcDbEntity
  8
0
100
AcDbLine
 62
7
  6
CONTINUOUS
 10
79.3248728073
 20
184.9476665331
 11
80.921068357
 21
184.0261234509
  0
LINE
  5
27F
100
AcDbEntity
  8
0
100
AcDbLine
 62
7
  6
CONTINUOUS
 10
128.8630894694
 20
128.6679140766
 11
128.8630894694
 21
129.4844164938
  0
LINE
  5
280
100
AcDbEntity
  8
0
100
AcDbLine
 62
7
  6
CONTINUOUS
 10
119.7412802638
 20
132.6280080618
 11
117.6199687521
 21
128.9537683488
  0
LINE
  5
281
100
AcDbEntity
  8
0
100
AcDbLine
 62
7
  6
CONTINUOUS
 10
78.446184319
 20
187.9044733431
 11
80.921068357
 21
186.4756307023
  0
LINE
  5
282
100
AcDbEntity
  8
0
100
AcDbLine
 62
7
  6
CONTINUOUS
 10
152.9046199346
 20
146.6307273939
 11
177.8655932323
 21
132.2198287593
  0
LINE
  5
283
100
AcDbEntity
  8
0
100
AcDbLine
 62
7
  6
CONTINUOUS
 10
154.9045860006
 20
146.8288389321
 11
179.0371400163
 21
132.8962175729
  0
LINE
  5
284
100
AcDbEntity
  8
0
100
AcDbLine
 62
7
  6
CONTINUOUS
 10
154.099759299
 20
147.3207373089
 11
162.5212321208
 21
142.458458691
  0
LINE
  5
285
100
AcDbEntity
  8
0
100
AcDbLine
 62
7
  6
CONTINUOUS
 10
183.9466862324
 20
135.7307284826
 11
188.0479226382
 21
133.3629321064
  0
LINE
  5
286
100
AcDbEntity
  8
0
100
AcDbLine
 62
7
  6
CONTINUOUS
 10
137.9848614479
 20
108.5414324354
 11
137.9848614479
 21
84.0463599216
  0
LINE
  5
287
100
AcDbEntity
  8
0
100
AcDbLine
 62
7
  6
CONTINUOUS
 10
122.0748926321
 20
119.1068930896
 11
130.4963654538
 21
133.6933928628
  0
LINE
  5
288
100
AcDbEntity
  8
0
100
AcDbLine
 62
7
  6
CONTINUOUS
 10
154.099759299
 20
147.3207373089
 11
130.4963654538
 21
133.6933928628
  0
LINE
  5
289
100
AcDbEntity
  8
0
100
AcDbLine
 62
7
  6
CONTINUOUS
 10
158.0663082408
 20
152.3053339503
 11
114.154936031
 21
177.6570657088
  0
LINE
  5
28A
100
AcDbEntity
  8
0
100
AcDbLine
 62
7
  6
CONTINUOUS
 10
190.5478802207
 20
133.6105715292
 11
186.4466438148
 21
135.9783679054
  0
LINE
  5
28B
100
AcDbEntity
  8
0
100
AcDbLine
 62
7
  6
CONTINUOUS
 10
144.7730582852
 20
120.2989995171
 11
144.7730582852
 21
119.4824970999
  0
LINE
  5
28C
100
AcDbEntity
  8
0
100
AcDbLine
 62
7
  6
CONTINUOUS
 10
147.0358659298
 20
71.7989574764
 11
147.0358659298
 21
78.8208782637
  0
LINE
  5
28D
100
AcDbEntity
  8
0
100
AcDbLine
 62
7
  6
CONTINUOUS
 10
147.0358659298
 20
103.3159507776
 11
147.0358659298
 21
110.3378715649
  0
LINE
  5
28E
100
AcDbEntity
  8
0
100
AcDbLine
 62
7
  6
CONTINUOUS
 10
124.903307981
 20
122.6258356962
 11
125.6104118182
 21
123.03407985
  0
LINE
  5
28F
100
AcDbEntity
  8
0
100
AcDbLine
 62
7
  6
CONTINUOUS
 10
151.1371023357
 20
107.9700751887
 11
151.1371023357
 21
69.4311611002
  0
LINE
  5
290
100
AcDbEntity
  8
0
100
AcDbLine
 62
7
  6
CONTINUOUS
 10
155.9449967291
 20
153.53010874
 11
154.099759299
 21
147.3207373089
  0
LINE
  5
291
100
AcDbEntity
  8
0
100
AcDbLine
 62
7
  6
CONTINUOUS
 10
168.8145887505
 20
137.4453104172
 11
147.601473634
 21
125.1979858011
  0
LINE
  5
292
100
AcDbEntity
  8
0
100
AcDbLine
 62
7
  6
CONTINUOUS
 10
114.6852924814
 20
200.621245491
 11
112.7760962235
 21
201.7234955282
  0
LINE
  5
293
100
AcDbEntity
  8
0
100
AcDbLine
 62
7
  6
CONTINUOUS
 10
112.1750579619
 20
204.5200223034
 11
109.7001739238
 21
205.9488649442
  0
LINE
  5
294
100
AcDbEntity
  8
0
100
AcDbLine
 62
7
  6
CONTINUOUS
 10
158.0663082408
 20
152.3053339503
 11
162.5212321208
 21
142.458458691
  0
LINE
  5
295
100
AcDbEntity
  8
0
100
AcDbLine
 62
7
  6
CONTINUOUS
 10
162.5212321208
 20
142.4314657262
 11
162.5212321208
 21
142.458458691
  0
LINE
  5
296
100
AcDbEntity
  8
0
100
AcDbLine
 62
7
  6
CONTINUOUS
 10
122.0748926321
 20
91.8517332208
 11
117.6199687521
 21
87.1488445918
  0
LINE
  5
297
100
AcDbEntity
  8
0
100
AcDbLine
 62
7
  6
CONTINUOUS
 10
141.520380634
 20
113.8486628733
 11
140.8132767968
 21
113.4404187195
  0
LINE
  5
298
100
AcDbEntity
  8
0
100
AcDbLine
 62
7
  6
CONTINUOUS
 10
150.5713851159
 20
116.4616044199
 11
156.6524781159
 21
119.9725041432
  0
LINE
  5
299
100
AcDbEntity
  8
0
100
AcDbLine
 62
7
  6
CONTINUOUS
 10
177.8655932323
 20
132.2198287593
 11
183.9466862324
 21
135.7307284826
  0
LINE
  5
29A
100
AcDbEntity
  8
0
100
AcDbLine
 62
7
  6
CONTINUOUS
 10
188.0479226382
 20
133.3629321064
 11
154.6726215217
 21
114.0938080437
  0
LINE
  5
29B
100
AcDbEntity
  8
0
100
AcDbLine
 62
7
  6
CONTINUOUS
 10
112.1750196903
 20
209.8271742079
 11
107.4408598888
 21
212.5603808103
  0
LINE
  5
29C
100
AcDbEntity
  8
0
100
AcDbLine
 62
7
  6
CONTINUOUS
 10
105.5953383547
 20
213.6258690603
 11
74.6982042575
 21
231.4639341975
  0
LINE
  5
29D
100
AcDbEntity
  8
0
100
AcDbLine
 62
7
  6
CONTINUOUS
 10
70.4555459066
 20
233.9133787246
 11
68.511210992
 21
235.0359156158
  0
LINE
  5
29E
100
AcDbEntity
  8
0
100
AcDbLine
 62
7
  6
CONTINUOUS
 10
130.4963654538
 20
86.989454603
 11
130.5199580343
 21
87.0030757044
  0
LINE
  5
29F
100
AcDbEntity
  8
0
100
AcDbLine
 62
7
  6
CONTINUOUS
 10
185.5024665829
 20
94.3753172601
 11
186.162933489
 21
94.617770208
  0
LINE
  5
2A0
100
AcDbEntity
  8
0
100
AcDbLine
 62
7
  6
CONTINUOUS
 10
191.5834418243
 20
92.7827267016
 11
191.5834418243
 21
131.3216407901
  0
LINE
  5
2A1
100
AcDbEntity
  8
0
100
AcDbLine
 62
7
  6
CONTINUOUS
 10
154.6726215217
 20
67.3898697839
 11
188.0479226382
 21
86.6589938466
  0
ARC
  5
2A2
100
AcDbEntity
  8
0
100
AcDbCircle
 62
7
  6
CONTINUOUS
 10
136.9926012487
 20
120.2173573531
 40
7.883378361
100
AcDbArc
 50
322.5413270612
 51
330.0081404155
  0
ARC
  5
2A3
100
AcDbEntity
  8
0
100
AcDbCircle
 62
7
  6
CONTINUOUS
 10
137.0567480016
 20
120.188142511
 40
7.8132201874
100
AcDbArc
 50
329.9585489263
 51
337.4925207248
  0
ARC
  5
2A4
100
AcDbEntity
  8
0
100
AcDbCircle
 62
7
  6
CONTINUOUS
 10
137.6444988306
 20
119.9513215203
 40
7.1795852488
100
AcDbArc
 50
337.4429533972
 51
343.4019975051
  0
ARC
  5
2A5
100
AcDbEntity
  8
0
100
AcDbCircle
 62
7
  6
CONTINUOUS
 10
76.3248758141
 20
184.7966630473
 40
5.1562245781
100
AcDbArc
 50
263.5258730156
 51
276.4737961813
  0
ARC
  5
2A6
100
AcDbEntity
  8
0
100
AcDbCircle
 62
7
  6
CONTINUOUS
 10
34.6011045373
 20
212.9977297937
 40
5.1068004083
100
AcDbArc
 50
266.0731906649
 51
266.2771437932
  0
ARC
  5
2A7
100
AcDbEntity
  8
0
100
AcDbCircle
 62
7
  6
CONTINUOUS
 10
111.82578077
 20
209.4053706167
 40
5.1067891926
100
AcDbArc
 50
273.7231339529
 51
273.9272435419
  0
ARC
  5
2A8
100
AcDbEntity
  8
0
100
AcDbCircle
 62
7
  6
CONTINUOUS
 10
34.6006437731
 20
212.9911016556
 40
5.1001562766
100
AcDbArc
 50
265.6065755673
 51
266.0732555269
  0
ARC
  5
2A9
100
AcDbEntity
  8
0
100
AcDbCircle
 62
7
  6
CONTINUOUS
 10
111.8262417849
 20
209.3987395618
 40
5.1001421337
100
AcDbArc
 50
273.9271786807
 51
274.3938670824
  0
ARC
  5
2AA
100
AcDbEntity
  8
0
100
AcDbCircle
 62
7
  6
CONTINUOUS
 10
68.4863705063
 20
229.9498221625
 40
1.4229332173
100
AcDbArc
 50
143.7564652069
 51
147.9787180415
  0
SPLINE
  5
2AB
100
AcDbEntity
  8
0
100
AcDbSpline
 62
7
  6
CONTINUOUS
 70
0
 71
3
 72
14
 73
10
 74
0
 42
0.0000001
 43
0.0000001
 44
0.0000000001
 40
0.0
 40
0.0
 40
0.0
 40
0.0
 40
0.2892788785
 40
0.4225377813
 40
0.5484922121
 40
0.6678919699
 40
0.7818652625
 40
0.8919497476
 40
1.0
 40
1.0
 40
1.0
 40
1.0
 10
172.4916476402
 20
103.397476615
 30
0.0
 10
172.6891737717
 20
103.5115176995
 30
0.0
 10
172.9924245228
 20
103.6558494361
 30
0.0
 10
173.4083049629
 20
103.7771180744
 30
0.0
 10
173.7034964612
 20
103.8266200012
 30
0.0
 10
173.9875326869
 20
103.8365207821
 30
0.0
 10
174.2577262342
 20
103.8063814088
 30
0.0
 10
174.511179116
 20
103.7362881051
 30
0.0
 10
174.6678288368
 20
103.6629456826
 30
0.0
 10
174.741608423
 20
103.6203502914
 30
0.0
  0
SPLINE
  5
2AC
100
AcDbEntity
  8
0
100
AcDbSpline
 62
7
  6
CONTINUOUS
 70
0
 71
3
 72
23
 73
19
 74
0
 42
0.0000001
 43
0.0000001
 44
0.0000000001
 40
0.0
 40
0.0
 40
0.0
 40
0.0
 40
0.0623916983
 40
0.1287423442
 40
0.1983450203
 40
0.2703325552
 40
0.3437219147
 40
0.4174665113
 40
0.4905033157
 40
0.5618018359
 40
0.6304104097
 40
0.6955086082
 40
0.75646609
 40
0.812912539
 40
0.8648215158
 40
0.912604092
 40
0.957185771
 40
1.0
 40
1.0
 40
1.0
 40
1.0
 10
185.5024665829
 20
88.5373249777
 30
0.0
 10
185.6641402736
 20
88.6306667693
 30
0.0
 10
185.9853216569
 20
88.8453073128
 30
0.0
 10
186.4401588324
 20
89.2280754716
 30
0.0
 10
186.8749343717
 20
89.6744797909
 30
0.0
 10
187.2803608694
 20
90.1749547034
 30
0.0
 10
187.6478476075
 20
90.7188918587
 30
0.0
 10
187.9695588183
 20
91.2946781222
 30
0.0
 10
188.2386261857
 20
91.8900331424
 30
0.0
 10
188.4493155138
 20
92.4922672369
 30
0.0
 10
188.5971384053
 20
93.0885941371
 30
0.0
 10
188.6789287408
 20
93.6664313775
 30
0.0
 10
188.6928558556
 20
94.2137047067
 30
0.0
 10
188.6383338972
 20
94.7191230969
 30
0.0
 10
188.5158800378
 20
95.1722982178
 30
0.0
 10
188.3267634097
 20
95.5636762583
 30
0.0
 10
188.0736778447
 20
95.8837017661
 30
0.0
 10
187.863371136
 20
96.0446687012
 30
0.0
 10
187.7524274207
 20
96.1087205035
 30
0.0
  0
SPLINE
  5
2AD
100
AcDbEntity
  8
0
100
AcDbSpline
 62
7
  6
CONTINUOUS
 70
0
 71
3
 72
23
 73
19
 74
0
 42
0.0000001
 43
0.0000001
 44
0.0000000001
 40
0.0
 40
0.0
 40
0.0
 40
0.0
 40
0.0428149581
 40
0.0873974424
 40
0.1351808469
 40
0.1870905525
 40
0.243537527
 40
0.3044952463
 40
0.3695933208
 40
0.4382013601
 40
0.509498991
 40
0.5825347113
 40
0.656278212
 40
0.7296666734
 40
0.8016536994
 40
0.8712562238
 40
0.9376075212
 40
1.0
 40
1.0
 40
1.0
 40
1.0
 10
170.2416868575
 20
95.8260811844
 30
0.0
 10
170.1307411167
 20
95.8901338238
 30
0.0
 10
169.9204313857
 20
96.0511047406
 30
0.0
 10
169.6673435052
 20
96.3711374823
 30
0.0
 10
169.4782272621
 20
96.7625236498
 30
0.0
 10
169.3557758367
 20
97.2157058551
 30
0.0
 10
169.3012575701
 20
97.7211290931
 30
0.0
 10
169.3151886211
 20
98.2684041727
 30
0.0
 10
169.3969821709
 20
98.8462396163
 30
0.0
 10
169.5448066687
 20
99.442561269
 30
0.0
 10
169.7554955379
 20
100.0447874916
 30
0.0
 10
170.0245604115
 20
100.6401334743
 30
0.0
 10
170.3462676951
 20
101.2159112874
 30
0.0
 10
170.7137501402
 20
101.7598422267
 30
0.0
 10
171.1191733033
 20
102.2603137277
 30
0.0
 10
171.5539476502
 20
102.7067191183
 30
0.0
 10
172.0087874379
 20
103.0894900709
 30
0.0
 10
172.3299719382
 20
103.3041336621
 30
0.0
 10
172.4916476402
 20
103.397476615
 30
0.0
  0
SPLINE
  5
2AE
100
AcDbEntity
  8
0
100
AcDbSpline
 62
7
  6
CONTINUOUS
 70
0
 71
3
 72
14
 73
10
 74
0
 42
0.0000001
 43
0.0000001
 44
0.0000000001
 40
0.0
 40
0.0
 40
0.0
 40
0.0
 40
0.1080488667
 40
0.2181321678
 40
0.3321045072
 40
0.4515036959
 40
0.5774576959
 40
0.710717211
 40
1.0
 40
1.0
 40
1.0
 40
1.0
 10
183.2525057452
 20
88.314451206
 30
0.0
 10
183.326284289
 20
88.2718561956
 30
0.0
 10
183.4829321217
 20
88.1985145076
 30
0.0
 10
183.7363821684
 20
88.1284216021
 30
0.0
 10
184.0065734175
 20
88.0982811067
 30
0.0
 10
184.290608148
 20
88.108180829
 30
0.0
 10
184.5857995482
 20
88.1576813675
 30
0.0
 10
185.0016836281
 20
88.2789491601
 30
0.0
 10
185.3049377825
 20
88.4232823523
 30
0.0
 10
185.5024665829
 20
88.5373249777
 30
0.0
  0
SPLINE
  5
2AF
100
AcDbEntity
  8
0
100
AcDbSpline
 62
7
  6
CONTINUOUS
 70
0
 71
3
 72
16
 73
12
 74
0
 42
0.0000001
 43
0.0000001
 44
0.0000000001
 40
0.0
 40
0.0
 40
0.0
 40
0.0
 40
0.0994019373
 40
0.1544800457
 40
0.2129740543
 40
0.3388344208
 40
0.4734917711
 40
0.6121085057
 40
0.7493638734
 40
0.8800999342
 40
1.0
 40
1.0
 40
1.0
 40
1.0
 10
183.7489172168
 20
90.4364773761
 30
0.0
 10
183.692101323
 20
90.5778347509
 30
0.0
 10
183.6400093886
 20
90.812696409
 30
0.0
 10
183.6241452236
 20
91.1389012871
 30
0.0
 10
183.6443814167
 20
91.5059859485
 30
0.0
 10
183.7402023131
 20
91.9880339886
 30
0.0
 10
183.9506047339
 20
92.564629677
 30
0.0
 10
184.2475986069
 20
93.121594643
 30
0.0
 10
184.6146855217
 20
93.627793555
 30
0.0
 10
185.0311789101
 20
94.054966352
 30
0.0
 10
185.3433215879
 20
94.2834354029
 30
0.0
 10
185.5024665829
 20
94.3753172601
 30
0.0
  0
SPLINE
  5
2B0
100
AcDbEntity
  8
0
100
AcDbSpline
 62
7
  6
CONTINUOUS
 70
0
 71
3
 72
12
 73
8
 74
0
 42
0.0000001
 43
0.0000001
 44
0.0000000001
 40
0.0
 40
0.0
 40
0.0
 40
0.0
 40
0.2412278865
 40
0.5004004399
 40
0.7592624793
 40
0.8829454518
 40
1.0
 40
1.0
 40
1.0
 40
1.0
 10
183.8085963534
 20
92.0608279693
 30
0.0
 10
183.9399385229
 20
92.1561930911
 30
0.0
 10
184.1866740711
 20
92.3903016345
 30
0.0
 10
184.4821671292
 20
92.81021357
 30
0.0
 10
184.6626438066
 20
93.2058650269
 30
0.0
 10
184.7537924379
 20
93.529955037
 30
0.0
 10
184.7799962109
 20
93.6902894285
 30
0.0
 10
184.7875558746
 20
93.7686869565
 30
0.0
  0
SPLINE
  5
2B1
100
AcDbEntity
  8
0
100
AcDbSpline
 62
7
  6
CONTINUOUS
 70
0
 71
3
 72
23
 73
19
 74
0
 42
0.0000001
 43
0.0000001
 44
0.0000000001
 40
0.0
 40
0.0
 40
0.0
 40
0.0
 40
0.0623916983
 40
0.1287423442
 40
0.1983450203
 40
0.2703325552
 40
0.3437219147
 40
0.4174665113
 40
0.4905033157
 40
0.5618018359
 40
0.6304104097
 40
0.6955086082
 40
0.75646609
 40
0.812912539
 40
0.8648215158
 40
0.912604092
 40
0.957185771
 40
1.0
 40
1.0
 40
1.0
 40
1.0
 10
185.5024665829
 20
95.8858467318
 30
0.0
 10
185.3407928922
 20
95.7925049402
 30
0.0
 10
185.019611509
 20
95.5778643967
 30
0.0
 10
184.5647743334
 20
95.1950962379
 30
0.0
 10
184.1299987942
 20
94.7486919185
 30
0.0
 10
183.7245722964
 20
94.2482170061
 30
0.0
 10
183.3570855584
 20
93.7042798508
 30
0.0
 10
183.0353743476
 20
93.1284935873
 30
0.0
 10
182.7663069801
 20
92.5331385671
 30
0.0
 10
182.555617652
 20
91.9309044726
 30
0.0
 10
182.4077947606
 20
91.3345775724
 30
0.0
 10
182.3260044251
 20
90.756740332
 30
0.0
 10
182.3120773102
 20
90.2094670028
 30
0.0
 10
182.3665992686
 20
89.7040486125
 30
0.0
 10
182.489053128
 20
89.2508734917
 30
0.0
 10
182.6781697561
 20
88.8594954512
 30
0.0
 10
182.9312553211
 20
88.5394699434
 30
0.0
 10
183.1415620299
 20
88.3785030083
 30
0.0
 10
183.2525057452
 20
88.314451206
 30
0.0
  0
SPLINE
  5
2B2
100
AcDbEntity
  8
0
100
AcDbSpline
 62
7
  6
CONTINUOUS
 70
0
 71
3
 72
16
 73
12
 74
0
 42
0.0000001
 43
0.0000001
 44
0.0000000001
 40
0.0
 40
0.0
 40
0.0
 40
0.0
 40
0.2001944611
 40
0.2603822214
 40
0.323982996
 40
0.3904859498
 40
0.4592602699
 40
0.6005884705
 40
0.7418302517
 40
0.8767330106
 40
1.0
 40
1.0
 40
1.0
 40
1.0
 10
185.2147702885
 20
94.1576212191
 30
0.0
 10
185.3247475639
 20
93.9962499038
 30
0.0
 10
185.3732514105
 20
93.7248698938
 30
0.0
 10
185.3529324827
 20
93.4111256218
 30
0.0
 10
185.3229301427
 20
93.2273151221
 30
0.0
 10
185.2745674297
 20
93.0392873747
 30
0.0
 10
185.1859337596
 20
92.7841418357
 30
0.0
 10
185.0356800568
 20
92.474538186
 30
0.0
 10
184.8050358581
 20
92.1370670924
 30
0.0
 10
184.537334825
 20
91.8518499422
 30
0.0
 10
184.3338029185
 20
91.7001366876
 30
0.0
 10
184.2296690777
 20
91.6400153455
 30
0.0
  0
SPLINE
  5
2B3
100
AcDbEntity
  8
0
100
AcDbSpline
 62
7
  6
CONTINUOUS
 70
0
 71
3
 72
15
 73
11
 74
0
 42
0.0000001
 43
0.0000001
 44
0.0000000001
 40
0.0
 40
0.0
 40
0.0
 40
0.0
 40
0.1514262642
 40
0.2905956316
 40
0.4182190328
 40
0.5364945931
 40
0.6490587531
 40
0.7606659999
 40
0.876265557
 40
1.0
 40
1.0
 40
1.0
 40
1.0
 10
185.5024665829
 20
90.0478544493
 30
0.0
 10
185.4116755732
 20
89.9954365483
 30
0.0
 10
185.2308197125
 20
89.9055620961
 30
0.0
 10
184.95372093
 20
89.8172340146
 30
0.0
 10
184.6875057475
 20
89.7834200834
 30
0.0
 10
184.43809267
 20
89.8060157104
 30
0.0
 10
184.2120326644
 20
89.885938106
 30
0.0
 10
184.0164793992
 20
90.0216326605
 30
0.0
 10
183.8573684652
 20
90.2083853522
 30
0.0
 10
183.7808644813
 20
90.3569929021
 30
0.0
 10
183.7489172168
 20
90.4364773761
 30
0.0
  0
SPLINE
  5
2B4
100
AcDbEntity
  8
0
100
AcDbSpline
 62
7
  6
CONTINUOUS
 70
0
 71
3
 72
14
 73
10
 74
0
 42
0.0000001
 43
0.0000001
 44
0.0000000001
 40
0.0
 40
0.0
 40
0.0
 40
0.0
 40
0.1080488667
 40
0.2181321678
 40
0.3321045072
 40
0.4515036959
 40
0.5774576959
 40
0.710717211
 40
1.0
 40
1.0
 40
1.0
 40
1.0
 10
187.7524274207
 20
96.1087205035
 30
0.0
 10
187.6786488769
 20
96.1513155139
 30
0.0
 10
187.5220010441
 20
96.2246572018
 30
0.0
 10
187.2685509974
 20
96.2947501074
 30
0.0
 10
186.9983597483
 20
96.3248906028
 30
0.0
 10
186.7143250178
 20
96.3149908805
 30
0.0
 10
186.4191336176
 20
96.265490342
 30
0.0
 10
186.0032495377
 20
96.1442225494
 30
0.0
 10
185.6999953834
 20
95.9998893572
 30
0.0
 10
185.5024665829
 20
95.8858467318
 30
0.0
  0
SPLINE
  5
2B5
100
AcDbEntity
  8
0
100
AcDbSpline
 62
7
  6
CONTINUOUS
 70
0
 71
3
 72
11
 73
7
 74
0
 42
0.0000001
 43
0.0000001
 44
0.0000000001
 40
0.0
 40
0.0
 40
0.0
 40
0.0
 40
0.278937078
 40
0.5378689226
 40
0.7773049567
 40
1.0
 40
1.0
 40
1.0
 40
1.0
 10
184.2296690777
 20
91.6400153455
 30
0.0
 10
184.1804382429
 20
91.6115920794
 30
0.0
 10
184.0822839877
 20
91.5620594401
 30
0.0
 10
183.932064846
 20
91.5100669273
 30
0.0
 10
183.7867374197
 20
91.4841922481
 30
0.0
 10
183.6918270586
 20
91.4849639252
 30
0.0
 10
183.6467482835
 20
91.4902253116
 30
0.0
  0
SPLINE
  5
2B6
100
AcDbEntity
  8
0
100
AcDbSpline
 62
7
  6
CONTINUOUS
 70
0
 71
3
 72
23
 73
19
 74
0
 42
0.0000001
 43
0.0000001
 44
0.0000000001
 40
0.0
 40
0.0
 40
0.0
 40
0.0
 40
0.0491585562
 40
0.0948360355
 40
0.1393418639
 40
0.1852978286
 40
0.2349400869
 40
0.2896740522
 40
0.3500289584
 40
0.4158140311
 40
0.486303281
 40
0.5603923499
 40
0.6367256574
 40
0.7138037319
 40
0.7900804643
 40
0.864062465
 40
0.9344005313
 40
1.0
 40
1.0
 40
1.0
 40
1.0
 10
186.1629342151
 20
94.6177728529
 30
0.0
 10
186.2597680335
 20
94.6315586265
 30
0.0
 10
186.4505732375
 20
94.6382732226
 30
0.0
 10
186.7238450735
 20
94.5726141714
 30
0.0
 10
186.9598361567
 20
94.4310396275
 30
0.0
 10
187.1478245463
 20
94.2200513891
 30
0.0
 10
187.2824612514
 20
93.9496961975
 30
0.0
 10
187.3619240581
 20
93.6295390048
 30
0.0
 10
187.3854693185
 20
93.2688663403
 30
0.0
 10
187.3531227375
 20
92.8777678019
 30
0.0
 10
187.2660732601
 20
92.4673588718
 30
0.0
 10
187.1269342722
 20
92.0495225063
 30
0.0
 10
186.9398090366
 20
91.6365028157
 30
0.0
 10
186.7102172559
 20
91.2404761118
 30
0.0
 10
186.4449472226
 20
90.8731426975
 30
0.0
 10
186.1517818358
 20
90.5453113818
 30
0.0
 10
185.8394117997
 20
90.2666838207
 30
0.0
 10
185.6155025476
 20
90.1131154045
 30
0.0
 10
185.5024665829
 20
90.0478544493
 30
0.0
  0
SPLINE
  5
2B7
100
AcDbEntity
  8
0
100
AcDbSpline
 62
7
  6
CONTINUOUS
 70
0
 71
3
 72
12
 73
8
 74
0
 42
0.0000001
 43
0.0000001
 44
0.0000000001
 40
0.0
 40
0.0
 40
0.0
 40
0.0
 40
0.2895815875
 40
0.5486326666
 40
0.7816361232
 40
0.8918379233
 40
1.0
 40
1.0
 40
1.0
 40
1.0
 10
64.3794584584
 20
163.7332393349
 30
0.0
 10
64.555036212
 20
163.6318717649
 30
0.0
 10
64.9042312715
 20
163.4657359153
 30
0.0
 10
65.4405681237
 20
163.3360735527
 30
0.0
 10
65.8688488839
 20
163.3474234047
 30
0.0
 10
66.1746002985
 20
163.4321163536
 30
0.0
 10
66.313867448
 20
163.4972832555
 30
0.0
 10
66.3794460339
 20
163.535148228
 30
0.0
  0
SPLINE
  5
2B8
100
AcDbEntity
  8
0
100
AcDbSpline
 62
7
  6
CONTINUOUS
 70
0
 71
3
 72
15
 73
11
 74
0
 42
0.0000001
 43
0.0000001
 44
0.0000000001
 40
0.0
 40
0.0
 40
0.0
 40
0.0
 40
0.1148263591
 40
0.2383901443
 40
0.3681607991
 40
0.501083093
 40
0.6338551732
 40
0.7631866601
 40
0.8860576628
 40
1.0
 40
1.0
 40
1.0
 40
1.0
 10
35.3082725381
 20
183.72612659
 30
0.0
 10
35.3116096721
 20
183.5034386901
 30
0.0
 10
35.3580895551
 20
183.0412883311
 30
0.0
 10
35.5267559407
 20
182.3455757545
 30
0.0
 10
35.7910488482
 20
181.6426970293
 30
0.0
 10
36.1412984256
 20
180.9585243341
 30
0.0
 10
36.5646616898
 20
180.3180331
 30
0.0
 10
37.045719574
 20
179.7446471008
 30
0.0
 10
37.5667454812
 20
179.2594130959
 30
0.0
 10
37.9448894403
 20
178.9948996085
 30
0.0
 10
38.1362806538
 20
178.8844023397
 30
0.0
  0
SPLINE
  5
2B9
100
AcDbEntity
  8
0
100
AcDbSpline
 62
7
  6
CONTINUOUS
 70
0
 71
3
 72
12
 73
8
 74
0
 42
0.0000001
 43
0.0000001
 44
0.0000000001
 40
0.0
 40
0.0
 40
0.0
 40
0.0
 40
0.288578566
 40
0.5472734103
 40
0.7806914594
 40
0.8913263451
 40
1.0
 40
1.0
 40
1.0
 40
1.0
 10
69.1166469345
 20
166.4117941808
 30
0.0
 10
69.1136491481
 20
166.2152125139
 30
0.0
 10
69.0782456767
 20
165.8415396205
 30
0.0
 10
68.9197685617
 20
165.3292583095
 30
0.0
 10
68.6980624662
 20
164.9760359281
 30
0.0
 10
68.4760950618
 20
164.7601909784
 30
0.0
 10
68.3527436994
 20
164.6744286821
 30
0.0
 10
68.2886263936
 20
164.6374074448
 30
0.0
  0
SPLINE
  5
2BA
100
AcDbEntity
  8
0
100
AcDbSpline
 62
7
  6
CONTINUOUS
 70
0
 71
3
 72
12
 73
8
 74
0
 42
0.0000001
 43
0.0000001
 44
0.0000000001
 40
0.0
 40
0.0
 40
0.0
 40
0.0
 40
0.1086736605
 40
0.2193085503
 40
0.4527266067
 40
0.7114214418
 40
1.0
 40
1.0
 40
1.0
 40
1.0
 10
66.3794460339
 20
163.535148228
 30
0.0
 10
66.4435633455
 20
163.5721694632
 30
0.0
 10
66.5669147075
 20
163.6579317725
 30
0.0
 10
66.7888821267
 20
163.8737767231
 30
0.0
 10
67.0105882078
 20
164.2269991182
 30
0.0
 10
67.1690653241
 20
164.73928042
 30
0.0
 10
67.2044687877
 20
165.1129533036
 30
0.0
 10
67.207466574
 20
165.3095349654
 30
0.0
  0
SPLINE
  5
2BB
100
AcDbEntity
  8
0
100
AcDbSpline
 62
7
  6
CONTINUOUS
 70
0
 71
3
 72
15
 73
11
 74
0
 42
0.0000001
 43
0.0000001
 44
0.0000000001
 40
0.0
 40
0.0
 40
0.0
 40
0.0
 40
0.113942031
 40
0.2368128637
 40
0.3661442943
 40
0.4989164145
 40
0.6318388157
 40
0.7616096149
 40
0.8851735401
 40
1.0
 40
1.0
 40
1.0
 40
1.0
 10
111.5787390593
 20
177.1903726887
 30
0.0
 10
111.7701288458
 20
177.3008709739
 30
0.0
 10
112.1482698888
 20
177.5653865139
 30
0.0
 10
112.669291404
 20
178.0506230567
 30
0.0
 10
113.1503452135
 20
178.6240113829
 30
0.0
 10
113.5737048769
 20
179.2645046221
 30
0.0
 10
113.9239514607
 20
179.9486789333
 30
0.0
 10
114.1882420869
 20
180.6515588087
 30
0.0
 10
114.356907019
 20
181.3472720255
 30
0.0
 10
114.4033865199
 20
181.8094225733
 30
0.0
 10
114.4067236268
 20
182.0321105343
 30
0.0
  0
SPLINE
  5
2BC
100
AcDbEntity
  8
0
100
AcDbSpline
 62
7
  6
CONTINUOUS
 70
0
 71
3
 72
12
 73
8
 74
0
 42
0.0000001
 43
0.0000001
 44
0.0000000001
 40
0.0
 40
0.0
 40
0.0
 40
0.0
 40
0.1081618764
 40
0.2183635
 40
0.4513667606
 40
0.7104179405
 40
1.0
 40
1.0
 40
1.0
 40
1.0
 10
83.3358171807
 20
161.8409779947
 30
0.0
 10
83.4013951502
 20
161.8031140043
 30
0.0
 10
83.540660926
 20
161.7379490181
 30
0.0
 10
83.846409063
 20
161.6532596001
 30
0.0
 10
84.2746847377
 20
161.641913542
 30
0.0
 10
84.8110144748
 20
161.7715789408
 30
0.0
 10
85.1602045177
 20
161.9377157056
 30
0.0
 10
85.3357797754
 20
162.0390835228
 30
0.0
  0
SPLINE
  5
2BD
100
AcDbEntity
  8
0
100
AcDbSpline
 62
7
  6
CONTINUOUS
 70
0
 71
3
 72
12
 73
8
 74
0
 42
0.0000001
 43
0.0000001
 44
0.0000000001
 40
0.0
 40
0.0
 40
0.0
 40
0.0
 40
0.1086732176
 40
0.2193077256
 40
0.4527253853
 40
0.7114204933
 40
1.0
 40
1.0
 40
1.0
 40
1.0
 10
81.426620922
 20
162.9432280306
 30
0.0
 10
81.3625035242
 20
162.9802486977
 30
0.0
 10
81.2391519378
 20
163.0660100616
 30
0.0
 10
81.0171839853
 20
163.2818538668
 30
0.0
 10
80.7954773993
 20
163.6350762832
 30
0.0
 10
80.6370001434
 20
164.1473588507
 30
0.0
 10
80.6015967251
 20
164.5210330416
 30
0.0
 10
80.59859895
 20
164.7176155951
 30
0.0
  0
SPLINE
  5
2BE
100
AcDbEntity
  8
0
100
AcDbSpline
 62
7
  6
CONTINUOUS
 70
0
 71
3
 72
12
 73
8
 74
0
 42
0.0000001
 43
0.0000001
 44
0.0000000001
 40
0.0
 40
0.0
 40
0.0
 40
0.0
 40
0.2885795145
 40
0.5472746317
 40
0.780692284
 40
0.891326788
 40
1.0
 40
1.0
 40
1.0
 40
1.0
 10
82.5077952079
 20
163.6153655579
 30
0.0
 10
82.5107929831
 20
163.4187829993
 30
0.0
 10
82.5461964092
 20
163.0451087985
 30
0.0
 10
82.7046736638
 20
162.5328262219
 30
0.0
 10
82.9263802642
 20
162.1796038192
 30
0.0
 10
83.1483482018
 20
161.9637600148
 30
0.0
 10
83.2716997886
 20
161.877998664
 30
0.0
 10
83.3358171807
 20
161.8409779947
 30
0.0
  0
SPLINE
  5
2BF
100
AcDbEntity
  8
0
100
AcDbSpline
 62
7
  6
CONTINUOUS
 70
0
 71
3
 72
11
 73
7
 74
0
 42
0.0000001
 43
0.0000001
 44
0.0000000001
 40
0.0
 40
0.0
 40
0.0
 40
0.0
 40
0.22364517
 40
0.4615142525
 40
0.719615073
 40
1.0
 40
1.0
 40
1.0
 40
1.0
 10
27.4385201617
 20
138.1990990728
 30
0.0
 10
27.324380691
 20
138.2649967301
 30
0.0
 10
27.1089720869
 20
138.4383790852
 30
0.0
 10
26.8608714706
 20
138.7875984984
 30
0.0
 10
26.6874929966
 20
139.2146829764
 30
0.0
 10
26.6274642605
 20
139.5283266453
 30
0.0
 10
26.6094904814
 20
139.6925800223
 30
0.0
  0
SPLINE
  5
2C0
100
AcDbEntity
  8
0
100
AcDbSpline
 62
7
  6
CONTINUOUS
 70
0
 71
3
 72
11
 73
7
 74
0
 42
0.0000001
 43
0.0000001
 44
0.0000000001
 40
0.0
 40
0.0
 40
0.0
 40
0.0
 40
0.2368169205
 40
0.4825917025
 40
0.7371052518
 40
1.0
 40
1.0
 40
1.0
 40
1.0
 10
26.9065215336
 20
207.4540940491
 30
0.0
 10
26.1863045306
 20
202.1412931947
 30
0.0
 10
25.1052574401
 20
191.2593635854
 30
0.0
 10
24.5366356163
 20
174.5711099311
 30
0.0
 10
24.9921698689
 20
157.2894909306
 30
0.0
 10
25.9620685546
 20
145.609045201
 30
0.0
 10
26.6094904814
 20
139.6925800223
 30
0.0
  0
SPLINE
  5
2C1
100
AcDbEntity
  8
0
100
AcDbSpline
 62
7
  6
CONTINUOUS
 70
0
 71
3
 72
9
 73
5
 74
0
 42
0.0000001
 43
0.0000001
 44
0.0000000001
 40
0.0
 40
0.0
 40
0.0
 40
0.0
 40
0.2603782916
 40
1.0
 40
1.0
 40
1.0
 40
1.0
 10
30.1816322288
 20
136.8620047248
 30
0.0
 10
30.1972655464
 20
136.8290335189
 30
0.0
 10
30.262037648
 20
136.7047611791
 30
0.0
 10
30.3472417112
 20
136.5906924218
 30
0.0
 10
30.4206977385
 20
136.5175634435
 30
0.0
  0
SPLINE
  5
2C2
100
AcDbEntity
  8
0
100
AcDbSpline
 62
7
  6
CONTINUOUS
 70
0
 71
3
 72
9
 73
5
 74
0
 42
0.0000001
 43
0.0000001
 44
0.0000000001
 40
0.0
 40
0.0
 40
0.0
 40
0.0
 40
0.2527452273
 40
1.0
 40
1.0
 40
1.0
 40
1.0
 10
30.4206977385
 20
136.5175634435
 30
0.0
 10
30.4365187208
 20
136.5018129012
 30
0.0
 10
30.501039114
 20
136.4414608191
 30
0.0
 10
30.5733933228
 20
136.3894593931
 30
0.0
 10
30.6305544062
 20
136.3564581698
 30
0.0
  0
SPLINE
  5
2C3
100
AcDbEntity
  8
0
100
AcDbSpline
 62
7
  6
CONTINUOUS
 70
0
 71
3
 72
11
 73
7
 74
0
 42
0.0000001
 43
0.0000001
 44
0.0000000001
 40
0.0
 40
0.0
 40
0.0
 40
0.0
 40
0.2177731171
 40
0.4509285976
 40
0.710222822
 40
1.0
 40
1.0
 40
1.0
 40
1.0
 10
122.9033566164
 20
91.400657771
 30
0.0
 10
122.7714147954
 20
91.4768327005
 30
0.0
 10
122.5245063695
 20
91.6843505998
 30
0.0
 10
122.2617544685
 20
92.1140561632
 30
0.0
 10
122.1055453082
 20
92.6436061026
 30
0.0
 10
122.0748926321
 20
93.0290509656
 30
0.0
 10
122.0748926321
 20
93.2317768983
 30
0.0
  0
SPLINE
  5
2C4
100
AcDbEntity
  8
0
100
AcDbSpline
 62
7
  6
CONTINUOUS
 70
0
 71
3
 72
11
 73
7
 74
0
 42
0.0000001
 43
0.0000001
 44
0.0000000001
 40
0.0
 40
0.0
 40
0.0
 40
0.0
 40
0.2897757032
 40
0.5490693955
 40
0.7822254653
 40
1.0
 40
1.0
 40
1.0
 40
1.0
 10
152.9046199346
 20
146.6307273939
 30
0.0
 10
153.0801781558
 20
146.7320853751
 30
0.0
 10
153.4292947586
 20
146.8982538408
 30
0.0
 10
153.9659807219
 20
147.027742203
 30
0.0
 10
154.4694734389
 20
147.0150477433
 30
0.0
 10
154.7726338463
 20
146.9049858758
 30
0.0
 10
154.9045712993
 20
146.8288134681
 30
0.0
  0
SPLINE
  5
2C5
100
AcDbEntity
  8
0
100
AcDbSpline
 62
7
  6
CONTINUOUS
 70
0
 71
3
 72
15
 73
11
 74
0
 42
0.0000001
 43
0.0000001
 44
0.0000000001
 40
0.0
 40
0.0
 40
0.0
 40
0.0
 40
0.1141475829
 40
0.2373370756
 40
0.3669780685
 40
0.5000016033
 40
0.6330249151
 40
0.7626652568
 40
0.8858537231
 40
1.0
 40
1.0
 40
1.0
 40
1.0
 10
128.8630894694
 20
129.4844164938
 30
0.0
 10
128.8630894694
 20
129.7079846376
 30
0.0
 10
128.9040683164
 20
130.173260756
 30
0.0
 10
129.067282497
 20
130.8751704081
 30
0.0
 10
129.328865951
 20
131.5861334358
 30
0.0
 10
129.678846407
 20
132.2794344514
 30
0.0
 10
130.1042685899
 20
132.9291779499
 30
0.0
 10
130.5891841275
 20
133.5111965532
 30
0.0
 10
131.1154431469
 20
134.003496371
 30
0.0
 10
131.4978910524
 20
134.2716204852
 30
0.0
 10
131.6915048182
 20
134.3834027778
 30
0.0
  0
SPLINE
  5
2C6
100
AcDbEntity
  8
0
100
AcDbSpline
 62
7
  6
CONTINUOUS
 70
0
 71
3
 72
15
 73
11
 74
0
 42
0.0000001
 43
0.0000001
 44
0.0000000001
 40
0.0
 40
0.0
 40
0.0
 40
0.0
 40
0.1141543519
 40
0.237325601
 40
0.366974755
 40
0.4999984147
 40
0.6330222943
 40
0.7626720931
 40
0.8858443543
 40
1.0
 40
1.0
 40
1.0
 40
1.0
 10
125.6104118182
 20
123.03407985
 30
0.0
 10
125.833083813
 20
123.1626388188
 30
0.0
 10
126.2729008704
 20
123.4709474665
 30
0.0
 10
126.8780651262
 20
124.0371277359
 30
0.0
 10
127.4357566915
 20
124.7063950608
 30
0.0
 10
127.924969817
 20
125.4536430816
 30
0.0
 10
128.3274957439
 20
126.2509413603
 30
0.0
 10
128.6282504968
 20
127.0685552794
 30
0.0
 10
128.8159943108
 20
127.875739936
 30
0.0
 10
128.8630894694
 20
128.4107920739
 30
0.0
 10
128.8630894694
 20
128.6679140766
 30
0.0
  0
SPLINE
  5
2C7
100
AcDbEntity
  8
0
100
AcDbSpline
 62
7
  6
CONTINUOUS
 70
0
 71
3
 72
15
 73
11
 74
0
 42
0.0000001
 43
0.0000001
 44
0.0000000001
 40
0.0
 40
0.0
 40
0.0
 40
0.0
 40
0.1141475829
 40
0.2373370756
 40
0.3669780685
 40
0.5000016033
 40
0.6330249151
 40
0.7626652568
 40
0.8858537231
 40
1.0
 40
1.0
 40
1.0
 40
1.0
 10
122.0748926321
 20
117.7268494122
 30
0.0
 10
122.0748926321
 20
117.950417556
 30
0.0
 10
122.1158714792
 20
118.4156936744
 30
0.0
 10
122.2790856598
 20
119.1176033264
 30
0.0
 10
122.5406691138
 20
119.8285663541
 30
0.0
 10
122.8906495698
 20
120.5218673698
 30
0.0
 10
123.3160717527
 20
121.1716108683
 30
0.0
 10
123.8009872902
 20
121.7536294715
 30
0.0
 10
124.3272463096
 20
122.2459292894
 30
0.0
 10
124.7096942152
 20
122.5140534036
 30
0.0
 10
124.903307981
 20
122.6258356962
 30
0.0
  0
SPLINE
  5
2C8
100
AcDbEntity
  8
0
100
AcDbSpline
 62
7
  6
CONTINUOUS
 70
0
 71
3
 72
9
 73
5
 74
0
 42
0.0000001
 43
0.0000001
 44
0.0000000001
 40
0.0
 40
0.0
 40
0.0
 40
0.0
 40
0.253139686
 40
1.0
 40
1.0
 40
1.0
 40
1.0
 10
143.2503657331
 20
115.4227731125
 30
0.0
 10
143.2120031831
 20
115.3728071192
 30
0.0
 10
143.0579986804
 20
115.1773255867
 30
0.0
 10
142.8941826126
 20
114.9895382551
 30
0.0
 10
142.7664065025
 20
114.8545702624
 30
0.0
  0
SPLINE
  5
2C9
100
AcDbEntity
  8
0
100
AcDbSpline
 62
7
  6
CONTINUOUS
 70
0
 71
3
 72
11
 73
7
 74
0
 42
0.0000001
 43
0.0000001
 44
0.0000000001
 40
0.0
 40
0.0
 40
0.0
 40
0.0
 40
0.2177731171
 40
0.4509285976
 40
0.710222822
 40
1.0
 40
1.0
 40
1.0
 40
1.0
 10
138.8133254322
 20
82.2152407943
 30
0.0
 10
138.6813836112
 20
82.2914157238
 30
0.0
 10
138.4344751853
 20
82.4989336231
 30
0.0
 10
138.1717232843
 20
82.9286391865
 30
0.0
 10
138.015514124
 20
83.4581891259
 30
0.0
 10
137.9848614479
 20
83.8436339889
 30
0.0
 10
137.9848614479
 20
84.0463599216
 30
0.0
  0
SPLINE
  5
2CA
100
AcDbEntity
  8
0
100
AcDbSpline
 62
7
  6
CONTINUOUS
 70
0
 71
3
 72
11
 73
7
 74
0
 42
0.0000001
 43
0.0000001
 44
0.0000000001
 40
0.0
 40
0.0
 40
0.0
 40
0.0
 40
0.2177798312
 40
0.4509239181
 40
0.7102597115
 40
1.0
 40
1.0
 40
1.0
 40
1.0
 10
153.393864414
 20
69.257458845
 30
0.0
 10
153.3080912085
 20
69.3069588026
 30
0.0
 10
153.1476339442
 20
69.4418854116
 30
0.0
 10
152.9768059791
 20
69.7211795838
 30
0.0
 10
152.8753085479
 20
70.065400017
 30
0.0
 10
152.8553646601
 20
70.3159348903
 30
0.0
 10
152.8553646601
 20
70.4476894666
 30
0.0
  0
SPLINE
  5
2CB
100
AcDbEntity
  8
0
100
AcDbSpline
 62
7
  6
CONTINUOUS
 70
0
 71
3
 72
11
 73
7
 74
0
 42
0.0000001
 43
0.0000001
 44
0.0000000001
 40
0.0
 40
0.0
 40
0.0
 40
0.0
 40
0.2177798312
 40
0.4509239181
 40
0.7102597115
 40
1.0
 40
1.0
 40
1.0
 40
1.0
 10
186.7267393002
 20
126.992012202
 30
0.0
 10
186.6409660947
 20
127.0415121596
 30
0.0
 10
186.4805088304
 20
127.1764387686
 30
0.0
 10
186.3096808653
 20
127.4557329407
 30
0.0
 10
186.2081834341
 20
127.7999533739
 30
0.0
 10
186.1882395464
 20
128.0504882473
 30
0.0
 10
186.1882395464
 20
128.1822428236
 30
0.0
  0
SPLINE
  5
2CC
100
AcDbEntity
  8
0
100
AcDbSpline
 62
7
  6
CONTINUOUS
 70
0
 71
3
 72
11
 73
7
 74
0
 42
0.0000001
 43
0.0000001
 44
0.0000000001
 40
0.0
 40
0.0
 40
0.0
 40
0.0
 40
0.2177798312
 40
0.4509239181
 40
0.7102597115
 40
1.0
 40
1.0
 40
1.0
 40
1.0
 10
153.393864414
 20
107.7473827885
 30
0.0
 10
153.3080912085
 20
107.7968827461
 30
0.0
 10
153.1476339442
 20
107.9318093551
 30
0.0
 10
152.9768059791
 20
108.2111035272
 30
0.0
 10
152.8753085479
 20
108.5553239604
 30
0.0
 10
152.8553646601
 20
108.8058588338
 30
0.0
 10
152.8553646601
 20
108.9376134101
 30
0.0
  0
SPLINE
  5
2CD
100
AcDbEntity
  8
0
100
AcDbSpline
 62
7
  6
CONTINUOUS
 70
0
 71
3
 72
15
 73
11
 74
0
 42
0.0000001
 43
0.0000001
 44
0.0000000001
 40
0.0
 40
0.0
 40
0.0
 40
0.0
 40
0.1080128151
 40
0.2180620975
 40
0.3319994177
 40
0.4513585055
 40
0.577277768
 40
0.710492627
 40
0.8514154749
 40
1.0
 40
1.0
 40
1.0
 40
1.0
 10
159.9918771375
 20
78.072488343
 30
0.0
 10
160.40175216
 20
77.8358508738
 30
0.0
 10
161.2719830592
 20
77.428323768
 30
0.0
 10
162.6800693105
 20
77.0389573205
 30
0.0
 10
164.1811260647
 20
76.871563122
 30
0.0
 10
165.7591648339
 20
76.9264619372
 30
0.0
 10
167.398961748
 20
77.2015421324
 30
0.0
 10
169.0853130586
 20
77.6931499661
 30
0.0
 10
170.8022216608
 20
78.39589549
 30
0.0
 10
171.9278171354
 20
78.9851295591
 30
0.0
 10
172.4916476402
 20
79.3106553097
 30
0.0
  0
SPLINE
  5
2CE
100
AcDbEntity
  8
0
100
AcDbSpline
 62
7
  6
CONTINUOUS
 70
0
 71
3
 72
11
 73
7
 74
0
 42
0.0000001
 43
0.0000001
 44
0.0000000001
 40
0.0
 40
0.0
 40
0.0
 40
0.0
 40
0.2177709505
 40
0.4509489942
 40
0.7101987597
 40
1.0
 40
1.0
 40
1.0
 40
1.0
 10
148.0714318014
 20
69.5100341298
 30
0.0
 10
147.9065046381
 20
69.605252693
 30
0.0
 10
147.5978188788
 20
69.8646329552
 30
0.0
 10
147.2694757069
 20
70.4018101911
 30
0.0
 10
147.0741396644
 20
71.0637236646
 30
0.0
 10
147.0358659298
 20
71.5455266928
 30
0.0
 10
147.0358659298
 20
71.7989574764
 30
0.0
  0
SPLINE
  5
2CF
100
AcDbEntity
  8
0
100
AcDbSpline
 62
7
  6
CONTINUOUS
 70
0
 71
3
 72
11
 73
7
 74
0
 42
0.0000001
 43
0.0000001
 44
0.0000000001
 40
0.0
 40
0.0
 40
0.0
 40
0.0
 40
0.2177723674
 40
0.4509510027
 40
0.7102002307
 40
1.0
 40
1.0
 40
1.0
 40
1.0
 10
152.1726682072
 20
67.1422377535
 30
0.0
 10
152.3375899016
 20
67.0470223278
 30
0.0
 10
152.7165506733
 20
66.909392878
 30
0.0
 10
153.3459074444
 20
66.893631223
 30
0.0
 10
154.0167814502
 20
67.0554150905
 30
0.0
 10
154.4531535058
 20
67.2631606221
 30
0.0
 10
154.6726215217
 20
67.3898697839
 30
0.0
  0
SPLINE
  5
2D0
100
AcDbEntity
  8
0
100
AcDbSpline
 62
7
  6
CONTINUOUS
 70
0
 71
3
 72
10
 73
6
 74
0
 42
0.0000001
 43
0.0000001
 44
0.0000000001
 40
0.0
 40
0.0
 40
0.0
 40
0.0
 40
0.2350062664
 40
0.4767115809
 40
1.0
 40
1.0
 40
1.0
 40
1.0
 10
186.7267393002
 20
88.5020882585
 30
0.0
 10
186.6739815691
 20
88.5325348932
 30
0.0
 10
186.5732719697
 20
88.6060184355
 30
0.0
 10
186.3985618842
 20
88.7993709638
 30
0.0
 10
186.3113115714
 20
88.9831109543
 30
0.0
 10
186.2703349189
 20
89.1124077843
 30
0.0
  0
SPLINE
  5
2D1
100
AcDbEntity
  8
0
100
AcDbSpline
 62
7
  6
CONTINUOUS
 70
0
 71
3
 72
11
 73
7
 74
0
 42
0.0000001
 43
0.0000001
 44
0.0000000001
 40
0.0
 40
0.0
 40
0.0
 40
0.0
 40
0.2897757032
 40
0.5490693955
 40
0.7822254653
 40
1.0
 40
1.0
 40
1.0
 40
1.0
 10
168.8145887505
 20
137.4453104172
 30
0.0
 10
168.9901469716
 20
137.5466683984
 30
0.0
 10
169.3392635744
 20
137.7128368641
 30
0.0
 10
169.8759495377
 20
137.8423252263
 30
0.0
 10
170.3794422547
 20
137.8296307666
 30
0.0
 10
170.6826026621
 20
137.7195688991
 30
0.0
 10
170.8145401151
 20
137.6433964914
 30
0.0
  0
SPLINE
  5
2D2
100
AcDbEntity
  8
0
100
AcDbSpline
 62
7
  6
CONTINUOUS
 70
0
 71
3
 72
15
 73
11
 74
0
 42
0.0000001
 43
0.0000001
 44
0.0000000001
 40
0.0
 40
0.0
 40
0.0
 40
0.0
 40
0.1141475829
 40
0.2373370756
 40
0.3669780685
 40
0.5000016033
 40
0.6330249151
 40
0.7626652568
 40
0.8858537231
 40
1.0
 40
1.0
 40
1.0
 40
1.0
 10
144.7730582852
 20
120.2989995171
 30
0.0
 10
144.7730582852
 20
120.5225676609
 30
0.0
 10
144.8140371322
 20
120.9878437793
 30
0.0
 10
144.9772513128
 20
121.6897534314
 30
0.0
 10
145.2388347669
 20
122.4007164591
 30
0.0
 10
145.5888152228
 20
123.0940174747
 30
0.0
 10
146.0142374058
 20
123.7437609732
 30
0.0
 10
146.4991529433
 20
124.3257795765
 30
0.0
 10
147.0254119627
 20
124.8180793943
 30
0.0
 10
147.4078598682
 20
125.0862035085
 30
0.0
 10
147.601473634
 20
125.1979858011
 30
0.0
  0
SPLINE
  5
2D3
100
AcDbEntity
  8
0
100
AcDbSpline
 62
7
  6
CONTINUOUS
 70
0
 71
3
 72
15
 73
11
 74
0
 42
0.0000001
 43
0.0000001
 44
0.0000000001
 40
0.0
 40
0.0
 40
0.0
 40
0.0
 40
0.1141543519
 40
0.237325601
 40
0.366974755
 40
0.4999984147
 40
0.6330222943
 40
0.7626720931
 40
0.8858443543
 40
1.0
 40
1.0
 40
1.0
 40
1.0
 10
141.520380634
 20
113.8486628733
 30
0.0
 10
141.7430526288
 20
113.9772218421
 30
0.0
 10
142.1828696862
 20
114.2855304898
 30
0.0
 10
142.788033942
 20
114.8517107592
 30
0.0
 10
143.3457255074
 20
115.5209780841
 30
0.0
 10
143.8349386328
 20
116.2682261049
 30
0.0
 10
144.2374645597
 20
117.0655243836
 30
0.0
 10
144.5382193126
 20
117.8831383027
 30
0.0
 10
144.7259631266
 20
118.6903229593
 30
0.0
 10
144.7730582852
 20
119.2253750972
 30
0.0
 10
144.7730582852
 20
119.4824970999
 30
0.0
  0
SPLINE
  5
2D4
100
AcDbEntity
  8
0
100
AcDbSpline
 62
7
  6
CONTINUOUS
 70
0
 71
3
 72
15
 73
11
 74
0
 42
0.0000001
 43
0.0000001
 44
0.0000000001
 40
0.0
 40
0.0
 40
0.0
 40
0.0
 40
0.1141475829
 40
0.2373370756
 40
0.3669780685
 40
0.5000016033
 40
0.6330249151
 40
0.7626652568
 40
0.8858537231
 40
1.0
 40
1.0
 40
1.0
 40
1.0
 10
137.9848614479
 20
108.5414324354
 30
0.0
 10
137.9848614479
 20
108.7650005793
 30
0.0
 10
138.025840295
 20
109.2302766977
 30
0.0
 10
138.1890544756
 20
109.9321863497
 30
0.0
 10
138.4506379296
 20
110.6431493774
 30
0.0
 10
138.8006183856
 20
111.3364503931
 30
0.0
 10
139.2260405685
 20
111.9861938915
 30
0.0
 10
139.7109561061
 20
112.5682124948
 30
0.0
 10
140.2372151254
 20
113.0605123127
 30
0.0
 10
140.619663031
 20
113.3286364269
 30
0.0
 10
140.8132767968
 20
113.4404187195
 30
0.0
  0
SPLINE
  5
2D5
100
AcDbEntity
  8
0
100
AcDbSpline
 62
7
  6
CONTINUOUS
 70
0
 71
3
 72
15
 73
11
 74
0
 42
0.0000001
 43
0.0000001
 44
0.0000000001
 40
0.0
 40
0.0
 40
0.0
 40
0.0
 40
0.114155658
 40
0.2373279333
 40
0.3669777387
 40
0.5000016213
 40
0.633025278
 40
0.7626744253
 40
0.8858456604
 40
1.0
 40
1.0
 40
1.0
 40
1.0
 10
147.0358659298
 20
110.3378715649
 30
0.0
 10
147.0358659298
 20
110.6173520327
 30
0.0
 10
147.0870563364
 20
111.1989305075
 30
0.0
 10
147.2911257291
 20
112.0763052107
 30
0.0
 10
147.6180331191
 20
112.9650160364
 30
0.0
 10
148.0555613298
 20
113.8316446032
 30
0.0
 10
148.5873147391
 20
114.6438706859
 30
0.0
 10
149.1935012099
 20
115.3713351043
 30
0.0
 10
149.8512883932
 20
115.9867483766
 30
0.0
 10
150.329350365
 20
116.3218664255
 30
0.0
 10
150.5713851159
 20
116.4616044199
 30
0.0
  0
SPLINE
  5
2D6
100
AcDbEntity
  8
0
100
AcDbSpline
 62
7
  6
CONTINUOUS
 70
0
 71
3
 72
11
 73
7
 74
0
 42
0.0000001
 43
0.0000001
 44
0.0000000001
 40
0.0
 40
0.0
 40
0.0
 40
0.0
 40
0.2305508528
 40
0.4760044413
 40
0.7336255892
 40
1.0
 40
1.0
 40
1.0
 40
1.0
 10
172.4916476402
 20
79.3106553097
 30
0.0
 10
173.4128814541
 20
79.8425267253
 30
0.0
 10
175.2422796363
 20
81.0694373219
 30
0.0
 10
177.8278584787
 20
83.2631801208
 30
0.0
 10
180.2935332647
 20
85.8250020754
 30
0.0
 10
181.8031916615
 20
87.7183734278
 30
0.0
 10
182.5265573969
 20
88.7119879417
 30
0.0
  0
SPLINE
  5
2D7
100
AcDbEntity
  8
0
100
AcDbSpline
 62
7
  6
CONTINUOUS
 70
0
 71
3
 72
18
 73
14
 74
0
 42
0.0000001
 43
0.0000001
 44
0.0000000001
 40
0.0
 40
0.0
 40
0.0
 40
0.0
 40
0.156861925
 40
0.3074024484
 40
0.44907166
 40
0.5799832602
 40
0.6992101801
 40
0.7545790853
 40
0.8073123282
 40
0.8577280829
 40
0.9062661171
 40
0.953477232
 40
1.0
 40
1.0
 40
1.0
 40
1.0
 10
187.0554758202
 20
96.5618650821
 30
0.0
 10
187.6267225987
 20
97.8504176386
 30
0.0
 10
188.6201406774
 20
100.4341548212
 30
0.0
 10
189.6560330632
 20
104.3425557649
 30
0.0
 10
190.1868357539
 20
108.118012438
 30
0.0
 10
190.1959143423
 20
111.6507392975
 30
0.0
 10
189.7537122656
 20
114.3773955073
 30
0.0
 10
189.1212002005
 20
116.3233955218
 30
0.0
 10
188.5323148809
 20
117.6239318129
 30
0.0
 10
187.8211035602
 20
118.7909664544
 30
0.0
 10
186.9922839742
 20
119.8152431817
 30
0.0
 10
186.0521162222
 20
120.6878671582
 30
0.0
 10
185.3534489941
 20
121.1649280434
 30
0.0
 10
184.9914181429
 20
121.3739431328
 30
0.0
  0
SPLINE
  5
2D8
100
AcDbEntity
  8
0
100
AcDbSpline
 62
7
  6
CONTINUOUS
 70
0
 71
3
 72
11
 73
7
 74
0
 42
0.0000001
 43
0.0000001
 44
0.0000000001
 40
0.0
 40
0.0
 40
0.0
 40
0.0
 40
0.289799778
 40
0.5490490151
 40
0.7822276429
 40
1.0
 40
1.0
 40
1.0
 40
1.0
 10
183.9466862324
 20
135.7307284826
 30
0.0
 10
184.1661542547
 20
135.8574376481
 30
0.0
 10
184.6025263277
 20
136.0651831795
 30
0.0
 10
185.2734003409
 20
136.2269670483
 30
0.0
 10
185.9027571085
 20
136.2112053825
 30
0.0
 10
186.2817178518
 20
136.0735759192
 30
0.0
 10
186.4466395469
 20
135.978360513
 30
0.0
  0
SPLINE
  5
2D9
100
AcDbEntity
  8
0
100
AcDbSpline
 62
7
  6
CONTINUOUS
 70
0
 71
3
 72
10
 73
6
 74
0
 42
0.0000001
 43
0.0000001
 44
0.0000000001
 40
0.0
 40
0.0
 40
0.0
 40
0.0
 40
0.5232856774
 40
0.7649792103
 40
1.0
 40
1.0
 40
1.0
 40
1.0
 10
188.5708006657
 20
93.0956725848
 30
0.0
 10
188.7031231992
 20
93.1247470001
 30
0.0
 10
188.9056385773
 20
93.1409140105
 30
0.0
 10
189.1601430719
 20
93.0863012058
 30
0.0
 10
189.2739790007
 20
93.0358328498
 30
0.0
 10
189.326679746
 20
93.0054191018
 30
0.0
  0
SPLINE
  5
2DA
100
AcDbEntity
  8
0
100
AcDbSpline
 62
7
  6
CONTINUOUS
 70
0
 71
3
 72
17
 73
13
 74
0
 42
0.0000001
 43
0.0000001
 44
0.0000000001
 40
0.0
 40
0.0
 40
0.0
 40
0.0
 40
0.1286938287
 40
0.2702786484
 40
0.4174347437
 40
0.5617788623
 40
0.6954492664
 40
0.8127116048
 40
0.8646776308
 40
0.9125100673
 40
0.9571398924
 40
1.0
 40
1.0
 40
1.0
 40
1.0
 10
152.8553646601
 20
70.4476894666
 30
0.0
 10
152.8553646601
 20
70.6699329818
 30
0.0
 10
152.9175316039
 20
71.1372161211
 30
0.0
 10
153.1496032824
 20
71.8233117525
 30
0.0
 10
153.5071611305
 20
72.4842491795
 30
0.0
 10
153.9615076459
 20
73.0658252782
 30
0.0
 10
154.4755091654
 20
73.5210711472
 30
0.0
 10
154.940762529
 20
73.7754173295
 30
0.0
 10
155.3046850516
 20
73.8722984214
 30
0.0
 10
155.5551652053
 20
73.8906663689
 30
0.0
 10
155.7884108352
 20
73.8565407149
 30
0.0
 10
155.9296983996
 20
73.7977857063
 30
0.0
 10
155.9938048597
 20
73.7607896883
 30
0.0
  0
SPLINE
  5
2DB
100
AcDbEntity
  8
0
100
AcDbSpline
 62
7
  6
CONTINUOUS
 70
0
 71
3
 72
17
 73
13
 74
0
 42
0.0000001
 43
0.0000001
 44
0.0000000001
 40
0.0
 40
0.0
 40
0.0
 40
0.0
 40
0.1286938287
 40
0.2702786484
 40
0.4174347437
 40
0.5617788623
 40
0.6954492664
 40
0.8127116048
 40
0.8646776308
 40
0.9125100673
 40
0.9571398924
 40
1.0
 40
1.0
 40
1.0
 40
1.0
 10
186.1882395464
 20
128.1822428236
 30
0.0
 10
186.1882395464
 20
128.4044863388
 30
0.0
 10
186.2504064902
 20
128.8717694781
 30
0.0
 10
186.4824781687
 20
129.5578651095
 30
0.0
 10
186.8400360168
 20
130.2188025365
 30
0.0
 10
187.2943825322
 20
130.8003786352
 30
0.0
 10
187.8083840516
 20
131.2556245041
 30
0.0
 10
188.2736374153
 20
131.5099706865
 30
0.0
 10
188.6375599378
 20
131.6068517784
 30
0.0
 10
188.8880400915
 20
131.6252197259
 30
0.0
 10
189.1212857215
 20
131.5910940719
 30
0.0
 10
189.2625732858
 20
131.5323390633
 30
0.0
 10
189.326679746
 20
131.4953430453
 30
0.0
  0
SPLINE
  5
2DC
100
AcDbEntity
  8
0
100
AcDbSpline
 62
7
  6
CONTINUOUS
 70
0
 71
3
 72
17
 73
13
 74
0
 42
0.0000001
 43
0.0000001
 44
0.0000000001
 40
0.0
 40
0.0
 40
0.0
 40
0.0
 40
0.1286938287
 40
0.2702786484
 40
0.4174347437
 40
0.5617788623
 40
0.6954492664
 40
0.8127116048
 40
0.8646776308
 40
0.9125100673
 40
0.9571398924
 40
1.0
 40
1.0
 40
1.0
 40
1.0
 10
152.8553646601
 20
108.9376134101
 30
0.0
 10
152.8553646601
 20
109.1598569253
 30
0.0
 10
152.9175316039
 20
109.6271400646
 30
0.0
 10
153.1496032824
 20
110.313235696
 30
0.0
 10
153.5071611305
 20
110.974173123
 30
0.0
 10
153.9615076459
 20
111.5557492217
 30
0.0
 10
154.4755091654
 20
112.0109950906
 30
0.0
 10
154.940762529
 20
112.265341273
 30
0.0
 10
155.3046850516
 20
112.3622223649
 30
0.0
 10
155.5551652053
 20
112.3805903124
 30
0.0
 10
155.7884108352
 20
112.3464646584
 30
0.0
 10
155.9296983996
 20
112.2877096498
 30
0.0
 10
155.9938048597
 20
112.2507136318
 30
0.0
  0
SPLINE
  5
2DD
100
AcDbEntity
  8
0
100
AcDbSpline
 62
7
  6
CONTINUOUS
 70
0
 71
3
 72
11
 73
7
 74
0
 42
0.0000001
 43
0.0000001
 44
0.0000000001
 40
0.0
 40
0.0
 40
0.0
 40
0.0
 40
0.2898012489
 40
0.5490510236
 40
0.7822290598
 40
1.0
 40
1.0
 40
1.0
 40
1.0
 10
191.5834418243
 20
131.3216407901
 30
0.0
 10
191.5834418243
 20
131.5750715811
 30
0.0
 10
191.5451680808
 20
132.0568746242
 30
0.0
 10
191.3498320358
 20
132.7187881048
 30
0.0
 10
191.0214888563
 20
133.2559653322
 30
0.0
 10
190.7128030995
 20
133.5153455631
 30
0.0
 10
190.5478759527
 20
133.6105641368
 30
0.0
  0
SPLINE
  5
2DE
100
AcDbEntity
  8
0
100
AcDbSpline
 62
7
  6
CONTINUOUS
 70
0
 71
3
 72
15
 73
11
 74
0
 42
0.0000001
 43
0.0000001
 44
0.0000000001
 40
0.0
 40
0.0
 40
0.0
 40
0.0
 40
0.1141543519
 40
0.237325601
 40
0.366974755
 40
0.4999984147
 40
0.6330222943
 40
0.7626720931
 40
0.8858443543
 40
1.0
 40
1.0
 40
1.0
 40
1.0
 10
188.0479226382
 20
86.6589938466
 30
0.0
 10
188.2899574152
 20
86.7987318561
 30
0.0
 10
188.7680194341
 20
87.1338499515
 30
0.0
 10
189.4258066687
 20
87.7492632877
 30
0.0
 10
190.0319931527
 20
88.4767277714
 30
0.0
 10
190.5637465499
 20
89.288953881
 30
0.0
 10
191.0012747314
 20
90.1555824448
 30
0.0
 10
191.3281820715
 20
91.0442932264
 30
0.0
 10
191.5322514345
 20
91.9216678532
 30
0.0
 10
191.5834418243
 20
92.5032462639
 30
0.0
 10
191.5834418243
 20
92.7827267016
 30
0.0
  0
SPLINE
  5
2DF
100
AcDbEntity
  8
0
100
AcDbSpline
 62
7
  6
CONTINUOUS
 70
0
 71
3
 72
25
 73
21
 74
0
 42
0.0000001
 43
0.0000001
 44
0.0000000001
 40
0.0
 40
0.0
 40
0.0
 40
0.0
 40
0.0213320791
 40
0.0428926617
 40
0.0648979477
 40
0.0875428516
 40
0.1353180106
 40
0.1872190276
 40
0.2436567825
 40
0.304604725
 40
0.3696925383
 40
0.4382898856
 40
0.5095763441
 40
0.5826005951
 40
0.656332067
 40
0.7297091863
 40
0.8016853277
 40
0.8712781831
 40
0.9376162149
 40
1.0
 40
1.0
 40
1.0
 40
1.0
 10
158.8605014471
 20
78.7256733269
 30
0.0
 10
158.5533556827
 20
78.9030005535
 30
0.0
 10
157.9579182304
 20
79.2995664016
 30
0.0
 10
157.1407911386
 20
80.0082460569
 30
0.0
 10
156.4017656411
 20
80.8277536865
 30
0.0
 10
155.510794617
 20
82.0833800473
 30
0.0
 10
154.6187810805
 20
83.9283665651
 30
0.0
 10
153.9388637076
 20
86.4455935893
 30
0.0
 10
153.6358481993
 20
89.2536211823
 30
0.0
 10
153.7132613504
 20
92.2940014543
 30
0.0
 10
154.1676476762
 20
95.5042216085
 30
0.0
 10
154.9888926475
 20
98.8171322364
 30
0.0
 10
156.1593822419
 20
102.162852075
 30
0.0
 10
157.6541903674
 20
105.470335218
 30
0.0
 10
159.4414459683
 20
108.669116598
 30
0.0
 10
161.4830397668
 20
111.690957232
 30
0.0
 10
163.7353930392
 20
114.4714116314
 30
0.0
 10
166.1508392404
 20
116.9513999714
 30
0.0
 10
168.6776996957
 20
119.0779435227
 30
0.0
 10
170.4620544085
 20
120.2703782545
 30
0.0
 10
171.36027208
 20
120.7889613734
 30
0.0
  0
SPLINE
  5
2E0
100
AcDbEntity
  8
0
100
AcDbSpline
 62
7
  6
CONTINUOUS
 70
0
 71
3
 72
25
 73
21
 74
0
 42
0.0000001
 43
0.0000001
 44
0.0000000001
 40
0.0
 40
0.0
 40
0.0
 40
0.0
 40
0.0623836167
 40
0.1287213509
 40
0.1983140001
 40
0.2702900758
 40
0.3436673578
 40
0.4173990717
 40
0.4904234985
 40
0.5617100966
 40
0.6303076041
 40
0.6953955537
 40
0.7563435331
 40
0.8127812253
 40
0.8646821605
 40
0.9124572692
 40
0.9351021548
 40
0.9571074167
 40
0.9786679641
 40
1.0
 40
1.0
 40
1.0
 40
1.0
 10
172.4916476402
 20
120.1357761662
 30
0.0
 10
171.593432396
 20
119.6171944487
 30
0.0
 10
169.8090837512
 20
118.4247646591
 30
0.0
 10
167.2822312191
 20
116.2982291653
 30
0.0
 10
164.866789266
 20
113.8182499875
 30
0.0
 10
162.614435045
 20
111.0377986875
 30
0.0
 10
160.5728356979
 20
108.0159549971
 30
0.0
 10
158.7855737512
 20
104.8171660678
 30
0.0
 10
157.2907608214
 20
101.509674908
 30
0.0
 10
156.1202682804
 20
98.1639477058
 30
0.0
 10
155.2990218307
 20
94.8510299487
 30
0.0
 10
154.844635772
 20
91.6408041289
 30
0.0
 10
154.7672242355
 20
88.6004219506
 30
0.0
 10
155.0702416164
 20
85.7923963774
 30
0.0
 10
155.7501599516
 20
83.2751729723
 30
0.0
 10
156.6421738136
 20
81.4301894796
 30
0.0
 10
157.533144356
 20
80.1745646643
 30
0.0
 10
158.2721695996
 20
79.3550585672
 30
0.0
 10
159.0892955764
 20
78.6463802074
 30
0.0
 10
159.6847322024
 20
78.2498155676
 30
0.0
 10
159.9918771375
 20
78.072488343
 30
0.0
  0
SPLINE
  5
2E1
100
AcDbEntity
  8
0
100
AcDbSpline
 62
7
  6
CONTINUOUS
 70
0
 71
3
 72
11
 73
7
 74
0
 42
0.0000001
 43
0.0000001
 44
0.0000000001
 40
0.0
 40
0.0
 40
0.0
 40
0.0
 40
0.2177798312
 40
0.4509239181
 40
0.7102597115
 40
1.0
 40
1.0
 40
1.0
 40
1.0
 10
155.9938048597
 20
112.2507136318
 30
0.0
 10
156.0795780652
 20
112.2012136742
 30
0.0
 10
156.2400353295
 20
112.0662870652
 30
0.0
 10
156.4108632946
 20
111.786992893
 30
0.0
 10
156.5123607258
 20
111.4427724598
 30
0.0
 10
156.5323046136
 20
111.1922375865
 30
0.0
 10
156.5323046136
 20
111.0604830102
 30
0.0
  0
SPLINE
  5
2E2
100
AcDbEntity
  8
0
100
AcDbSpline
 62
7
  6
CONTINUOUS
 70
0
 71
3
 72
11
 73
7
 74
0
 42
0.0000001
 43
0.0000001
 44
0.0000000001
 40
0.0
 40
0.0
 40
0.0
 40
0.0
 40
0.2177798312
 40
0.4509239181
 40
0.7102597115
 40
1.0
 40
1.0
 40
1.0
 40
1.0
 10
189.326679746
 20
131.4953430453
 30
0.0
 10
189.4124529515
 20
131.4458430877
 30
0.0
 10
189.5729102158
 20
131.3109164787
 30
0.0
 10
189.7437381809
 20
131.0316223065
 30
0.0
 10
189.8452356121
 20
130.6874018733
 30
0.0
 10
189.8651794999
 20
130.436867
 30
0.0
 10
189.8651794999
 20
130.3051124237
 30
0.0
  0
SPLINE
  5
2E3
100
AcDbEntity
  8
0
100
AcDbSpline
 62
7
  6
CONTINUOUS
 70
0
 71
3
 72
17
 73
13
 74
0
 42
0.0000001
 43
0.0000001
 44
0.0000000001
 40
0.0
 40
0.0
 40
0.0
 40
0.0
 40
0.1286938287
 40
0.2702786484
 40
0.4174347437
 40
0.5617788623
 40
0.6954492664
 40
0.8127116048
 40
0.8646776308
 40
0.9125100673
 40
0.9571398924
 40
1.0
 40
1.0
 40
1.0
 40
1.0
 10
189.8651794999
 20
91.8151884802
 30
0.0
 10
189.8651794999
 20
91.592944965
 30
0.0
 10
189.803012556
 20
91.1256618257
 30
0.0
 10
189.5709408775
 20
90.4395661943
 30
0.0
 10
189.2133830294
 20
89.7786287673
 30
0.0
 10
188.759036514
 20
89.1970526686
 30
0.0
 10
188.2450349946
 20
88.7418067997
 30
0.0
 10
187.7797816309
 20
88.4874606173
 30
0.0
 10
187.4158591084
 20
88.3905795254
 30
0.0
 10
187.1653789547
 20
88.3722115779
 30
0.0
 10
186.9321333247
 20
88.4063372319
 30
0.0
 10
186.7908457604
 20
88.4650922405
 30
0.0
 10
186.7267393002
 20
88.5020882585
 30
0.0
  0
SPLINE
  5
2E4
100
AcDbEntity
  8
0
100
AcDbSpline
 62
7
  6
CONTINUOUS
 70
0
 71
3
 72
11
 73
7
 74
0
 42
0.0000001
 43
0.0000001
 44
0.0000000001
 40
0.0
 40
0.0
 40
0.0
 40
0.0
 40
0.2177798312
 40
0.4509239181
 40
0.7102597115
 40
1.0
 40
1.0
 40
1.0
 40
1.0
 10
155.9938048597
 20
73.7607896883
 30
0.0
 10
156.0795780652
 20
73.7112897307
 30
0.0
 10
156.2400353295
 20
73.5763631217
 30
0.0
 10
156.4108632946
 20
73.2970689496
 30
0.0
 10
156.5123607258
 20
72.9528485164
 30
0.0
 10
156.5323046136
 20
72.702313643
 30
0.0
 10
156.5323046136
 20
72.5705590667
 30
0.0
  0
SPLINE
  5
2E5
100
AcDbEntity
  8
0
100
AcDbSpline
 62
7
  6
CONTINUOUS
 70
0
 71
3
 72
15
 73
11
 74
0
 42
0.0000001
 43
0.0000001
 44
0.0000000001
 40
0.0
 40
0.0
 40
0.0
 40
0.0
 40
0.1080128151
 40
0.2180620975
 40
0.3319994177
 40
0.4513585055
 40
0.577277768
 40
0.710492627
 40
0.8514154749
 40
1.0
 40
1.0
 40
1.0
 40
1.0
 10
184.9914181429
 20
121.3739431328
 30
0.0
 10
184.5815431205
 20
121.610580602
 30
0.0
 10
183.7113122212
 20
122.0181077079
 30
0.0
 10
182.3032259699
 20
122.4074741553
 30
0.0
 10
180.8021692157
 20
122.5748683539
 30
0.0
 10
179.2241304465
 20
122.5199695386
 30
0.0
 10
177.5843335325
 20
122.2448893435
 30
0.0
 10
175.8979822218
 20
121.7532815097
 30
0.0
 10
174.1810736196
 20
121.0505359858
 30
0.0
 10
173.055478145
 20
120.4613019168
 30
0.0
 10
172.4916476402
 20
120.1357761662
 30
0.0
  0
SPLINE
  5
2E6
100
AcDbEntity
  8
0
100
AcDbSpline
 62
7
  6
CONTINUOUS
 70
0
 71
3
 72
17
 73
13
 74
0
 42
0.0000001
 43
0.0000001
 44
0.0000000001
 40
0.0
 40
0.0
 40
0.0
 40
0.0
 40
0.1286938287
 40
0.2702786484
 40
0.4174347437
 40
0.5617788623
 40
0.6954492664
 40
0.8127116048
 40
0.8646776308
 40
0.9125100673
 40
0.9571398924
 40
1.0
 40
1.0
 40
1.0
 40
1.0
 10
156.5323046136
 20
72.5705590667
 30
0.0
 10
156.5323046136
 20
72.3483155515
 30
0.0
 10
156.4701376698
 20
71.8810324122
 30
0.0
 10
156.2380659913
 20
71.1949367808
 30
0.0
 10
155.8805081432
 20
70.5339993538
 30
0.0
 10
155.4261616278
 20
69.9524232551
 30
0.0
 10
154.9121601084
 20
69.4971773862
 30
0.0
 10
154.4469067447
 20
69.2428312038
 30
0.0
 10
154.0829842221
 20
69.1459501119
 30
0.0
 10
153.8325040684
 20
69.1275821644
 30
0.0
 10
153.5992584385
 20
69.1617078184
 30
0.0
 10
153.4579708741
 20
69.220462827
 30
0.0
 10
153.393864414
 20
69.257458845
 30
0.0
  0
SPLINE
  5
2E7
100
AcDbEntity
  8
0
100
AcDbSpline
 62
7
  6
CONTINUOUS
 70
0
 71
3
 72
17
 73
13
 74
0
 42
0.0000001
 43
0.0000001
 44
0.0000000001
 40
0.0
 40
0.0
 40
0.0
 40
0.0
 40
0.1286938287
 40
0.2702786484
 40
0.4174347437
 40
0.5617788623
 40
0.6954492664
 40
0.8127116048
 40
0.8646776308
 40
0.9125100673
 40
0.9571398924
 40
1.0
 40
1.0
 40
1.0
 40
1.0
 10
189.8651794999
 20
130.3051124237
 30
0.0
 10
189.8651794999
 20
130.0828689085
 30
0.0
 10
189.803012556
 20
129.6155857692
 30
0.0
 10
189.5709408775
 20
128.9294901378
 30
0.0
 10
189.2133830294
 20
128.2685527108
 30
0.0
 10
188.759036514
 20
127.6869766121
 30
0.0
 10
188.2450349946
 20
127.2317307431
 30
0.0
 10
187.7797816309
 20
126.9773845608
 30
0.0
 10
187.4158591084
 20
126.8805034689
 30
0.0
 10
187.1653789547
 20
126.8621355214
 30
0.0
 10
186.9321333247
 20
126.8962611754
 30
0.0
 10
186.7908457604
 20
126.955016184
 30
0.0
 10
186.7267393002
 20
126.992012202
 30
0.0
  0
SPLINE
  5
2E8
100
AcDbEntity
  8
0
100
AcDbSpline
 62
7
  6
CONTINUOUS
 70
0
 71
3
 72
11
 73
7
 74
0
 42
0.0000001
 43
0.0000001
 44
0.0000000001
 40
0.0
 40
0.0
 40
0.0
 40
0.0
 40
0.2177723674
 40
0.4509510027
 40
0.7102002307
 40
1.0
 40
1.0
 40
1.0
 40
1.0
 10
190.5478759527
 20
133.6105641368
 30
0.0
 10
190.3829542584
 20
133.7057795625
 30
0.0
 10
190.0039934867
 20
133.8434090123
 30
0.0
 10
189.3746367156
 20
133.8591706673
 30
0.0
 10
188.7037627098
 20
133.6973867998
 30
0.0
 10
188.2673906542
 20
133.4896412682
 30
0.0
 10
188.0479226382
 20
133.3629321064
 30
0.0
  0
SPLINE
  5
2E9
100
AcDbEntity
  8
0
100
AcDbSpline
 62
7
  6
CONTINUOUS
 70
0
 71
3
 72
15
 73
11
 74
0
 42
0.0000001
 43
0.0000001
 44
0.0000000001
 40
0.0
 40
0.0
 40
0.0
 40
0.0
 40
0.1141543519
 40
0.237325601
 40
0.366974755
 40
0.4999984147
 40
0.6330222943
 40
0.7626720931
 40
0.8858443543
 40
1.0
 40
1.0
 40
1.0
 40
1.0
 10
154.6726215217
 20
114.0938080437
 30
0.0
 10
154.4305867448
 20
113.9540700342
 30
0.0
 10
153.9525247259
 20
113.6189519388
 30
0.0
 10
153.2947374913
 20
113.0035386026
 30
0.0
 10
152.6885510072
 20
112.2760741189
 30
0.0
 10
152.15679761
 20
111.4638480093
 30
0.0
 10
151.7192694286
 20
110.5972194455
 30
0.0
 10
151.3923620884
 20
109.7085086639
 30
0.0
 10
151.1882927255
 20
108.8311340371
 30
0.0
 10
151.1371023357
 20
108.2495556264
 30
0.0
 10
151.1371023357
 20
107.9700751887
 30
0.0
  0
SPLINE
  5
2EA
100
AcDbEntity
  8
0
100
AcDbSpline
 62
7
  6
CONTINUOUS
 70
0
 71
3
 72
11
 73
7
 74
0
 42
0.0000001
 43
0.0000001
 44
0.0000000001
 40
0.0
 40
0.0
 40
0.0
 40
0.0
 40
0.2177798312
 40
0.4509239181
 40
0.7102597115
 40
1.0
 40
1.0
 40
1.0
 40
1.0
 10
189.326679746
 20
93.0054191018
 30
0.0
 10
189.4124529515
 20
92.9559191442
 30
0.0
 10
189.5729102158
 20
92.8209925352
 30
0.0
 10
189.7437381809
 20
92.5416983631
 30
0.0
 10
189.8452356121
 20
92.1974779299
 30
0.0
 10
189.8651794999
 20
91.9469430565
 30
0.0
 10
189.8651794999
 20
91.8151884802
 30
0.0
  0
SPLINE
  5
2EB
100
AcDbEntity
  8
0
100
AcDbSpline
 62
7
  6
CONTINUOUS
 70
0
 71
3
 72
11
 73
7
 74
0
 42
0.0000001
 43
0.0000001
 44
0.0000000001
 40
0.0
 40
0.0
 40
0.0
 40
0.0
 40
0.2898012489
 40
0.5490510236
 40
0.7822290598
 40
1.0
 40
1.0
 40
1.0
 40
1.0
 10
151.1371023357
 20
69.4311611002
 30
0.0
 10
151.1371023357
 20
69.1777303092
 30
0.0
 10
151.1753760791
 20
68.695927266
 30
0.0
 10
151.3707121242
 20
68.0340137855
 30
0.0
 10
151.6990553036
 20
67.4968365581
 30
0.0
 10
152.0077410605
 20
67.2374563272
 30
0.0
 10
152.1726682072
 20
67.1422377535
 30
0.0
  0
SPLINE
  5
2EC
100
AcDbEntity
  8
0
100
AcDbSpline
 62
7
  6
CONTINUOUS
 70
0
 71
3
 72
17
 73
13
 74
0
 42
0.0000001
 43
0.0000001
 44
0.0000000001
 40
0.0
 40
0.0
 40
0.0
 40
0.0
 40
0.1286938287
 40
0.2702786484
 40
0.4174347437
 40
0.5617788623
 40
0.6954492664
 40
0.8127116048
 40
0.8646776308
 40
0.9125100673
 40
0.9571398924
 40
1.0
 40
1.0
 40
1.0
 40
1.0
 10
156.5323046136
 20
111.0604830102
 30
0.0
 10
156.5323046136
 20
110.838239495
 30
0.0
 10
156.4701376698
 20
110.3709563557
 30
0.0
 10
156.2380659913
 20
109.6848607243
 30
0.0
 10
155.8805081432
 20
109.0239232973
 30
0.0
 10
155.4261616278
 20
108.4423471986
 30
0.0
 10
154.9121601084
 20
107.9871013296
 30
0.0
 10
154.4469067447
 20
107.7327551473
 30
0.0
 10
154.0829842221
 20
107.6358740554
 30
0.0
 10
153.8325040684
 20
107.6175061079
 30
0.0
 10
153.5992584385
 20
107.6516317619
 30
0.0
 10
153.4579708741
 20
107.7103867705
 30
0.0
 10
153.393864414
 20
107.7473827885
 30
0.0
  0
SPLINE
  5
2ED
100
AcDbEntity
  8
0
100
AcDbSpline
 62
7
  6
CONTINUOUS
 70
0
 71
3
 72
15
 73
11
 74
0
 42
0.0000001
 43
0.0000001
 44
0.0000000001
 40
0.0
 40
0.0
 40
0.0
 40
0.0
 40
0.1485845154
 40
0.2895068088
 40
0.4227213715
 40
0.5486405566
 40
0.6679995612
 40
0.781937036
 40
0.8919867099
 40
1.0
 40
1.0
 40
1.0
 40
1.0
 10
171.36027208
 20
120.7889613734
 30
0.0
 10
171.9241025683
 20
121.1144871144
 30
0.0
 10
173.0496955417
 20
121.7037207185
 30
0.0
 10
174.7666008594
 20
122.4064646099
 30
0.0
 10
176.4529481293
 20
122.8980714711
 30
0.0
 10
178.0927424678
 20
123.1731552359
 30
0.0
 10
179.6707814134
 20
123.2280544304
 30
0.0
 10
181.1718400736
 20
123.060660824
 30
0.0
 10
182.5799321112
 20
122.6712973909
 30
0.0
 10
183.4501655977
 20
122.2637666049
 30
0.0
 10
183.8600427129
 20
122.0271285634
 30
0.0
  0
SPLINE
  5
2EE
100
AcDbEntity
  8
0
100
AcDbSpline
 62
7
  6
CONTINUOUS
 70
0
 71
3
 72
13
 73
9
 74
0
 42
0.0000001
 43
0.0000001
 44
0.0000000001
 40
0.0
 40
0.0
 40
0.0
 40
0.0
 40
0.1142466307
 40
0.237544229
 40
0.5000005226
 40
0.7624565301
 40
0.8857537943
 40
1.0
 40
1.0
 40
1.0
 40
1.0
 10
113.9427969471
 20
207.2552264835
 30
0.0
 10
113.7975879856
 20
207.3390610199
 30
0.0
 10
113.4800074829
 20
207.4869546613
 30
0.0
 10
112.7761763902
 20
207.7007161681
 30
0.0
 10
111.8214732803
 20
207.8045576507
 30
0.0
 10
110.8667710886
 20
207.7007117539
 30
0.0
 10
110.1629426335
 20
207.4869467849
 30
0.0
 10
109.8453640768
 20
207.3390515571
 30
0.0
 10
109.70015626
 20
207.2552162854
 30
0.0
  0
SPLINE
  5
2EF
100
AcDbEntity
  8
0
100
AcDbSpline
 62
7
  6
CONTINUOUS
 70
0
 71
3
 72
11
 73
7
 74
0
 42
0.0000001
 43
0.0000001
 44
0.0000000001
 40
0.0
 40
0.0
 40
0.0
 40
0.0
 40
0.2177753738
 40
0.4509336309
 40
0.7102261693
 40
1.0
 40
1.0
 40
1.0
 40
1.0
 10
107.9018596124
 20
211.5826581554
 30
0.0
 10
107.9018596105
 20
211.735008976
 30
0.0
 10
107.8455941348
 20
212.0525935871
 30
0.0
 10
107.6048254856
 20
212.4949823369
 30
0.0
 10
107.2243282736
 20
212.8950216228
 30
0.0
 10
106.9058547426
 20
213.1142768187
 30
0.0
 10
106.730293648
 20
213.2156347709
 30
0.0
  0
SPLINE
  5
2F0
100
AcDbEntity
  8
0
100
AcDbSpline
 62
7
  6
CONTINUOUS
 70
0
 71
3
 72
13
 73
9
 74
0
 42
0.0000001
 43
0.0000001
 44
0.0000000001
 40
0.0
 40
0.0
 40
0.0
 40
0.0
 40
0.1142483233
 40
0.2375469957
 40
0.4999994774
 40
0.7624522452
 40
0.8857512516
 40
1.0
 40
1.0
 40
1.0
 40
1.0
 10
78.4462049268
 20
180.147761661
 30
0.0
 10
78.3009945018
 20
180.0639248835
 30
0.0
 10
77.9834100716
 20
179.916030185
 30
0.0
 10
77.2795812883
 20
179.7022680825
 30
0.0
 10
76.3248879064
 20
179.5984271411
 30
0.0
 10
75.3701936065
 20
179.7022636683
 30
0.0
 10
74.6663621856
 20
179.9160223086
 30
0.0
 10
74.3487758094
 20
180.0639154207
 30
0.0
 10
74.2035642397
 20
180.1477514629
 30
0.0
  0
SPLINE
  5
2F1
100
AcDbEntity
  8
0
100
AcDbSpline
 62
7
  6
CONTINUOUS
 70
0
 71
3
 72
11
 73
7
 74
0
 42
0.0000001
 43
0.0000001
 44
0.0000000001
 40
0.0
 40
0.0
 40
0.0
 40
0.0
 40
0.2177796924
 40
0.4509239527
 40
0.7102593987
 40
1.0
 40
1.0
 40
1.0
 40
1.0
 10
37.6053811139
 20
210.7659454014
 30
0.0
 10
37.6054013213
 20
210.6516823004
 30
0.0
 10
37.5631459298
 20
210.4135105449
 30
0.0
 10
37.3826162876
 20
210.0816921193
 30
0.0
 10
37.0972162965
 20
209.7816932735
 30
0.0
 10
36.8583807474
 20
209.6172323151
 30
0.0
 10
36.7267281991
 20
209.5412231346
 30
0.0
  0
SPLINE
  5
2F2
100
AcDbEntity
  8
0
100
AcDbSpline
 62
7
  6
CONTINUOUS
 70
0
 71
3
 72
15
 73
11
 74
0
 42
0.0000001
 43
0.0000001
 44
0.0000000001
 40
0.0
 40
0.0
 40
0.0
 40
0.0
 40
0.122681148
 40
0.2568619433
 40
0.397426131
 40
0.5383207409
 40
0.6734720337
 40
0.7372546802
 40
0.797743823
 40
1.0
 40
1.0
 40
1.0
 40
1.0
 10
72.2233408273
 20
230.035079659
 30
0.0
 10
72.0308291292
 20
229.9239336417
 30
0.0
 10
71.600305673
 20
229.7377229802
 30
0.0
 10
70.8970161494
 20
229.5704261138
 30
0.0
 10
70.1435213309
 20
229.5092850169
 30
0.0
 10
69.3875512185
 20
229.5585019195
 30
0.0
 10
68.7835246978
 20
229.6910333879
 30
0.0
 10
68.3404727436
 20
229.8520278562
 30
0.0
 10
67.8085553493
 20
230.1047368252
 30
0.0
 10
67.4079587639
 20
230.4261348034
 30
0.0
 10
67.2352794075
 20
230.7493826016
 30
0.0
  0
SPLINE
  5
2F3
100
AcDbEntity
  8
0
100
AcDbSpline
 62
7
  6
CONTINUOUS
 70
0
 71
3
 72
9
 73
5
 74
0
 42
0.0000001
 43
0.0000001
 44
0.0000000001
 40
0.0
 40
0.0
 40
0.0
 40
0.0
 40
0.5104125976
 40
1.0
 40
1.0
 40
1.0
 40
1.0
 10
67.2352794075
 20
230.7493826016
 30
0.0
 10
67.1926641189
 20
230.8291564583
 30
0.0
 10
67.1255672107
 20
230.9951479563
 30
0.0
 10
67.1020449038
 20
231.1730490867
 30
0.0
 10
67.1020295616
 20
231.2598019193
 30
0.0
  0
SPLINE
  5
2F4
100
AcDbEntity
  8
0
100
AcDbSpline
 62
7
  6
CONTINUOUS
 70
0
 71
3
 72
11
 73
7
 74
0
 42
0.0000001
 43
0.0000001
 44
0.0000000001
 40
0.0
 40
0.0
 40
0.0
 40
0.0
 40
0.2897781767
 40
0.5490726313
 40
0.7822276909
 40
1.0
 40
1.0
 40
1.0
 40
1.0
 10
109.7001739238
 20
205.9488649442
 30
0.0
 10
109.5685015629
 20
206.0248842975
 30
0.0
 10
109.3296460461
 20
206.1893293973
 30
0.0
 10
109.044274688
 20
206.4893609761
 30
0.0
 10
108.8637051741
 20
206.821152169
 30
0.0
 10
108.8215074893
 20
207.0593362757
 30
0.0
 10
108.8215074878
 20
207.1735974058
 30
0.0
  0
SPLINE
  5
2F5
100
AcDbEntity
  8
0
100
AcDbSpline
 62
7
  6
CONTINUOUS
 70
0
 71
3
 72
10
 73
6
 74
0
 42
0.0000001
 43
0.0000001
 44
0.0000000001
 40
0.0
 40
0.0
 40
0.0
 40
0.0
 40
0.4588857921
 40
0.7187804199
 40
1.0
 40
1.0
 40
1.0
 40
1.0
 10
73.0350320841
 20
230.4805705541
 30
0.0
 10
72.9708699401
 20
230.6529250852
 30
0.0
 10
72.8028815857
 20
230.8990900642
 30
0.0
 10
72.502692867
 20
231.1650215316
 30
0.0
 10
72.3209297733
 20
231.2850790725
 30
0.0
 10
72.2233231635
 20
231.3414310002
 30
0.0
  0
SPLINE
  5
2F6
100
AcDbEntity
  8
0
100
AcDbSpline
 62
7
  6
CONTINUOUS
 70
0
 71
3
 72
11
 73
7
 74
0
 42
0.0000001
 43
0.0000001
 44
0.0000000001
 40
0.0
 40
0.0
 40
0.0
 40
0.0
 40
0.2228964003
 40
0.4583021121
 40
0.7156030448
 40
1.0
 40
1.0
 40
1.0
 40
1.0
 10
115.5285701643
 20
204.7240918541
 30
0.0
 10
115.528570163
 20
204.8247968068
 30
0.0
 10
115.4963055972
 20
205.0330139862
 30
0.0
 10
115.356250581
 20
205.3284931447
 30
0.0
 10
115.1319355218
 20
205.6022399873
 30
0.0
 10
114.9411307631
 20
205.7579288704
 30
0.0
 10
114.8356061628
 20
205.8312398277
 30
0.0
  0
SPLINE
  5
2F7
100
AcDbEntity
  8
0
100
AcDbSpline
 62
7
  6
CONTINUOUS
 70
0
 71
3
 72
11
 73
7
 74
0
 42
0.0000001
 43
0.0000001
 44
0.0000000001
 40
0.0
 40
0.0
 40
0.0
 40
0.0
 40
0.2177727701
 40
0.4509280213
 40
0.7102223029
 40
1.0
 40
1.0
 40
1.0
 40
1.0
 10
115.5285701643
 20
202.2745846027
 30
0.0
 10
115.5285701658
 20
202.1603247026
 30
0.0
 10
115.4863734445
 20
201.9221433441
 30
0.0
 10
115.3058078369
 20
201.5903553637
 30
0.0
 10
115.0204422745
 20
201.2903260089
 30
0.0
 10
114.7815912907
 20
201.1258815368
 30
0.0
 10
114.6499213921
 20
201.0498623392
 30
0.0
  0
SPLINE
  5
2F8
100
AcDbEntity
  8
0
100
AcDbSpline
 62
7
  6
CONTINUOUS
 70
0
 71
3
 72
13
 73
9
 74
0
 42
0.0000001
 43
0.0000001
 44
0.0000000001
 40
0.0
 40
0.0
 40
0.0
 40
0.0
 40
0.1142466307
 40
0.237544229
 40
0.5000005226
 40
0.7624565301
 40
0.8857537943
 40
1.0
 40
1.0
 40
1.0
 40
1.0
 10
72.2233231635
 20
231.3414310002
 30
0.0
 10
72.0781142019
 20
231.4252655366
 30
0.0
 10
71.7605336992
 20
231.573159178
 30
0.0
 10
71.0567026065
 20
231.7869206848
 30
0.0
 10
70.1019994967
 20
231.8907621674
 30
0.0
 10
69.1472973049
 20
231.7869162706
 30
0.0
 10
68.4434688498
 20
231.5731513016
 30
0.0
 10
68.1258902931
 20
231.4252560738
 30
0.0
 10
67.9806824764
 20
231.3414208021
 30
0.0
  0
SPLINE
  5
2F9
100
AcDbEntity
  8
0
100
AcDbSpline
 62
7
  6
CONTINUOUS
 70
0
 71
3
 72
11
 73
7
 74
0
 42
0.0000001
 43
0.0000001
 44
0.0000000001
 40
0.0
 40
0.0
 40
0.0
 40
0.0
 40
0.2897733512
 40
0.5490657165
 40
0.7822241652
 40
1.0
 40
1.0
 40
1.0
 40
1.0
 10
74.2035436319
 20
186.7613597611
 30
0.0
 10
74.0718752732
 20
186.6853414525
 30
0.0
 10
73.8330246579
 20
186.5209006834
 30
0.0
 10
73.5476575447
 20
186.2208734429
 30
0.0
 10
73.3670849642
 20
185.889085093
 30
0.0
 10
73.324886821
 20
185.6508993829
 30
0.0
 10
73.3248868224
 20
185.5366374975
 30
0.0
  0
SPLINE
  5
2FA
100
AcDbEntity
  8
0
100
AcDbSpline
 62
7
  6
CONTINUOUS
 70
0
 71
3
 72
11
 73
7
 74
0
 42
0.0000001
 43
0.0000001
 44
0.0000000001
 40
0.0
 40
0.0
 40
0.0
 40
0.0
 40
0.2897733512
 40
0.5490657165
 40
0.7822241652
 40
1.0
 40
1.0
 40
1.0
 40
1.0
 10
32.4840698482
 20
210.8475642778
 30
0.0
 10
32.3524014895
 20
210.7715459692
 30
0.0
 10
32.1135508742
 20
210.6071052001
 30
0.0
 10
31.828183761
 20
210.3070779596
 30
0.0
 10
31.6476111805
 20
209.9752896097
 30
0.0
 10
31.6054130373
 20
209.7371038996
 30
0.0
 10
31.6054130387
 20
209.6228420142
 30
0.0
  0
SPLINE
  5
2FB
100
AcDbEntity
  8
0
100
AcDbSpline
 62
7
  6
CONTINUOUS
 70
0
 71
3
 72
11
 73
7
 74
0
 42
0.0000001
 43
0.0000001
 44
0.0000000001
 40
0.0
 40
0.0
 40
0.0
 40
0.0
 40
0.2897733512
 40
0.5490657165
 40
0.7822241652
 40
1.0
 40
1.0
 40
1.0
 40
1.0
 10
101.0734393986
 20
213.2156211734
 30
0.0
 10
100.897881587
 20
213.1142634287
 30
0.0
 10
100.5794140999
 20
212.8950090699
 30
0.0
 10
100.1989246157
 20
212.4949727492
 30
0.0
 10
99.958161175
 20
212.0525882828
 30
0.0
 10
99.901896984
 20
211.7350073359
 30
0.0
 10
99.901896986
 20
211.5826581554
 30
0.0
  0
SPLINE
  5
2FC
100
AcDbEntity
  8
0
100
AcDbSpline
 62
7
  6
CONTINUOUS
 70
0
 71
3
 72
15
 73
11
 74
0
 42
0.0000001
 43
0.0000001
 44
0.0000000001
 40
0.0
 40
0.0
 40
0.0
 40
0.0
 40
0.1141447985
 40
0.2373324971
 40
0.3669747555
 40
0.5000005214
 40
0.6330262147
 40
0.7626682613
 40
0.8858556261
 40
1.0
 40
1.0
 40
1.0
 40
1.0
 10
106.730293648
 20
213.2156347709
 30
0.0
 10
106.5366816993
 20
213.3274141528
 30
0.0
 10
106.1132596332
 20
213.5245589628
 30
0.0
 10
105.4237863752
 20
213.7341603661
 30
0.0
 10
104.6772796314
 20
213.8631035532
 30
0.0
 10
103.9018617533
 20
213.9066585134
 30
0.0
 10
103.1264444952
 20
213.8630998729
 30
0.0
 10
102.3799395827
 20
213.7341531413
 30
0.0
 10
101.6904692931
 20
213.5245484605
 30
0.0
 10
101.2670498209
 20
213.3274015356
 30
0.0
 10
101.0734393986
 20
213.2156211734
 30
0.0
  0
SPLINE
  5
2FD
100
AcDbEntity
  8
0
100
AcDbSpline
 62
7
  6
CONTINUOUS
 70
0
 71
3
 72
11
 73
7
 74
0
 42
0.0000001
 43
0.0000001
 44
0.0000000001
 40
0.0
 40
0.0
 40
0.0
 40
0.0
 40
0.2177753738
 40
0.4509336309
 40
0.7102261693
 40
1.0
 40
1.0
 40
1.0
 40
1.0
 10
114.8214714204
 20
206.0304940219
 30
0.0
 10
114.8214714189
 20
206.1447571373
 30
0.0
 10
114.7792723122
 20
206.3829455957
 30
0.0
 10
114.5986958253
 20
206.714737158
 30
0.0
 10
114.3133229163
 20
207.0147666224
 30
0.0
 10
114.0744677681
 20
207.1792080193
 30
0.0
 10
113.9427969471
 20
207.2552264835
 30
0.0
  0
SPLINE
  5
2FE
100
AcDbEntity
  8
0
100
AcDbSpline
 62
7
  6
CONTINUOUS
 70
0
 71
3
 72
11
 73
7
 74
0
 42
0.0000001
 43
0.0000001
 44
0.0000000001
 40
0.0
 40
0.0
 40
0.0
 40
0.0
 40
0.2177753738
 40
0.4509336309
 40
0.7102261693
 40
1.0
 40
1.0
 40
1.0
 40
1.0
 10
79.3248587923
 20
185.5366374975
 30
0.0
 10
79.3248587908
 20
185.650900613
 30
0.0
 10
79.2826596841
 20
185.8890890713
 30
0.0
 10
79.1020831972
 20
186.2208806337
 30
0.0
 10
78.8167102882
 20
186.5209100981
 30
0.0
 10
78.5778551399
 20
186.685351495
 30
0.0
 10
78.446184319
 20
186.7613699591
 30
0.0
  0
SPLINE
  5
2FF
100
AcDbEntity
  8
0
100
AcDbSpline
 62
7
  6
CONTINUOUS
 70
0
 71
3
 72
13
 73
9
 74
0
 42
0.0000001
 43
0.0000001
 44
0.0000000001
 40
0.0
 40
0.0
 40
0.0
 40
0.0
 40
0.1142487484
 40
0.2375477548
 40
0.5000005226
 40
0.7624530043
 40
0.8857516767
 40
1.0
 40
1.0
 40
1.0
 40
1.0
 10
74.2035642397
 20
182.5972587143
 30
0.0
 10
74.3487758094
 20
182.513422672
 30
0.0
 10
74.6663621856
 20
182.36552956
 30
0.0
 10
75.3701936065
 20
182.1517709197
 30
0.0
 10
76.3248879064
 20
182.0479343925
 30
0.0
 10
77.2795812883
 20
182.1517753339
 30
0.0
 10
77.9834100716
 20
182.3655374364
 30
0.0
 10
78.3009945018
 20
182.5134321349
 30
0.0
 10
78.4462049268
 20
182.5972689123
 30
0.0
  0
SPLINE
  5
300
100
AcDbEntity
  8
0
100
AcDbSpline
 62
7
  6
CONTINUOUS
 70
0
 71
3
 72
17
 73
13
 74
0
 42
0.0000001
 43
0.0000001
 44
0.0000000001
 40
0.0
 40
0.0
 40
0.0
 40
0.0
 40
0.1286923651
 40
0.2702770074
 40
0.417433908
 40
0.5617794078
 40
0.6954504941
 40
0.8127129393
 40
0.8646788001
 40
0.9125109544
 40
0.9571403961
 40
1.0
 40
1.0
 40
1.0
 40
1.0
 10
78.4462019828
 20
183.0055113665
 30
0.0
 10
78.2241244017
 20
182.8772955806
 30
0.0
 10
77.7213219958
 20
182.6698329136
 30
0.0
 10
76.9018450651
 20
182.505910992
 30
0.0
 10
76.0351065014
 20
182.4818969072
 30
0.0
 10
75.1918296102
 20
182.6003847182
 30
0.0
 10
74.4403746533
 20
182.8513654854
 30
0.0
 10
73.9177974454
 20
183.1695361114
 30
0.0
 10
73.6110310958
 20
183.4772958057
 30
0.0
 10
73.448168739
 20
183.7169926644
 30
0.0
 10
73.3477045706
 20
183.9697522405
 30
0.0
 10
73.3249058205
 20
184.1448314773
 30
0.0
 10
73.3248907171
 20
184.2302336269
 30
0.0
  0
SPLINE
  5
301
100
AcDbEntity
  8
0
100
AcDbSpline
 62
7
  6
CONTINUOUS
 70
0
 71
3
 72
13
 73
9
 74
0
 42
0.0000001
 43
0.0000001
 44
0.0000000001
 40
0.0
 40
0.0
 40
0.0
 40
0.0
 40
0.1142483233
 40
0.2375469957
 40
0.4999994774
 40
0.7624522452
 40
0.8857512516
 40
1.0
 40
1.0
 40
1.0
 40
1.0
 10
74.2035436319
 20
187.904463145
 30
0.0
 10
74.3487540568
 20
187.9882999225
 30
0.0
 10
74.666338487
 20
188.136194621
 30
0.0
 10
75.3701672704
 20
188.3499567235
 30
0.0
 10
76.3248606522
 20
188.4537976649
 30
0.0
 10
77.2795549521
 20
188.3499611377
 30
0.0
 10
77.983386373
 20
188.1362024974
 30
0.0
 10
78.3009727493
 20
187.9883093853
 30
0.0
 10
78.446184319
 20
187.9044733431
 30
0.0
  0
SPLINE
  5
302
100
AcDbEntity
  8
0
100
AcDbSpline
 62
7
  6
CONTINUOUS
 70
0
 71
3
 72
17
 73
13
 74
0
 42
0.0000001
 43
0.0000001
 44
0.0000000001
 40
0.0
 40
0.0
 40
0.0
 40
0.0
 40
0.1286923651
 40
0.2702770074
 40
0.417433908
 40
0.5617794078
 40
0.6954504941
 40
0.8127129393
 40
0.8646788001
 40
0.9125109544
 40
0.9571403961
 40
1.0
 40
1.0
 40
1.0
 40
1.0
 10
32.4840698482
 20
211.9906676617
 30
0.0
 10
32.7061474293
 20
212.1188834476
 30
0.0
 10
33.2089498352
 20
212.3263461147
 30
0.0
 10
34.028426766
 20
212.4902680363
 30
0.0
 10
34.8951653297
 20
212.5142821211
 30
0.0
 10
35.7384422208
 20
212.3957943101
 30
0.0
 10
36.4898971777
 20
212.1448135429
 30
0.0
 10
37.0124743857
 20
211.8266429169
 30
0.0
 10
37.3192407352
 20
211.5188832226
 30
0.0
 10
37.482103092
 20
211.2791863639
 30
0.0
 10
37.5825672604
 20
211.0264267878
 30
0.0
 10
37.6053660105
 20
210.8513475509
 30
0.0
 10
37.6053811139
 20
210.7659454014
 30
0.0
  0
SPLINE
  5
303
100
AcDbEntity
  8
0
100
AcDbSpline
 62
7
  6
CONTINUOUS
 70
0
 71
3
 72
11
 73
7
 74
0
 42
0.0000001
 43
0.0000001
 44
0.0000000001
 40
0.0
 40
0.0
 40
0.0
 40
0.0
 40
0.2177796924
 40
0.4509239527
 40
0.7102593987
 40
1.0
 40
1.0
 40
1.0
 40
1.0
 10
67.1020295616
 20
231.2598019193
 30
0.0
 10
67.1020093541
 20
231.3740650203
 30
0.0
 10
67.1442647457
 20
231.6122367759
 30
0.0
 10
67.3247943879
 20
231.9440552014
 30
0.0
 10
67.610194379
 20
232.2440540472
 30
0.0
 10
67.8490299281
 20
232.4085150056
 30
0.0
 10
67.9806824764
 20
232.4845241861
 30
0.0
  0
SPLINE
  5
304
100
AcDbEntity
  8
0
100
AcDbSpline
 62
7
  6
CONTINUOUS
 70
0
 71
3
 72
17
 73
13
 74
0
 42
0.0000001
 43
0.0000001
 44
0.0000000001
 40
0.0
 40
0.0
 40
0.0
 40
0.0
 40
0.1286902347
 40
0.2702748016
 40
0.4174293138
 40
0.5617764465
 40
0.6954484688
 40
0.8127147336
 40
0.8646780237
 40
0.9125120584
 40
0.9571415929
 40
1.0
 40
1.0
 40
1.0
 40
1.0
 10
106.7303171998
 20
207.0919366773
 30
0.0
 10
106.4342183355
 20
206.9209849387
 30
0.0
 10
105.7638180545
 20
206.6443769309
 30
0.0
 10
104.6711986222
 20
206.425790622
 30
0.0
 10
103.5155487033
 20
206.393765048
 30
0.0
 10
102.391171413
 20
206.551759797
 30
0.0
 10
101.3892459348
 20
206.8864417135
 30
0.0
 10
100.6923908488
 20
207.3105850117
 30
0.0
 10
100.2834560871
 20
207.72101986
 30
0.0
 10
100.0662202935
 20
208.0405577618
 30
0.0
 10
99.9323308058
 20
208.3776010106
 30
0.0
 10
99.9019105154
 20
208.6110332193
 30
0.0
 10
99.9019078313
 20
208.724899699
 30
0.0
  0
SPLINE
  5
305
100
AcDbEntity
  8
0
100
AcDbSpline
 62
7
  6
CONTINUOUS
 70
0
 71
3
 72
11
 73
7
 74
0
 42
0.0000001
 43
0.0000001
 44
0.0000000001
 40
0.0
 40
0.0
 40
0.0
 40
0.0
 40
0.2177753738
 40
0.4509336309
 40
0.7102261693
 40
1.0
 40
1.0
 40
1.0
 40
1.0
 10
99.901896986
 20
211.5826581554
 30
0.0
 10
99.9018969879
 20
211.4303073347
 30
0.0
 10
99.9581624635
 20
211.1127227236
 30
0.0
 10
100.1989311127
 20
210.6703339738
 30
0.0
 10
100.5794283248
 20
210.2702946879
 30
0.0
 10
100.8979018558
 20
210.0510394921
 30
0.0
 10
101.0734629503
 20
209.9496815399
 30
0.0
  0
SPLINE
  5
306
100
AcDbEntity
  8
0
100
AcDbSpline
 62
7
  6
CONTINUOUS
 70
0
 71
3
 72
11
 73
7
 74
0
 42
0.0000001
 43
0.0000001
 44
0.0000000001
 40
0.0
 40
0.0
 40
0.0
 40
0.0
 40
0.2897776971
 40
0.5490719787
 40
0.7822272299
 40
1.0
 40
1.0
 40
1.0
 40
1.0
 10
114.6499213921
 20
203.4993695906
 30
0.0
 10
114.7815912907
 20
203.5753887882
 30
0.0
 10
115.0204422745
 20
203.7398332603
 30
0.0
 10
115.3058078369
 20
204.0398626151
 30
0.0
 10
115.4863734445
 20
204.3716505955
 30
0.0
 10
115.5285701658
 20
204.609831954
 30
0.0
 10
115.5285701643
 20
204.7240918541
 30
0.0
  0
SPLINE
  5
307
100
AcDbEntity
  8
0
100
AcDbSpline
 62
7
  6
CONTINUOUS
 70
0
 71
3
 72
9
 73
5
 74
0
 42
0.0000001
 43
0.0000001
 44
0.0000000001
 40
0.0
 40
0.0
 40
0.0
 40
0.0
 40
0.2709897213
 40
1.0
 40
1.0
 40
1.0
 40
1.0
 10
67.9806824764
 20
231.3414208021
 30
0.0
 10
67.9142886139
 20
231.3030885166
 30
0.0
 10
67.6754655235
 20
231.1519555698
 30
0.0
 10
67.4606034908
 20
230.957489027
 30
0.0
 10
67.3387587561
 20
230.7910868127
 30
0.0
  0
SPLINE
  5
308
100
AcDbEntity
  8
0
100
AcDbSpline
 62
7
  6
CONTINUOUS
 70
0
 71
3
 72
9
 73
5
 74
0
 42
0.0000001
 43
0.0000001
 44
0.0000000001
 40
0.0
 40
0.0
 40
0.0
 40
0.0
 40
0.4750938762
 40
1.0
 40
1.0
 40
1.0
 40
1.0
 10
113.9428146109
 20
203.4993678909
 30
0.0
 10
113.6895471044
 20
203.3531447006
 30
0.0
 10
113.1095953559
 20
203.1255869185
 30
0.0
 10
112.4979290232
 20
203.0263083996
 30
0.0
 10
112.1755779018
 20
203.0041763455
 30
0.0
  0
SPLINE
  5
309
100
AcDbEntity
  8
0
100
AcDbSpline
 62
7
  6
CONTINUOUS
 70
0
 71
3
 72
13
 73
9
 74
0
 42
0.0000001
 43
0.0000001
 44
0.0000000001
 40
0.0
 40
0.0
 40
0.0
 40
0.0
 40
0.1142466307
 40
0.237544229
 40
0.5000005226
 40
0.7624565301
 40
0.8857537943
 40
1.0
 40
1.0
 40
1.0
 40
1.0
 10
78.446184319
 20
186.7613699591
 30
0.0
 10
78.3009753575
 20
186.8452044956
 30
0.0
 10
77.9833948547
 20
186.993098137
 30
0.0
 10
77.279563762
 20
187.2068596437
 30
0.0
 10
76.3248606522
 20
187.3107011263
 30
0.0
 10
75.3701584604
 20
187.2068552296
 30
0.0
 10
74.6663300054
 20
186.9930902606
 30
0.0
 10
74.3487514486
 20
186.8451950327
 30
0.0
 10
74.2035436319
 20
186.7613597611
 30
0.0
  0
SPLINE
  5
30A
100
AcDbEntity
  8
0
100
AcDbSpline
 62
7
  6
CONTINUOUS
 70
0
 71
3
 72
11
 73
7
 74
0
 42
0.0000001
 43
0.0000001
 44
0.0000000001
 40
0.0
 40
0.0
 40
0.0
 40
0.0
 40
0.2897733512
 40
0.5490657165
 40
0.7822241652
 40
1.0
 40
1.0
 40
1.0
 40
1.0
 10
78.4462019828
 20
184.3119152339
 30
0.0
 10
78.5778703415
 20
184.3879335425
 30
0.0
 10
78.8167209568
 20
184.5523743116
 30
0.0
 10
79.10208807
 20
184.8524015521
 30
0.0
 10
79.2826606505
 20
185.184189902
 30
0.0
 10
79.3248587937
 20
185.4223756121
 30
0.0
 10
79.3248587923
 20
185.5366374975
 30
0.0
  0
SPLINE
  5
30B
100
AcDbEntity
  8
0
100
AcDbSpline
 62
7
  6
CONTINUOUS
 70
0
 71
3
 72
13
 73
9
 74
0
 42
0.0000001
 43
0.0000001
 44
0.0000000001
 40
0.0
 40
0.0
 40
0.0
 40
0.0
 40
0.1142466307
 40
0.237544229
 40
0.5000005226
 40
0.7624565301
 40
0.8857537943
 40
1.0
 40
1.0
 40
1.0
 40
1.0
 10
74.2035612957
 20
184.3119050359
 30
0.0
 10
74.3487702572
 20
184.2280704995
 30
0.0
 10
74.66635076
 20
184.080176858
 30
0.0
 10
75.3701818526
 20
183.8664153513
 30
0.0
 10
76.3248849625
 20
183.7625738687
 30
0.0
 10
77.2795871543
 20
183.8664197654
 30
0.0
 10
77.9834156093
 20
184.0801847344
 30
0.0
 10
78.3009941661
 20
184.2280799623
 30
0.0
 10
78.4462019828
 20
184.3119152339
 30
0.0
  0
SPLINE
  5
30C
100
AcDbEntity
  8
0
100
AcDbSpline
 62
7
  6
CONTINUOUS
 70
0
 71
3
 72
11
 73
7
 74
0
 42
0.0000001
 43
0.0000001
 44
0.0000000001
 40
0.0
 40
0.0
 40
0.0
 40
0.0
 40
0.2897733512
 40
0.5490657165
 40
0.7822241652
 40
1.0
 40
1.0
 40
1.0
 40
1.0
 10
113.9428146109
 20
204.8057717583
 30
0.0
 10
114.0744829696
 20
204.8817900669
 30
0.0
 10
114.313333585
 20
205.0462308359
 30
0.0
 10
114.5987006981
 20
205.3462580765
 30
0.0
 10
114.7792732786
 20
205.6780464263
 30
0.0
 10
114.8214714219
 20
205.9162321364
 30
0.0
 10
114.8214714204
 20
206.0304940219
 30
0.0
  0
SPLINE
  5
30D
100
AcDbEntity
  8
0
100
AcDbSpline
 62
7
  6
CONTINUOUS
 70
0
 71
3
 72
14
 73
10
 74
0
 42
0.0000001
 43
0.0000001
 44
0.0000000001
 40
0.0
 40
0.0
 40
0.0
 40
0.0
 40
0.3072080201
 40
0.4497478615
 40
0.5815297174
 40
0.701315719
 40
0.8092838373
 40
0.9074709308
 40
1.0
 40
1.0
 40
1.0
 40
1.0
 10
34.247299862
 20
206.5968072371
 30
0.0
 10
33.8980779067
 20
206.6210291064
 30
0.0
 10
33.3872172986
 20
206.7082250342
 30
0.0
 10
32.763858847
 20
206.9372423711
 30
0.0
 10
32.3662144123
 20
207.1496843267
 30
0.0
 10
32.0396439639
 20
207.4007182973
 30
0.0
 10
31.7946394028
 20
207.6840658246
 30
0.0
 10
31.6409386856
 20
207.9923704992
 30
0.0
 10
31.6054355798
 20
208.2110020488
 30
0.0
 10
31.6054169334
 20
208.3164381436
 30
0.0
  0
SPLINE
  5
30E
100
AcDbEntity
  8
0
100
AcDbSpline
 62
7
  6
CONTINUOUS
 70
0
 71
3
 72
9
 73
5
 74
0
 42
0.0000001
 43
0.0000001
 44
0.0000000001
 40
0.0
 40
0.0
 40
0.0
 40
0.0
 40
0.2270441754
 40
1.0
 40
1.0
 40
1.0
 40
1.0
 10
37.447191423
 20
210.1778716956
 30
0.0
 10
37.4093165608
 20
210.2425314664
 30
0.0
 10
37.2180701541
 20
210.5131359897
 30
0.0
 10
36.9476470016
 20
210.7200196332
 30
0.0
 10
36.7267105353
 20
210.8475744758
 30
0.0
  0
SPLINE
  5
30F
100
AcDbEntity
  8
0
100
AcDbSpline
 62
7
  6
CONTINUOUS
 70
0
 71
3
 72
11
 73
7
 74
0
 42
0.0000001
 43
0.0000001
 44
0.0000000001
 40
0.0
 40
0.0
 40
0.0
 40
0.0
 40
0.2177753738
 40
0.4509336309
 40
0.7102261693
 40
1.0
 40
1.0
 40
1.0
 40
1.0
 10
73.3248868224
 20
185.5366374975
 30
0.0
 10
73.3248868239
 20
185.422374382
 30
0.0
 10
73.3670859306
 20
185.1841859237
 30
0.0
 10
73.5476624175
 20
184.8523943613
 30
0.0
 10
73.8330353265
 20
184.5523648969
 30
0.0
 10
74.0718904748
 20
184.3879235
 30
0.0
 10
74.2035612957
 20
184.3119050359
 30
0.0
  0
SPLINE
  5
310
100
AcDbEntity
  8
0
100
AcDbSpline
 62
7
  6
CONTINUOUS
 70
0
 71
3
 72
13
 73
9
 74
0
 42
0.0000001
 43
0.0000001
 44
0.0000000001
 40
0.0
 40
0.0
 40
0.0
 40
0.0
 40
0.1142466307
 40
0.237544229
 40
0.5000005226
 40
0.7624565301
 40
0.8857537943
 40
1.0
 40
1.0
 40
1.0
 40
1.0
 10
36.7267105353
 20
210.8475744758
 30
0.0
 10
36.5815015738
 20
210.9314090123
 30
0.0
 10
36.2639210711
 20
211.0793026537
 30
0.0
 10
35.5600899784
 20
211.2930641604
 30
0.0
 10
34.6053868685
 20
211.396905643
 30
0.0
 10
33.6506846768
 20
211.2930597463
 30
0.0
 10
32.9468562217
 20
211.0792947773
 30
0.0
 10
32.629277665
 20
210.9313995494
 30
0.0
 10
32.4840698482
 20
210.8475642778
 30
0.0
  0
SPLINE
  5
311
100
AcDbEntity
  8
0
100
AcDbSpline
 62
7
  6
CONTINUOUS
 70
0
 71
3
 72
9
 73
5
 74
0
 42
0.0000001
 43
0.0000001
 44
0.0000000001
 40
0.0
 40
0.0
 40
0.0
 40
0.0
 40
0.4752390475
 40
1.0
 40
1.0
 40
1.0
 40
1.0
 10
32.484087512
 20
208.3981095526
 30
0.0
 10
32.7317725372
 20
208.2551117717
 30
0.0
 10
33.2978269229
 20
208.0309713006
 30
0.0
 10
33.8950734837
 20
207.9301243155
 30
0.0
 10
34.2099483387
 20
207.9059319315
 30
0.0
  0
SPLINE
  5
312
100
AcDbEntity
  8
0
100
AcDbSpline
 62
7
  6
CONTINUOUS
 70
0
 71
3
 72
11
 73
7
 74
0
 42
0.0000001
 43
0.0000001
 44
0.0000000001
 40
0.0
 40
0.0
 40
0.0
 40
0.0
 40
0.2177753738
 40
0.4509336309
 40
0.7102261693
 40
1.0
 40
1.0
 40
1.0
 40
1.0
 10
31.6054130387
 20
209.6228420142
 30
0.0
 10
31.6054130402
 20
209.5085788987
 30
0.0
 10
31.6476121469
 20
209.2703904404
 30
0.0
 10
31.8281886338
 20
208.938598878
 30
0.0
 10
32.1135615429
 20
208.6385694136
 30
0.0
 10
32.3524166911
 20
208.4741280167
 30
0.0
 10
32.484087512
 20
208.3981095526
 30
0.0
  0
SPLINE
  5
313
100
AcDbEntity
  8
0
100
AcDbSpline
 62
7
  6
CONTINUOUS
 70
0
 71
3
 72
11
 73
7
 74
0
 42
0.0000001
 43
0.0000001
 44
0.0000000001
 40
0.0
 40
0.0
 40
0.0
 40
0.0
 40
0.2897733512
 40
0.5490657165
 40
0.7822241652
 40
1.0
 40
1.0
 40
1.0
 40
1.0
 10
106.7303171998
 20
209.9496951373
 30
0.0
 10
106.9058750114
 20
210.051052882
 30
0.0
 10
107.2243424985
 20
210.2703072408
 30
0.0
 10
107.6048319827
 20
210.6703435615
 30
0.0
 10
107.8455954234
 20
211.112728028
 30
0.0
 10
107.9018596144
 20
211.4303089748
 30
0.0
 10
107.9018596124
 20
211.5826581554
 30
0.0
  0
SPLINE
  5
314
100
AcDbEntity
  8
0
100
AcDbSpline
 62
7
  6
CONTINUOUS
 70
0
 71
3
 72
15
 73
11
 74
0
 42
0.0000001
 43
0.0000001
 44
0.0000000001
 40
0.0
 40
0.0
 40
0.0
 40
0.0
 40
0.1141447985
 40
0.2373324971
 40
0.3669747555
 40
0.5000005214
 40
0.6330262147
 40
0.7626682613
 40
0.8858556261
 40
1.0
 40
1.0
 40
1.0
 40
1.0
 10
101.0734629503
 20
209.9496815399
 30
0.0
 10
101.267074899
 20
209.837902158
 30
0.0
 10
101.6904969652
 20
209.6407573479
 30
0.0
 10
102.3799702232
 20
209.4311559446
 30
0.0
 10
103.126476967
 20
209.3022127575
 30
0.0
 10
103.901894845
 20
209.2586577973
 30
0.0
 10
104.6773121032
 20
209.3022164378
 30
0.0
 10
105.4238170157
 20
209.4311631694
 30
0.0
 10
106.1132873053
 20
209.6407678503
 30
0.0
 10
106.5367067775
 20
209.8379147751
 30
0.0
 10
106.7303171998
 20
209.9496951373
 30
0.0
  0
SPLINE
  5
315
100
AcDbEntity
  8
0
100
AcDbSpline
 62
7
  6
CONTINUOUS
 70
0
 71
3
 72
11
 73
7
 74
0
 42
0.0000001
 43
0.0000001
 44
0.0000000001
 40
0.0
 40
0.0
 40
0.0
 40
0.0
 40
0.2177727366
 40
0.450931526
 40
0.7102279717
 40
1.0
 40
1.0
 40
1.0
 40
1.0
 10
107.9018487671
 20
208.7248996919
 30
0.0
 10
107.9018523583
 20
208.5725530562
 30
0.0
 10
107.8455883343
 20
208.2549744891
 30
0.0
 10
107.6048313618
 20
207.8125873329
 30
0.0
 10
107.2243409711
 20
207.412549898
 30
0.0
 10
106.905873775
 20
207.1932937083
 30
0.0
 10
106.7303171998
 20
207.0919366773
 30
0.0
  0
SPLINE
  5
316
100
AcDbEntity
  8
0
100
AcDbSpline
 62
7
  6
CONTINUOUS
 70
0
 71
3
 72
9
 73
5
 74
0
 42
0.0000001
 43
0.0000001
 44
0.0000000001
 40
0.0
 40
0.0
 40
0.0
 40
0.0
 40
0.5247613351
 40
1.0
 40
1.0
 40
1.0
 40
1.0
 10
112.2169754223
 20
204.3135869575
 30
0.0
 10
112.5318470107
 20
204.3377815376
 30
0.0
 10
113.129086546
 20
204.4386317199
 30
0.0
 10
113.6951334194
 20
204.6627738092
 30
0.0
 10
113.9428146109
 20
204.8057717583
 30
0.0
  0
SPLINE
  5
317
100
AcDbEntity
  8
0
100
AcDbSpline
 62
7
  6
CONTINUOUS
 70
0
 71
3
 72
11
 73
7
 74
0
 42
0.0000001
 43
0.0000001
 44
0.0000000001
 40
0.0
 40
0.0
 40
0.0
 40
0.0
 40
0.2177796924
 40
0.4509239527
 40
0.7102593987
 40
1.0
 40
1.0
 40
1.0
 40
1.0
 10
114.8214675257
 20
204.7240901576
 30
0.0
 10
114.8214877332
 20
204.6098270567
 30
0.0
 10
114.7792323416
 20
204.3716553011
 30
0.0
 10
114.5987026994
 20
204.0398368756
 30
0.0
 10
114.3133027083
 20
203.7398380297
 30
0.0
 10
114.0744671592
 20
203.5753770714
 30
0.0
 10
113.9428146109
 20
203.4993678909
 30
0.0
  0
SPLINE
  5
318
100
AcDbEntity
  8
0
100
AcDbSpline
 62
7
  6
CONTINUOUS
 70
0
 71
3
 72
11
 73
7
 74
0
 42
0.0000001
 43
0.0000001
 44
0.0000000001
 40
0.0
 40
0.0
 40
0.0
 40
0.0
 40
0.2177727701
 40
0.4509280213
 40
0.7102223029
 40
1.0
 40
1.0
 40
1.0
 40
1.0
 10
79.324850755
 20
184.2302336301
 30
0.0
 10
79.3248507565
 20
184.11597373
 30
0.0
 10
79.2826540352
 20
183.8777923715
 30
0.0
 10
79.1020884276
 20
183.5460043911
 30
0.0
 10
78.8167228652
 20
183.2459750363
 30
0.0
 10
78.5778718814
 20
183.0815305642
 30
0.0
 10
78.4462019828
 20
183.0055113665
 30
0.0
  0
SPLINE
  5
319
100
AcDbEntity
  8
0
100
AcDbSpline
 62
7
  6
CONTINUOUS
 70
0
 71
3
 72
11
 73
7
 74
0
 42
0.0000001
 43
0.0000001
 44
0.0000000001
 40
0.0
 40
0.0
 40
0.0
 40
0.0
 40
0.2177727701
 40
0.4509280213
 40
0.7102223029
 40
1.0
 40
1.0
 40
1.0
 40
1.0
 10
108.8215074878
 20
207.1735974058
 30
0.0
 10
108.8215074864
 20
207.287857306
 30
0.0
 10
108.8637042076
 20
207.5260386645
 30
0.0
 10
109.0442698153
 20
207.8578266449
 30
0.0
 10
109.3296353776
 20
208.1578559997
 30
0.0
 10
109.5684863614
 20
208.3223004717
 30
0.0
 10
109.70015626
 20
208.3983196694
 30
0.0
  0
SPLINE
  5
31A
100
AcDbEntity
  8
0
100
AcDbSpline
 62
7
  6
CONTINUOUS
 70
0
 71
3
 72
9
 73
5
 74
0
 42
0.0000001
 43
0.0000001
 44
0.0000000001
 40
0.0
 40
0.0
 40
0.0
 40
0.0
 40
0.2744293402
 40
1.0
 40
1.0
 40
1.0
 40
1.0
 10
109.70015626
 20
207.2552162854
 30
0.0
 10
109.6245934878
 20
207.2115903589
 30
0.0
 10
109.3572830404
 20
207.0404523215
 30
0.0
 10
109.1203513179
 20
206.8123367602
 30
0.0
 10
108.9984133545
 20
206.6165096035
 30
0.0
  0
SPLINE
  5
31B
100
AcDbEntity
  8
0
100
AcDbSpline
 62
7
  6
CONTINUOUS
 70
0
 71
3
 72
11
 73
7
 74
0
 42
0.0000001
 43
0.0000001
 44
0.0000000001
 40
0.0
 40
0.0
 40
0.0
 40
0.0
 40
0.2177839237
 40
0.4509111717
 40
0.7102971901
 40
1.0
 40
1.0
 40
1.0
 40
1.0
 10
63.5111530842
 20
117.3732569507
 30
0.0
 10
63.610109757
 20
117.3161256315
 30
0.0
 10
63.8374779217
 20
117.2336138643
 30
0.0
 10
64.2151317906
 20
117.2240549689
 30
0.0
 10
64.6176218528
 20
117.3212527112
 30
0.0
 10
64.879485545
 20
117.4458288199
 30
0.0
 10
65.011120149
 20
117.5218276403
 30
0.0
  0
SPLINE
  5
31C
100
AcDbEntity
  8
0
100
AcDbSpline
 62
7
  6
CONTINUOUS
 70
0
 71
3
 72
11
 73
7
 74
0
 42
0.0000001
 43
0.0000001
 44
0.0000000001
 40
0.0
 40
0.0
 40
0.0
 40
0.0
 40
0.2177825102
 40
0.4509091639
 40
0.7102957096
 40
1.0
 40
1.0
 40
1.0
 40
1.0
 10
30.6305508649
 20
136.3564520359
 30
0.0
 10
30.5315909409
 20
136.4135852936
 30
0.0
 10
30.3464407344
 20
136.5692392535
 30
0.0
 10
30.1493266574
 20
136.891529089
 30
0.0
 10
30.0322525544
 20
137.2887111471
 30
0.0
 10
30.009206418
 20
137.5777923959
 30
0.0
 10
30.009206418
 20
137.7297975152
 30
0.0
  0
SPLINE
  5
31D
100
AcDbEntity
  8
0
100
AcDbSpline
 62
7
  6
CONTINUOUS
 70
0
 71
3
 72
11
 73
7
 74
0
 42
0.0000001
 43
0.0000001
 44
0.0000000001
 40
0.0
 40
0.0
 40
0.0
 40
0.0
 40
0.2372398078
 40
0.4999994051
 40
0.7627593222
 40
1.0
 40
1.0
 40
1.0
 40
1.0
 10
78.4462049268
 20
157.0407432562
 30
0.0
 10
78.1450376762
 20
156.8668653009
 30
0.0
 10
77.4446771123
 20
156.6131362532
 30
0.0
 10
76.324888176
 20
156.4915718127
 30
0.0
 10
75.2050973874
 20
156.6131310471
 30
0.0
 10
74.5047338484
 20
156.8668566371
 30
0.0
 10
74.2035642397
 20
157.0407330581
 30
0.0
  0
SPLINE
  5
31E
100
AcDbEntity
  8
0
100
AcDbSpline
 62
7
  6
CONTINUOUS
 70
0
 71
3
 72
11
 73
7
 74
0
 42
0.0000001
 43
0.0000001
 44
0.0000000001
 40
0.0
 40
0.0
 40
0.0
 40
0.0
 40
0.2177821605
 40
0.4509085882
 40
0.7102951949
 40
1.0
 40
1.0
 40
1.0
 40
1.0
 10
115.5285772471
 20
179.167566198
 30
0.0
 10
115.528577215
 20
179.0533021874
 30
0.0
 10
115.4863515413
 20
178.8151400016
 30
0.0
 10
115.3058017387
 20
178.4833032621
 30
0.0
 10
115.0203778231
 20
178.1833357829
 30
0.0
 10
114.7815572293
 20
178.0188434668
 30
0.0
 10
114.6499213921
 20
177.9428439344
 30
0.0
  0
SPLINE
  5
31F
100
AcDbEntity
  8
0
100
AcDbSpline
 62
7
  6
CONTINUOUS
 70
0
 71
3
 72
11
 73
7
 74
0
 42
0.0000001
 43
0.0000001
 44
0.0000000001
 40
0.0
 40
0.0
 40
0.0
 40
0.0
 40
0.2897042895
 40
0.5490907647
 40
0.7822174449
 40
1.0
 40
1.0
 40
1.0
 40
1.0
 10
62.8898086373
 20
118.74660243
 30
0.0
 10
62.8898086373
 20
118.5945973107
 30
0.0
 10
62.912854722
 20
118.3055160943
 30
0.0
 10
63.0299288547
 20
117.9083340595
 30
0.0
 10
63.2270429249
 20
117.5860442432
 30
0.0
 10
63.4121931129
 20
117.4303901743
 30
0.0
 10
63.5111530842
 20
117.3732569507
 30
0.0
  0
SPLINE
  5
320
100
AcDbEntity
  8
0
100
AcDbSpline
 62
7
  6
CONTINUOUS
 70
0
 71
3
 72
9
 73
5
 74
0
 42
0.0000001
 43
0.0000001
 44
0.0000000001
 40
0.0
 40
0.0
 40
0.0
 40
0.0
 40
0.2349022509
 40
1.0
 40
1.0
 40
1.0
 40
1.0
 10
74.2035642397
 20
180.1477514629
 30
0.0
 10
74.2769975744
 20
180.1053556665
 30
0.0
 10
74.597766803
 20
179.9390811326
 30
0.0
 10
74.9445014063
 20
179.8256294859
 30
0.0
 10
75.2136397264
 20
179.7636686653
 30
0.0
  0
SPLINE
  5
321
100
AcDbEntity
  8
0
100
AcDbSpline
 62
7
  6
CONTINUOUS
 70
0
 71
3
 72
9
 73
5
 74
0
 42
0.0000001
 43
0.0000001
 44
0.0000000001
 40
0.0
 40
0.0
 40
0.0
 40
0.0
 40
0.2465708886
 40
1.0
 40
1.0
 40
1.0
 40
1.0
 10
75.2136397264
 20
179.7636686653
 30
0.0
 10
75.2567034837
 20
179.7537545597
 30
0.0
 10
75.4319381758
 20
179.7161150644
 30
0.0
 10
75.6093273595
 20
179.6886079789
 30
0.0
 10
75.7434881059
 20
179.6733203658
 30
0.0
  0
SPLINE
  5
322
100
AcDbEntity
  8
0
100
AcDbSpline
 62
7
  6
CONTINUOUS
 70
0
 71
3
 72
9
 73
5
 74
0
 42
0.0000001
 43
0.0000001
 44
0.0000000001
 40
0.0
 40
0.0
 40
0.0
 40
0.0
 40
0.2532154778
 40
1.0
 40
1.0
 40
1.0
 40
1.0
 10
76.9062339422
 20
179.6733170091
 30
0.0
 10
76.951319244
 20
179.6784542065
 30
0.0
 10
77.1290840526
 20
179.7011571612
 30
0.0
 10
77.305623481
 20
179.7336300396
 30
0.0
 10
77.436038756
 20
179.7636518589
 30
0.0
  0
SPLINE
  5
323
100
AcDbEntity
  8
0
100
AcDbSpline
 62
7
  6
CONTINUOUS
 70
0
 71
3
 72
9
 73
5
 74
0
 42
0.0000001
 43
0.0000001
 44
0.0000000001
 40
0.0
 40
0.0
 40
0.0
 40
0.0
 40
0.2642673046
 40
1.0
 40
1.0
 40
1.0
 40
1.0
 10
77.436038756
 20
179.7636518589
 30
0.0
 10
77.5289946086
 20
179.7850504552
 30
0.0
 10
77.8778931175
 20
179.8771438522
 30
0.0
 10
78.2162210737
 20
180.0149812141
 30
0.0
 10
78.4462049268
 20
180.147761661
 30
0.0
  0
SPLINE
  5
324
100
AcDbEntity
  8
0
100
AcDbSpline
 62
7
  6
CONTINUOUS
 70
0
 71
3
 72
9
 73
5
 74
0
 42
0.0000001
 43
0.0000001
 44
0.0000000001
 40
0.0
 40
0.0
 40
0.0
 40
0.0
 40
0.2604112263
 40
1.0
 40
1.0
 40
1.0
 40
1.0
 10
115.3151818223
 20
201.6330213564
 30
0.0
 10
115.3359234993
 20
201.663052272
 30
0.0
 10
115.4111905007
 20
201.7812775986
 30
0.0
 10
115.4673641471
 20
201.9121271175
 30
0.0
 10
115.4939393085
 20
202.0123186153
 30
0.0
  0
SPLINE
  5
325
100
AcDbEntity
  8
0
100
AcDbSpline
 62
7
  6
CONTINUOUS
 70
0
 71
3
 72
9
 73
5
 74
0
 42
0.0000001
 43
0.0000001
 44
0.0000000001
 40
0.0
 40
0.0
 40
0.0
 40
0.0
 40
0.2527278947
 40
1.0
 40
1.0
 40
1.0
 40
1.0
 10
115.4939393085
 20
202.0123186153
 30
0.0
 10
115.499661901
 20
202.0338934647
 30
0.0
 10
115.5196493541
 20
202.1199399324
 30
0.0
 10
115.5285772593
 20
202.2085856376
 30
0.0
 10
115.5285772471
 20
202.2745846027
 30
0.0
  0
ENDSEC
  0
SECTION
  2
OBJECTS
  0
DICTIONARY
  5
C
100
AcDbDictionary
280
0
281
1
  3
ACAD_GROUP
350
D
  3
ACAD_MLINESTYLE
350
17
  3
ACAD_LAYOUT
350
1A
  3
ACAD_PLOTSETTINGS
350
19
  3
ACAD_PLOTSTYLENAME
350
E
  0
DICTIONARY
  5
D
102
{ACAD_REACTORS
330
C
102
}
100
AcDbDictionary
280
0
281
1
  0
ACDBDICTIONARYWDFLT
  5
E
102
{ACAD_REACTORS
330
C
102
}
100
AcDbDictionary
281
1
  3
Normal
350
F
100
AcDbDictionaryWithDefault
340
F
  0
DICTIONARY
  5
17
102
{ACAD_REACTORS
330
C
102
}
100
AcDbDictionary
280
0
281
1
  3
Standard
350
18
  0
DICTIONARY
  5
19
102
{ACAD_REACTORS
330
C
102
}
100
AcDbDictionary
281
1
  0
DICTIONARY
  5
1A
102
{ACAD_REACTORS
330
C
102
}
100
AcDbDictionary
281
1
  3
Model
350
326
  3
Layout1
350
327
  0
ACDBPLACEHOLDER
  5
F
102
{ACAD_REACTORS
330
E
102
}
  0
MLINESTYLE
  5
18
102
{ACAD_REACTORS
330
17
102
}
100
AcDbMlineStyle
  2
STANDARD
 70
0
  3

 62
256
 51
90.0
 52
90.0
 71
2
 49
0.5
 62
256
  6
BYLAYER
 49
-0.5
 62
256
  6
BYLAYER
  0
LAYOUT
  5
326
102
{ACAD_REACTORS
330
1A
102
}
100
AcDbPlotSettings
  1

  2
none_device
  4

  6

 40
0.0
 41
0.0
 42
0.0
 43
0.0
 44
210.0
 45
297.0
 46
0.0
 47
0.0
 48
0.0
 49
0.0
140
0.0
141
0.0
142
1.0
143
1.0
 70
1024
 72
1
 73
0
 74
0
  7

 75
0
147
1.0
148
0.0
149
0.0
100
AcDbLayout
  1
Model
 70
0
 71
0
 10
0.0
 20
0.0
 11
210.0
 21
297.0
 12
0.0
 22
0.0
 32
0.0
 14
0.0
 24
0.0
 34
0.0
 15
0.0
 25
0.0
 35
0.0
146
0.0
 13
0.0
 23
0.0
 33
0.0
 16
1.0
 26
0.0
 36
0.0
 17
0.0
 27
1.0
 37
0.0
 76
0
330
210
345
0
346
0
  0
LAYOUT
  5
327
102
{ACAD_REACTORS
330
1A
102
}
100
AcDbPlotSettings
  1

  2
none_device
  4

  6

 40
0.0
 41
0.0
 42
0.0
 43
0.0
 44
210.0
 45
297.0
 46
0.0
 47
0.0
 48
0.0
 49
0.0
140
0.0
141
0.0
142
1.0
143
1.0
 70
0
 72
1
 73
0
 74
0
  7

 75
0
147
1.0
148
0.0
149
0.0
100
AcDbLayout
  1
Layout1
 70
0
 71
1
 10
0.0
 20
0.0
 11
210.0
 21
297.0
 12
0.0
 22
0.0
 32
0.0
 14
0.0
 24
0.0
 34
0.0
 15
0.0
 25
0.0
 35
0.0
146
0.0
 13
0.0
 23
0.0
 33
0.0
 16
1.0
 26
0.0
 36
0.0
 17
0.0
 27
1.0
 37
0.0
 76
0
330
211
345
0
346
0
  0
ENDSEC
  0
EOF
