999
DXF file: C:\Users\sesa63760\Documents\7-Dev\_Creo\CAD\MCADFD0001430_3D-CAD\drw0001_3.dxf
999
Pro/ENGINEER 2019471 by Parametric Technology Corporation
  0
SECTION
  2
HEADER
  9
$ACADVER
  1
AC1024
  9
$DWGCODEPAGE
  3
ANSI_1252
  9
$EXTMAX
 10
60.1338256977
 20
85.0464106296
 30
0.0
  9
$EXTMIN
 10
0.0
 20
0.0
 30
0.0
  9
$LIMMIN
 10
0.0
 20
0.0
  9
$LIMMAX
 10
60.1338256977
 20
85.0464106296
  9
$VIEWCTR
 10
30.0669128489
 20
42.5232053148
  9
$VIEWSIZE
 40
85.0464106296
  9
$CLAYER
  8
0
  9
$LTSCALE
 40
5.5437660262
  9
$CELTYPE
  6
BYLAYER
  9
$DIMSCALE
 40
1.0
  9
$DIMASZ
 40
0.7158788774
  9
$DIMEXO
 40
1.0
  9
$DIMDLI
 40
3.8302383454
  9
$DIMEXE
 40
1.0
  9
$DIMCEN
 40
0.9071617134
  9
$DIMLFAC
 40
1.0
  9
$DIMBLK
  1
_FILLED
  9
$DIMALT
 70
0
  9
$DIMALTF
 40
0.0393700787
  9
$DIMTXT
 40
1.0022304283
  9
$DIMTOL
 70
1
  9
$DIMLIM
 70
0
  9
$DIMTFAC
 40
1.0
  9
$DIMTP
 40
0.01
  9
$DIMTM
 40
0.01
  9
$DIMGAP
 40
0.625
  9
$DIMDSEP
 70
46
  9
$AUNITS
 70
0
  9
$PDMODE
 70
3
  9
$PDSIZE
 40
0.3125
  9
$HANDSEED
  5
280
  9
$TILEMODE
 70
1
  9
$MEASUREMENT
 70
1
  9
$INSUNITS
 70
4
  0
ENDSEC
  0
SECTION
  2
CLASSES
  0
CLASS
  1
ACDBDICTIONARYWDFLT
  2
AcDbDictionaryWithDefault
  3
AutoCAD 2000
 90
0
 91
1
280
0
281
0
  0
CLASS
  1
ACDBPLACEHOLDER
  2
AcDbPlaceHolder
  3
AutoCAD 2000
 90
0
 91
1
280
0
281
0
  0
CLASS
  1
LAYOUT
  2
AcDbLayout
  3
AutoCAD 2000
 90
0
 91
0
280
0
281
0
  0
ENDSEC
  0
SECTION
  2
TABLES
  0
TABLE
  2
VPORT
  5
8
100
AcDbSymbolTable
 70
2
  0
VPORT
  5
1F4
100
AcDbSymbolTableRecord
100
AcDbViewportTableRecord
  2
*ACTIVE
 70
0
 10
0.0
 20
0.0
 11
1.0
 21
1.0
 12
30.0669128489
 22
42.5232053148
 13
0.0
 23
0.0
 14
1.0
 24
1.0
 15
0.0
 25
0.0
 16
0.0
 26
0.0
 36
1.0
 17
0.0
 27
0.0
 37
0.0
 40
85.0464106296
 41
0.7070707071
 42
50.0
 43
0.0
 44
0.0
 50
0.0
 51
0.0
 71
0
 72
100
 73
1
 74
1
 75
0
 76
0
 77
0
 78
0
  0
ENDTAB
  0
TABLE
  2
LTYPE
  5
5
100
AcDbSymbolTable
 70
6
  0
LTYPE
  5
14
100
AcDbSymbolTableRecord
100
AcDbLinetypeTableRecord
  2
BYBLOCK
 70
0
  3

 72
65
 73
0
 40
0.0
  0
LTYPE
  5
15
100
AcDbSymbolTableRecord
100
AcDbLinetypeTableRecord
  2
BYLAYER
 70
0
  3

 72
65
 73
0
 40
0.0
  0
LTYPE
  5
16
100
AcDbSymbolTableRecord
100
AcDbLinetypeTableRecord
  2
CONTINUOUS
 70
64
  3
Solid line
 72
65
 73
0
 40
0.0
  0
LTYPE
  5
1F5
100
AcDbSymbolTableRecord
100
AcDbLinetypeTableRecord
  2
CENTER
 70
64
  3
____ _ ____ _ ____ _ ____ _ ____ _ ____ _ ____
 72
65
 73
4
 40
0.6
 49
0.375
 74
0
 49
-0.075
 74
0
 49
0.075
 74
0
 49
-0.075
 74
0
  0
LTYPE
  5
1F6
100
AcDbSymbolTableRecord
100
AcDbLinetypeTableRecord
  2
HIDDEN
 70
64
  3
- - - - - - - - - - - - - - - - - - - -
 72
65
 73
2
 40
0.2
 49
0.1
 74
0
 49
-0.1
 74
0
  0
LTYPE
  5
1F7
100
AcDbSymbolTableRecord
100
AcDbLinetypeTableRecord
  2
PHANTOM
 70
64
  3
_____ _ _ _____ _ _ _____ _ _ _____
 72
65
 73
6
 40
0.8
 49
0.45
 74
0
 49
-0.05
 74
0
 49
0.1
 74
0
 49
-0.05
 74
0
 49
0.1
 74
0
 49
-0.05
 74
0
  0
LTYPE
  5
1F8
100
AcDbSymbolTableRecord
100
AcDbLinetypeTableRecord
  2
DOT
 70
64
  3
. . . . . . . . . . . . . . . . . . . .
 72
65
 73
2
 40
0.2
 49
0.1
 74
0
 49
-0.1
 74
0
  0
LTYPE
  5
1F9
100
AcDbSymbolTableRecord
100
AcDbLinetypeTableRecord
  2
DASHED
 70
64
  3
- - - - - - - - - - - - - - - - - - - -
 72
65
 73
2
 40
0.2
 49
0.1
 74
0
 49
-0.1
 74
0
  0
ENDTAB
  0
TABLE
  2
LAYER
  5
2
100
AcDbSymbolTable
 70
36
  0
LAYER
  5
10
100
AcDbSymbolTableRecord
100
AcDbLayerTableRecord
  2
0
 70
0
 62
7
  6
CONTINUOUS
370
-3
390
F
  0
LAYER
  5
1FA
100
AcDbSymbolTableRecord
100
AcDbLayerTableRecord
  2
DEFAULT_1
 70
0
 62
7
  6
CENTER
370
-3
390
F
  0
LAYER
  5
1FB
100
AcDbSymbolTableRecord
100
AcDbLayerTableRecord
  2
DEFAULT_2
 70
0
 62
8
  6
HIDDEN
370
-3
390
F
  0
LAYER
  5
1FC
100
AcDbSymbolTableRecord
100
AcDbLayerTableRecord
  2
DEFAULT_3
 70
0
 62
7
  6
PHANTOM
370
-3
390
F
  0
LAYER
  5
1FD
100
AcDbSymbolTableRecord
100
AcDbLayerTableRecord
  2
00_COMPONENTS
 70
0
 62
7
  6
CONTINUOUS
370
-3
390
F
  0
LAYER
  5
1FE
100
AcDbSymbolTableRecord
100
AcDbLayerTableRecord
  2
01_1_DEFAULT_DATUMS
 70
0
 62
7
  6
CONTINUOUS
370
-3
390
F
  0
LAYER
  5
1FF
100
AcDbSymbolTableRecord
100
AcDbLayerTableRecord
  2
01_PLANES
 70
0
 62
7
  6
CONTINUOUS
370
-3
390
F
  0
LAYER
  5
200
100
AcDbSymbolTableRecord
100
AcDbLayerTableRecord
  2
02_COORD_SYS
 70
0
 62
7
  6
CONTINUOUS
370
-3
390
F
  0
LAYER
  5
201
100
AcDbSymbolTableRecord
100
AcDbLayerTableRecord
  2
03_AXES
 70
0
 62
7
  6
CONTINUOUS
370
-3
390
F
  0
LAYER
  5
202
100
AcDbSymbolTableRecord
100
AcDbLayerTableRecord
  2
04_POINTS
 70
0
 62
7
  6
CONTINUOUS
370
-3
390
F
  0
LAYER
  5
203
100
AcDbSymbolTableRecord
100
AcDbLayerTableRecord
  2
05_CURVES
 70
0
 62
7
  6
CONTINUOUS
370
-3
390
F
  0
LAYER
  5
204
100
AcDbSymbolTableRecord
100
AcDbLayerTableRecord
  2
06_SURFS
 70
0
 62
7
  6
CONTINUOUS
370
-3
390
F
  0
LAYER
  5
205
100
AcDbSymbolTableRecord
100
AcDbLayerTableRecord
  2
07_COSMETICS
 70
0
 62
7
  6
CONTINUOUS
370
-3
390
F
  0
LAYER
  5
206
100
AcDbSymbolTableRecord
100
AcDbLayerTableRecord
  2
10_NOTES
 70
0
 62
7
  6
CONTINUOUS
370
-3
390
F
  0
LAYER
  5
207
100
AcDbSymbolTableRecord
100
AcDbLayerTableRecord
  2
11_NOTES_PUB
 70
0
 62
7
  6
CONTINUOUS
370
-3
390
F
  0
LAYER
  5
208
100
AcDbSymbolTableRecord
100
AcDbLayerTableRecord
  2
13_REF_GTOL
 70
0
 62
7
  6
CONTINUOUS
370
-3
390
F
  0
LAYER
  5
209
100
AcDbSymbolTableRecord
100
AcDbLayerTableRecord
  2
16_MISC
 70
0
 62
7
  6
CONTINUOUS
370
-3
390
F
  0
LAYER
  5
20A
100
AcDbSymbolTableRecord
100
AcDbLayerTableRecord
  2
17_NO_PRINT
 70
0
 62
7
  6
CONTINUOUS
370
-3
390
F
  0
LAYER
  5
20B
100
AcDbSymbolTableRecord
100
AcDbLayerTableRecord
  2
18_DATUM_CAMS_JOINTS
 70
0
 62
7
  6
CONTINUOUS
370
-3
390
F
  0
LAYER
  5
20C
100
AcDbSymbolTableRecord
100
AcDbLayerTableRecord
  2
19_DATUM_FUNCTIONAL
 70
0
 62
7
  6
CONTINUOUS
370
-3
390
F
  0
LAYER
  5
20D
100
AcDbSymbolTableRecord
100
AcDbLayerTableRecord
  2
20_DATUM_KINEMATIC_SCHEME
 70
0
 62
7
  6
CONTINUOUS
370
-3
390
F
  0
ENDTAB
  0
TABLE
  2
STYLE
  5
3
100
AcDbSymbolTable
 70
1
  0
STYLE
  5
11
100
AcDbSymbolTableRecord
100
AcDbTextStyleTableRecord
  2
STANDARD
 70
0
 40
0.0
 41
0.8
 50
0.0
 71
0
 42
0.2
  3
txt
  4

  0
STYLE
  5
20E
100
AcDbSymbolTableRecord
100
AcDbTextStyleTableRecord
  2
TEXTSTYLE_1
 70
0
 40
0.0
 41
0.8
 50
0.0
 71
0
 42
0.2
  3
gdt
  4

  0
ENDTAB
  0
TABLE
  2
VIEW
  5
6
100
AcDbSymbolTable
 70
0
  0
ENDTAB
  0
TABLE
  2
UCS
  5
7
100
AcDbSymbolTable
 70
0
  0
ENDTAB
  0
TABLE
  2
APPID
  5
9
100
AcDbSymbolTable
 70
1
  0
APPID
  5
20F
100
AcDbSymbolTableRecord
100
AcDbRegAppTableRecord
  2
ACAD
 70
0
  0
ENDTAB
  0
TABLE
  2
BLOCK_RECORD
  5
1
100
AcDbSymbolTable
 70
0
  0
BLOCK_RECORD
  5
210
100
AcDbSymbolTableRecord
100
AcDbBlockTableRecord
  2
*Model_Space
  0
BLOCK_RECORD
  5
211
100
AcDbSymbolTableRecord
100
AcDbBlockTableRecord
  2
*Paper_Space
  0
BLOCK_RECORD
  5
212
100
AcDbSymbolTableRecord
100
AcDbBlockTableRecord
  2
_FILLED
  0
ENDTAB
  0
TABLE
  2
DIMSTYLE
  5
A
100
AcDbSymbolTable
 70
1
100
AcDbDimStyleTable
 71
0
  0
DIMSTYLE
105
213
100
AcDbSymbolTableRecord
100
AcDbDimStyleTableRecord
  2
STANDARD
 70
0
  3

  4

 40
1.0
 41
0.7158788774
 42
1.0
 43
0.38
 44
1.0
 45
0.0
 46
0.0
 47
0.01
 48
0.01
140
1.0022304283
141
0.09
142
0.0
143
25.4
144
1.0
145
0.0
146
1.0
147
0.625
 71
1
 72
0
 73
0
 74
0
 75
0
 76
0
 77
1
 78
8
 79
2
170
0
171
1
172
0
173
0
174
0
175
0
176
0
177
0
178
0
270
2
179
2
271
2
272
2
273
2
274
2
275
0
280
0
281
0
282
0
283
1
284
8
285
0
286
0
287
3
288
0
340
11
278
46
341
212
342
212
343
212
344
212
  0
ENDTAB
  0
ENDSEC
  0
SECTION
  2
BLOCKS
  0
BLOCK
  5
20
100
AcDbEntity
  8
0
100
AcDbBlockBegin
  2
*Model_Space
 70
0
 10
0.0
 20
0.0
 30
0.0
  3
*Model_Space
  1

  0
ENDBLK
  5
21
100
AcDbEntity
  8
0
100
AcDbBlockEnd
  0
BLOCK
  5
1C
100
AcDbEntity
  8
0
100
AcDbBlockBegin
  2
*Paper_Space
 70
0
 10
0.0
 20
0.0
 30
0.0
  3
*Paper_Space
  1

  0
ENDBLK
  5
1D
100
AcDbEntity
  8
0
100
AcDbBlockEnd
  0
BLOCK
  5
214
100
AcDbEntity
  8
0
100
AcDbBlockBegin
  2
_FILLED
 70
64
 10
0.0
 20
0.0
  3
_FILLED
  1

  0
SOLID
  5
215
100
AcDbEntity
  8
0
  6
BYBLOCK
 62
0
100
AcDbTrace
 10
0.0
 20
0.0
 11
-1.0
 21
0.25
 12
-1.0
 22
-0.25
 13
-1.0
 23
-0.25
  0
ENDBLK
  5
216
100
AcDbEntity
  8
0
  6
BYBLOCK
 62
0
100
AcDbBlockEnd
  0
ENDSEC
  0
SECTION
  2
ENTITIES
  0
LINE
  5
217
100
AcDbEntity
  8
0
100
AcDbLine
 62
7
  6
CONTINUOUS
 10
24.5496806396
 20
6.8182862867
 11
33.1496806396
 21
6.8182862867
  0
LINE
  5
218
100
AcDbEntity
  8
0
100
AcDbLine
 62
7
  6
CONTINUOUS
 10
24.5496806396
 20
8.4557333096
 11
33.1496806396
 21
8.4557333096
  0
LINE
  5
219
100
AcDbEntity
  8
0
100
AcDbLine
 62
7
  6
CONTINUOUS
 10
25.5496806396
 20
11.3281112244
 11
32.1496806396
 21
11.3281112244
  0
LINE
  5
21A
100
AcDbEntity
  8
0
100
AcDbLine
 62
7
  6
CONTINUOUS
 10
33.1496806396
 20
12.3174981176
 11
35.7496806396
 21
12.3174981176
  0
LINE
  5
21B
100
AcDbEntity
  8
0
100
AcDbLine
 62
7
  6
CONTINUOUS
 10
33.1496806396
 20
14.7354894587
 11
35.7496806396
 21
14.7354894587
  0
LINE
  5
21C
100
AcDbEntity
  8
0
100
AcDbLine
 62
7
  6
CONTINUOUS
 10
33.1496806396
 20
20.4753339548
 11
32.1496806396
 21
20.4753339548
  0
LINE
  5
21D
100
AcDbEntity
  8
0
100
AcDbLine
 62
7
  6
CONTINUOUS
 10
25.5496806396
 20
20.4753339548
 11
24.5496806396
 21
20.4753339548
  0
LINE
  5
21E
100
AcDbEntity
  8
0
100
AcDbLine
 62
7
  6
CONTINUOUS
 10
24.5496806396
 20
24.33903726
 11
33.1496806396
 21
24.33903726
  0
LINE
  5
21F
100
AcDbEntity
  8
0
100
AcDbLine
 62
7
  6
CONTINUOUS
 10
24.5496806396
 20
24.6164386765
 11
25.5496806396
 21
24.6164386765
  0
LINE
  5
220
100
AcDbEntity
  8
0
100
AcDbLine
 62
7
  6
CONTINUOUS
 10
32.1496806396
 20
24.6164386765
 11
33.1496806396
 21
24.6164386765
  0
LINE
  5
221
100
AcDbEntity
  8
0
100
AcDbLine
 62
7
  6
CONTINUOUS
 10
25.5496806396
 20
26.2726088116
 11
25.7971608931
 21
26.2726088116
  0
LINE
  5
222
100
AcDbEntity
  8
0
100
AcDbLine
 62
7
  6
CONTINUOUS
 10
31.9022003861
 20
26.2726088116
 11
32.1496806396
 21
26.2726088116
  0
LINE
  5
223
100
AcDbEntity
  8
0
100
AcDbLine
 62
7
  6
CONTINUOUS
 10
31.3996806396
 20
24.9526544786
 11
32.1496806396
 21
24.6164386765
  0
LINE
  5
224
100
AcDbEntity
  8
0
100
AcDbLine
 62
7
  6
CONTINUOUS
 10
31.9022003861
 20
26.2726088116
 11
31.3996806396
 21
26.4978822511
  0
LINE
  5
225
100
AcDbEntity
  8
0
100
AcDbLine
 62
7
  6
CONTINUOUS
 10
35.7496806396
 20
14.7354894587
 11
36.1496806396
 21
14.2721070865
  0
LINE
  5
226
100
AcDbEntity
  8
0
100
AcDbLine
 62
7
  6
CONTINUOUS
 10
25.5496806396
 20
53.5717400673
 11
26.2996806396
 21
53.9320950779
  0
LINE
  5
227
100
AcDbEntity
  8
0
100
AcDbLine
 62
7
  6
CONTINUOUS
 10
33.1496806396
 20
35.4164386765
 11
32.1496806396
 21
35.4164386765
  0
LINE
  5
228
100
AcDbEntity
  8
0
100
AcDbLine
 62
7
  6
CONTINUOUS
 10
25.5496806396
 20
35.4164386765
 11
24.5496806396
 21
35.4164386765
  0
LINE
  5
229
100
AcDbEntity
  8
0
100
AcDbLine
 62
7
  6
CONTINUOUS
 10
24.5496806396
 20
6.8182862867
 11
24.5496806396
 21
75.6174981176
  0
LINE
  5
22A
100
AcDbEntity
  8
0
100
AcDbLine
 62
7
  6
CONTINUOUS
 10
25.0996806396
 20
78.6445082383
 11
25.0996806396
 21
73.0831539481
  0
LINE
  5
22B
100
AcDbEntity
  8
0
100
AcDbLine
 62
7
  6
CONTINUOUS
 10
25.5496806396
 20
56.1174981176
 11
25.5496806396
 21
41.0100511628
  0
LINE
  5
22C
100
AcDbEntity
  8
0
100
AcDbLine
 62
7
  6
CONTINUOUS
 10
25.5496806396
 20
11.3281112244
 11
25.5496806396
 21
21.2111054929
  0
LINE
  5
22D
100
AcDbEntity
  8
0
100
AcDbLine
 62
7
  6
CONTINUOUS
 10
25.5496806396
 20
26.2726088116
 11
25.5496806396
 21
36.3031200802
  0
LINE
  5
22E
100
AcDbEntity
  8
0
100
AcDbLine
 62
7
  6
CONTINUOUS
 10
26.2996806396
 20
56.1174981176
 11
26.2996806396
 21
53.9320950779
  0
LINE
  5
22F
100
AcDbEntity
  8
0
100
AcDbLine
 62
7
  6
CONTINUOUS
 10
26.2996806396
 20
41.8555912239
 11
26.2996806396
 21
39.8937592002
  0
LINE
  5
230
100
AcDbEntity
  8
0
100
AcDbLine
 62
7
  6
CONTINUOUS
 10
26.2996806396
 20
27.0814053842
 11
26.2996806396
 21
24.9526544786
  0
LINE
  5
231
100
AcDbEntity
  8
0
100
AcDbLine
 62
7
  6
CONTINUOUS
 10
25.5496806396
 20
39.5575433981
 11
25.7667277788
 21
41.0100511628
  0
LINE
  5
232
100
AcDbEntity
  8
0
100
AcDbLine
 62
7
  6
CONTINUOUS
 10
26.5496806396
 20
73.0831539481
 11
26.5496806396
 21
72.3687142923
  0
LINE
  5
233
100
AcDbEntity
  8
0
100
AcDbLine
 62
7
  6
CONTINUOUS
 10
28.5496806396
 20
72.3687142922
 11
28.5496806396
 21
73.0831539481
  0
LINE
  5
234
100
AcDbEntity
  8
0
100
AcDbLine
 62
7
  6
CONTINUOUS
 10
25.5496806396
 20
24.6164386765
 11
25.7971608931
 21
26.2726088116
  0
LINE
  5
235
100
AcDbEntity
  8
0
100
AcDbLine
 62
7
  6
CONTINUOUS
 10
24.5496806396
 20
39.2801419816
 11
33.1496806396
 21
39.2801419816
  0
LINE
  5
236
100
AcDbEntity
  8
0
100
AcDbLine
 62
7
  6
CONTINUOUS
 10
24.5496806396
 20
39.5575433981
 11
25.5496806396
 21
39.5575433981
  0
LINE
  5
237
100
AcDbEntity
  8
0
100
AcDbLine
 62
7
  6
CONTINUOUS
 10
32.1496806396
 20
39.5575433981
 11
33.1496806396
 21
39.5575433981
  0
LINE
  5
238
100
AcDbEntity
  8
0
100
AcDbLine
 62
7
  6
CONTINUOUS
 10
31.3996806396
 20
39.8937592002
 11
32.1496806396
 21
39.5575433981
  0
LINE
  5
239
100
AcDbEntity
  8
0
100
AcDbLine
 62
7
  6
CONTINUOUS
 10
26.2996806396
 20
41.2489673942
 11
25.7667277788
 21
41.0100511628
  0
LINE
  5
23A
100
AcDbEntity
  8
0
100
AcDbLine
 62
7
  6
CONTINUOUS
 10
25.5496806396
 20
41.0100511628
 11
25.7667277788
 21
41.0100511628
  0
LINE
  5
23B
100
AcDbEntity
  8
0
100
AcDbLine
 62
7
  6
CONTINUOUS
 10
31.9326335004
 20
41.0100511628
 11
32.1496806396
 21
41.0100511628
  0
LINE
  5
23C
100
AcDbEntity
  8
0
100
AcDbLine
 62
7
  6
CONTINUOUS
 10
31.9326335004
 20
41.0100511628
 11
31.3996806396
 21
41.2489673942
  0
LINE
  5
23D
100
AcDbEntity
  8
0
100
AcDbLine
 62
7
  6
CONTINUOUS
 10
32.1496806396
 20
24.6164386765
 11
31.9022003861
 21
26.2726088116
  0
LINE
  5
23E
100
AcDbEntity
  8
0
100
AcDbLine
 62
7
  6
CONTINUOUS
 10
31.3996806396
 20
56.1174981176
 11
31.3996806396
 21
53.937007454
  0
LINE
  5
23F
100
AcDbEntity
  8
0
100
AcDbLine
 62
7
  6
CONTINUOUS
 10
31.3996806396
 20
24.9526544786
 11
31.3996806396
 21
27.0814053842
  0
LINE
  5
240
100
AcDbEntity
  8
0
100
AcDbLine
 62
7
  6
CONTINUOUS
 10
31.3996806396
 20
39.8937592002
 11
31.3996806396
 21
41.8555912239
  0
LINE
  5
241
100
AcDbEntity
  8
0
100
AcDbLine
 62
7
  6
CONTINUOUS
 10
32.1496806396
 20
56.1174981176
 11
32.1496806396
 21
41.0100511628
  0
LINE
  5
242
100
AcDbEntity
  8
0
100
AcDbLine
 62
7
  6
CONTINUOUS
 10
32.1496806396
 20
36.3031200802
 11
32.1496806396
 21
26.2726088116
  0
LINE
  5
243
100
AcDbEntity
  8
0
100
AcDbLine
 62
7
  6
CONTINUOUS
 10
32.1496806396
 20
21.2111054929
 11
32.1496806396
 21
11.3281112244
  0
LINE
  5
244
100
AcDbEntity
  8
0
100
AcDbLine
 62
7
  6
CONTINUOUS
 10
33.1496806396
 20
6.8182862867
 11
33.1496806396
 21
49.3174981176
  0
LINE
  5
245
100
AcDbEntity
  8
0
100
AcDbLine
 62
7
  6
CONTINUOUS
 10
33.1496806396
 20
53.3174981176
 11
33.1496806396
 21
78.6445082383
  0
LINE
  5
246
100
AcDbEntity
  8
0
100
AcDbLine
 62
7
  6
CONTINUOUS
 10
25.5496806396
 20
39.5575433981
 11
26.2996806396
 21
39.8937592002
  0
LINE
  5
247
100
AcDbEntity
  8
0
100
AcDbLine
 62
7
  6
CONTINUOUS
 10
32.1496806396
 20
39.5575433981
 11
31.9326335004
 21
41.0100511628
  0
LINE
  5
248
100
AcDbEntity
  8
0
100
AcDbLine
 62
7
  6
CONTINUOUS
 10
35.7496806396
 20
14.7354894587
 11
35.7496806396
 21
12.3174981176
  0
LINE
  5
249
100
AcDbEntity
  8
0
100
AcDbLine
 62
7
  6
CONTINUOUS
 10
24.5496806396
 20
46.6174981176
 11
25.5496806396
 21
46.6174981176
  0
LINE
  5
24A
100
AcDbEntity
  8
0
100
AcDbLine
 62
7
  6
CONTINUOUS
 10
32.1496806396
 20
46.6174981176
 11
33.1496806396
 21
46.6174981176
  0
LINE
  5
24B
100
AcDbEntity
  8
0
100
AcDbLine
 62
7
  6
CONTINUOUS
 10
36.1496806396
 20
12.7174981176
 11
36.1496806396
 21
14.2721070865
  0
LINE
  5
24C
100
AcDbEntity
  8
0
100
AcDbLine
 62
7
  6
CONTINUOUS
 10
36.2114051329
 20
53.3174981176
 11
36.2114051329
 21
49.3174981176
  0
LINE
  5
24D
100
AcDbEntity
  8
0
100
AcDbLine
 62
7
  6
CONTINUOUS
 10
36.5996806396
 20
73.9878333768
 11
36.5996806396
 21
76.2546079306
  0
LINE
  5
24E
100
AcDbEntity
  8
0
100
AcDbLine
 62
7
  6
CONTINUOUS
 10
36.5996806396
 20
76.2847203327
 11
36.5996806396
 21
77.5062587179
  0
LINE
  5
24F
100
AcDbEntity
  8
0
100
AcDbLine
 62
7
  6
CONTINUOUS
 10
37.1496806396
 20
53.3174981176
 11
37.1496806396
 21
49.3174981176
  0
LINE
  5
250
100
AcDbEntity
  8
0
100
AcDbLine
 62
7
  6
CONTINUOUS
 10
37.2496806396
 20
54.6710583492
 11
37.2496806396
 21
56.8097615053
  0
LINE
  5
251
100
AcDbEntity
  8
0
100
AcDbLine
 62
7
  6
CONTINUOUS
 10
33.1496806396
 20
49.3174981176
 11
37.1496806396
 21
49.3174981176
  0
LINE
  5
252
100
AcDbEntity
  8
0
100
AcDbLine
 62
7
  6
CONTINUOUS
 10
33.1496806396
 20
53.3174981176
 11
37.1496806396
 21
53.3174981176
  0
LINE
  5
253
100
AcDbEntity
  8
0
100
AcDbLine
 62
7
  6
CONTINUOUS
 10
33.1496806396
 20
54.6708318203
 11
37.2496806396
 21
54.6708318203
  0
LINE
  5
254
100
AcDbEntity
  8
0
100
AcDbLine
 62
7
  6
CONTINUOUS
 10
31.3996806396
 20
53.937007454
 11
32.1496806396
 21
53.5766524435
  0
LINE
  5
255
100
AcDbEntity
  8
0
100
AcDbLine
 62
7
  6
CONTINUOUS
 10
26.2996806396
 20
26.4978822511
 11
25.7971608931
 21
26.2726088116
  0
LINE
  5
256
100
AcDbEntity
  8
0
100
AcDbLine
 62
7
  6
CONTINUOUS
 10
25.5496806396
 20
24.6164386765
 11
26.2996806396
 21
24.9526544786
  0
LINE
  5
257
100
AcDbEntity
  8
0
100
AcDbLine
 62
7
  6
CONTINUOUS
 10
33.1496806396
 20
55.5141421726
 11
37.2496806396
 21
55.5141421726
  0
LINE
  5
258
100
AcDbEntity
  8
0
100
AcDbLine
 62
7
  6
CONTINUOUS
 10
24.5496806396
 20
56.1174981176
 11
33.1496806396
 21
56.1174981176
  0
LINE
  5
259
100
AcDbEntity
  8
0
100
AcDbLine
 62
7
  6
CONTINUOUS
 10
33.1496806396
 20
56.3029161318
 11
37.2496806396
 21
56.3029161318
  0
LINE
  5
25A
100
AcDbEntity
  8
0
100
AcDbLine
 62
7
  6
CONTINUOUS
 10
33.1496806396
 20
56.8099571996
 11
37.2496806396
 21
56.8099571996
  0
LINE
  5
25B
100
AcDbEntity
  8
0
100
AcDbLine
 62
7
  6
CONTINUOUS
 10
35.7496806396
 20
12.3174981176
 11
36.1496806396
 21
12.7174981176
  0
LINE
  5
25C
100
AcDbEntity
  8
0
100
AcDbLine
 62
7
  6
CONTINUOUS
 10
33.1496806396
 20
70.3174981176
 11
24.5496806396
 21
70.3174981176
  0
LINE
  5
25D
100
AcDbEntity
  8
0
100
AcDbLine
 62
7
  6
CONTINUOUS
 10
24.5496806396
 20
72.3174981176
 11
33.1496806396
 21
72.3174981176
  0
LINE
  5
25E
100
AcDbEntity
  8
0
100
AcDbLine
 62
7
  6
CONTINUOUS
 10
26.5496806396
 20
72.3687142923
 11
28.5496806396
 21
72.3687142923
  0
LINE
  5
25F
100
AcDbEntity
  8
0
100
AcDbLine
 62
7
  6
CONTINUOUS
 10
33.1496806396
 20
73.0831539481
 11
28.5496806396
 21
73.0831539481
  0
LINE
  5
260
100
AcDbEntity
  8
0
100
AcDbLine
 62
7
  6
CONTINUOUS
 10
25.0996806396
 20
73.0831539481
 11
26.5496806396
 21
73.0831539481
  0
LINE
  5
261
100
AcDbEntity
  8
0
100
AcDbLine
 62
7
  6
CONTINUOUS
 10
33.1496806396
 20
73.9878333768
 11
36.5996806396
 21
73.9878333768
  0
LINE
  5
262
100
AcDbEntity
  8
0
100
AcDbLine
 62
7
  6
CONTINUOUS
 10
36.5996806396
 20
74.4392433901
 11
33.1496806396
 21
74.4392433901
  0
LINE
  5
263
100
AcDbEntity
  8
0
100
AcDbLine
 62
7
  6
CONTINUOUS
 10
33.1496806396
 20
75.3420634167
 11
36.5996806396
 21
75.3420634167
  0
LINE
  5
264
100
AcDbEntity
  8
0
100
AcDbLine
 62
7
  6
CONTINUOUS
 10
24.5496806396
 20
75.6174981176
 11
25.0996806396
 21
75.6174981176
  0
LINE
  5
265
100
AcDbEntity
  8
0
100
AcDbLine
 62
7
  6
CONTINUOUS
 10
33.1496806396
 20
75.79347343
 11
36.5996806396
 21
75.79347343
  0
LINE
  5
266
100
AcDbEntity
  8
0
100
AcDbLine
 62
7
  6
CONTINUOUS
 10
33.1496806396
 20
76.0094539493
 11
25.0996806396
 21
76.0094539493
  0
LINE
  5
267
100
AcDbEntity
  8
0
100
AcDbLine
 62
7
  6
CONTINUOUS
 10
36.5996806396
 20
76.2546079306
 11
33.1496806396
 21
76.2546079306
  0
LINE
  5
268
100
AcDbEntity
  8
0
100
AcDbLine
 62
7
  6
CONTINUOUS
 10
33.1496806396
 20
77.0451242173
 11
36.5996806396
 21
77.0451242173
  0
LINE
  5
269
100
AcDbEntity
  8
0
100
AcDbLine
 62
7
  6
CONTINUOUS
 10
33.1496806396
 20
77.5062587179
 11
36.5996806396
 21
77.5062587179
  0
LINE
  5
26A
100
AcDbEntity
  8
0
100
AcDbLine
 62
7
  6
CONTINUOUS
 10
33.1496806396
 20
78.6445082383
 11
25.0996806396
 21
78.6445082383
  0
SPLINE
  5
26B
100
AcDbEntity
  8
0
100
AcDbSpline
 62
7
  6
CONTINUOUS
 70
0
 71
3
 72
19
 73
15
 74
0
 42
0.0000001
 43
0.0000001
 44
0.0000000001
 40
0.0
 40
0.0
 40
0.0
 40
0.0
 40
0.0239726005
 40
0.0509012207
 40
0.082782409
 40
0.1207178625
 40
0.1651654214
 40
0.2162433357
 40
0.2737951614
 40
0.33749413
 40
0.4814951813
 40
0.6436808952
 40
0.8186655558
 40
1.0
 40
1.0
 40
1.0
 40
1.0
 10
26.2996806396
 20
25.5361776116
 30
0.0
 10
26.2996806396
 20
25.5142549
 30
0.0
 10
26.3092536617
 20
25.4674136004
 30
0.0
 10
26.3489511761
 20
25.4017743388
 30
0.0
 10
26.4120110124
 20
25.3388683605
 30
0.0
 10
26.4977197831
 20
25.2784958007
 30
0.0
 10
26.6054199338
 20
25.2206258215
 30
0.0
 10
26.7343648149
 20
25.1657579384
 30
0.0
 10
26.8834306467
 20
25.1143082451
 30
0.0
 10
27.116937045
 20
25.0482432806
 30
0.0
 10
27.4486440984
 20
24.9798583746
 30
0.0
 10
27.8849382727
 20
24.9207584057
 30
0.0
 10
28.3579418744
 20
24.8843750554
 30
0.0
 10
28.6838520421
 20
24.8761890466
 30
0.0
 10
28.8496806396
 20
24.8761890466
 30
0.0
  0
SPLINE
  5
26C
100
AcDbEntity
  8
0
100
AcDbSpline
 62
7
  6
CONTINUOUS
 70
0
 71
3
 72
19
 73
15
 74
0
 42
0.0000001
 43
0.0000001
 44
0.0000000001
 40
0.0
 40
0.0
 40
0.0
 40
0.0
 40
0.0239726005
 40
0.0509012207
 40
0.082782409
 40
0.1207178625
 40
0.1651654214
 40
0.2162433357
 40
0.2737951614
 40
0.33749413
 40
0.4814951813
 40
0.6436808952
 40
0.8186655558
 40
1.0
 40
1.0
 40
1.0
 40
1.0
 10
26.2996806396
 20
40.5003830299
 30
0.0
 10
26.2996806396
 20
40.4784603183
 30
0.0
 10
26.3092536617
 20
40.4316190187
 30
0.0
 10
26.3489511761
 20
40.3659797571
 30
0.0
 10
26.4120110124
 20
40.3030737788
 30
0.0
 10
26.4977197831
 20
40.242701219
 30
0.0
 10
26.6054199338
 20
40.1848312397
 30
0.0
 10
26.7343648149
 20
40.1299633567
 30
0.0
 10
26.8834306467
 20
40.0785136634
 30
0.0
 10
27.116937045
 20
40.0124486988
 30
0.0
 10
27.4486440984
 20
39.9440637929
 30
0.0
 10
27.8849382727
 20
39.884963824
 30
0.0
 10
28.3579418744
 20
39.8485804737
 30
0.0
 10
28.6838520421
 20
39.8403944649
 30
0.0
 10
28.8496806396
 20
39.8403944649
 30
0.0
  0
SPLINE
  5
26D
100
AcDbEntity
  8
0
100
AcDbSpline
 62
7
  6
CONTINUOUS
 70
0
 71
3
 72
19
 73
15
 74
0
 42
0.0000001
 43
0.0000001
 44
0.0000000001
 40
0.0
 40
0.0
 40
0.0
 40
0.0
 40
0.1813343932
 40
0.3563189674
 40
0.5185046693
 40
0.6625057352
 40
0.7262047145
 40
0.7837565625
 40
0.8348344904
 40
0.879282073
 40
0.9172175519
 40
0.9490987585
 40
0.9760273945
 40
1.0
 40
1.0
 40
1.0
 40
1.0
 10
28.8496806396
 20
24.8761890466
 30
0.0
 10
29.0155091897
 20
24.8761890466
 30
0.0
 10
29.3414192306
 20
24.8843750356
 30
0.0
 10
29.8144226941
 20
24.9207583766
 30
0.0
 10
30.2507167917
 20
24.9798583156
 30
0.0
 10
30.5824238649
 20
25.0482431834
 30
0.0
 10
30.8159303039
 20
25.1143081567
 30
0.0
 10
30.9649961888
 20
25.1657578246
 30
0.0
 10
31.0939411231
 20
25.2206257218
 30
0.0
 10
31.2016413346
 20
25.2784957044
 30
0.0
 10
31.2873501766
 20
25.3388682739
 30
0.0
 10
31.3504100367
 20
25.4017743047
 30
0.0
 10
31.3901075921
 20
25.4674135787
 30
0.0
 10
31.3996806396
 20
25.5142548956
 30
0.0
 10
31.3996806396
 20
25.5361776116
 30
0.0
  0
SPLINE
  5
26E
100
AcDbEntity
  8
0
100
AcDbSpline
 62
7
  6
CONTINUOUS
 70
0
 71
3
 72
19
 73
15
 74
0
 42
0.0000001
 43
0.0000001
 44
0.0000000001
 40
0.0
 40
0.0
 40
0.0
 40
0.0
 40
0.1813343932
 40
0.3563189674
 40
0.5185046693
 40
0.6625057352
 40
0.7262047145
 40
0.7837565625
 40
0.8348344904
 40
0.879282073
 40
0.9172175519
 40
0.9490987585
 40
0.9760273945
 40
1.0
 40
1.0
 40
1.0
 40
1.0
 10
28.8496806396
 20
39.8403944649
 30
0.0
 10
29.0155091897
 20
39.8403944649
 30
0.0
 10
29.3414192306
 20
39.8485804539
 30
0.0
 10
29.8144226941
 20
39.8849637949
 30
0.0
 10
30.2507167917
 20
39.9440637339
 30
0.0
 10
30.5824238649
 20
40.0124486016
 30
0.0
 10
30.8159303039
 20
40.078513575
 30
0.0
 10
30.9649961888
 20
40.1299632429
 30
0.0
 10
31.0939411231
 20
40.1848311401
 30
0.0
 10
31.2016413346
 20
40.2427011227
 30
0.0
 10
31.2873501766
 20
40.3030736922
 30
0.0
 10
31.3504100367
 20
40.365979723
 30
0.0
 10
31.3901075921
 20
40.431618997
 30
0.0
 10
31.3996806396
 20
40.4784603138
 30
0.0
 10
31.3996806396
 20
40.5003830299
 30
0.0
  0
SPLINE
  5
26F
100
AcDbEntity
  8
0
100
AcDbSpline
 62
7
  6
CONTINUOUS
 70
0
 71
3
 72
9
 73
5
 74
0
 42
0.0000001
 43
0.0000001
 44
0.0000000001
 40
0.0
 40
0.0
 40
0.0
 40
0.0
 40
0.2184719631
 40
1.0
 40
1.0
 40
1.0
 40
1.0
 10
26.3057109167
 20
54.3006852178
 30
0.0
 10
26.3091206101
 20
54.2879020952
 30
0.0
 10
26.3310780906
 20
54.2310110667
 30
0.0
 10
26.3739950894
 20
54.1846770863
 30
0.0
 10
26.4100258531
 20
54.1539908815
 30
0.0
  0
SPLINE
  5
270
100
AcDbEntity
  8
0
100
AcDbSpline
 62
7
  6
CONTINUOUS
 70
0
 71
3
 72
14
 73
10
 74
0
 42
0.0000001
 43
0.0000001
 44
0.0000000001
 40
0.0
 40
0.0
 40
0.0
 40
0.0
 40
0.0707958331
 40
0.1605512896
 40
0.2686982543
 40
0.3934395552
 40
0.5321727905
 40
0.6818512043
 40
1.0
 40
1.0
 40
1.0
 40
1.0
 10
26.4100258531
 20
54.1539908815
 30
0.0
 10
26.4552139942
 20
54.1155056425
 30
0.0
 10
26.5707698919
 20
54.043984857
 30
0.0
 10
26.7786714341
 20
53.9563710421
 30
0.0
 10
27.0379400846
 20
53.8777213358
 30
0.0
 10
27.3423401868
 20
53.810325862
 30
0.0
 10
27.6846116361
 20
53.7558569649
 30
0.0
 10
28.1903856073
 20
53.7015276011
 30
0.0
 10
28.5829432205
 20
53.6860425274
 30
0.0
 10
28.8496806396
 20
53.6860425274
 30
0.0
  0
SPLINE
  5
271
100
AcDbEntity
  8
0
100
AcDbSpline
 62
7
  6
CONTINUOUS
 70
0
 71
3
 72
14
 73
10
 74
0
 42
0.0000001
 43
0.0000001
 44
0.0000000001
 40
0.0
 40
0.0
 40
0.0
 40
0.0
 40
0.3185386645
 40
0.468352092
 40
0.6071532986
 40
0.7318783006
 40
0.8399166499
 40
0.9294717172
 40
1.0
 40
1.0
 40
1.0
 40
1.0
 10
28.8496806396
 20
53.6860425274
 30
0.0
 10
29.1170816709
 20
53.6860425274
 30
0.0
 10
29.51057739
 20
53.7016006452
 30
0.0
 10
30.0174688412
 20
53.7562014902
 30
0.0
 10
30.360302267
 20
53.8109281756
 30
0.0
 10
30.664989707
 20
53.8786293626
 30
0.0
 10
30.9242354756
 20
53.9576136854
 30
0.0
 10
31.1317770239
 20
54.0455709827
 30
0.0
 10
31.2469087823
 20
54.1174120964
 30
0.0
 10
31.2917561881
 20
54.1560648663
 30
0.0
  0
SPLINE
  5
272
100
AcDbEntity
  8
0
100
AcDbSpline
 62
7
  6
CONTINUOUS
 70
0
 71
3
 72
9
 73
5
 74
0
 42
0.0000001
 43
0.0000001
 44
0.0000000001
 40
0.0
 40
0.0
 40
0.0
 40
0.0
 40
0.28845355
 40
1.0
 40
1.0
 40
1.0
 40
1.0
 10
31.2917561881
 20
54.1560648663
 30
0.0
 10
31.3047385586
 20
54.1672540214
 30
0.0
 10
31.3477302019
 20
54.2078956021
 30
0.0
 10
31.3827548833
 20
54.2598367673
 30
0.0
 10
31.3936505789
 20
54.300686032
 30
0.0
  0
SPLINE
  5
273
100
AcDbEntity
  8
0
100
AcDbSpline
 62
7
  6
CONTINUOUS
 70
0
 71
3
 72
31
 73
27
 74
0
 42
0.0000001
 43
0.0000001
 44
0.0000000001
 40
0.0
 40
0.0
 40
0.0
 40
0.0
 40
0.0119893784
 40
0.0254534372
 40
0.0413935341
 40
0.0603581491
 40
0.0825827718
 40
0.1081251747
 40
0.1368984974
 40
0.1687497411
 40
0.2407401145
 40
0.3218499738
 40
0.409298512
 40
0.4999910957
 40
0.5906835691
 40
0.6781325375
 40
0.759245043
 40
0.8312399513
 40
0.8630932613
 40
0.8918690612
 40
0.9174134389
 40
0.9396394401
 40
0.9586053927
 40
0.9745462314
 40
0.9880105773
 40
1.0
 40
1.0
 40
1.0
 40
1.0
 10
25.5496806396
 20
12.0072093742
 30
0.0
 10
25.5496806396
 20
12.0355873361
 30
0.0
 10
25.5620541945
 20
12.0962143099
 30
0.0
 10
25.6134251702
 20
12.1811732532
 30
0.0
 10
25.6950574983
 20
12.2625426063
 30
0.0
 10
25.805954558
 20
12.340685279
 30
0.0
 10
25.9453408399
 20
12.4155696354
 30
0.0
 10
26.1122157722
 20
12.4865714576
 30
0.0
 10
26.3051216677
 20
12.5531848369
 30
0.0
 10
26.6072956075
 20
12.6386287134
 30
0.0
 10
27.0365734431
 20
12.727181962
 30
0.0
 10
27.6011096088
 20
12.803607856
 30
0.0
 10
28.2132390631
 20
12.8507384757
 30
0.0
 10
28.8496166972
 20
12.8666769865
 30
0.0
 10
29.4859954866
 20
12.8507440751
 30
0.0
 10
30.0981323801
 20
12.8036187941
 30
0.0
 10
30.6626874043
 20
12.7271988343
 30
0.0
 10
31.0919884703
 20
12.638648824
 30
0.0
 10
31.3941832986
 20
12.5531998683
 30
0.0
 10
31.587105221
 20
12.4865859156
 30
0.0
 10
31.7539947644
 20
12.4155828208
 30
0.0
 10
31.8933909593
 20
12.3406935449
 30
0.0
 10
32.0042966559
 20
12.2625488239
 30
0.0
 10
32.0859332975
 20
12.1811757277
 30
0.0
 10
32.137306527
 20
12.0962151988
 30
0.0
 10
32.1496806396
 20
12.035587441
 30
0.0
 10
32.1496806396
 20
12.0072093742
 30
0.0
  0
SPLINE
  5
274
100
AcDbEntity
  8
0
100
AcDbSpline
 62
7
  6
CONTINUOUS
 70
0
 71
3
 72
35
 73
31
 74
0
 42
0.0000001
 43
0.0000001
 44
0.0000000001
 40
0.0
 40
0.0
 40
0.0
 40
0.0
 40
0.0681319062
 40
0.1005516198
 40
0.1315775363
 40
0.1611412046
 40
0.1893973822
 40
0.2167759912
 40
0.2439379507
 40
0.2716077771
 40
0.3003722129
 40
0.3305648203
 40
0.3622638635
 40
0.3953500101
 40
0.4295702578
 40
0.5000000496
 40
0.5704298419
 40
0.6046501139
 40
0.6377362204
 40
0.6694352843
 40
0.6996278815
 40
0.7283923343
 40
0.7560621488
 40
0.783224109
 40
0.8106026981
 40
0.8388588164
 40
0.8684224324
 40
0.8994483367
 40
0.931868102
 40
1.0
 40
1.0
 40
1.0
 40
1.0
 10
32.1496806396
 20
21.2111054929
 30
0.0
 10
32.1496806396
 20
21.452471993
 30
0.0
 10
32.1428218503
 20
21.8091138063
 30
0.0
 10
32.0951842722
 20
22.2731332551
 30
0.0
 10
32.035640469
 20
22.5976787094
 30
0.0
 10
31.9458612207
 20
22.9001636306
 30
0.0
 10
31.8204365163
 20
23.1759927084
 30
0.0
 10
31.655616353
 20
23.4204651385
 30
0.0
 10
31.4507035692
 20
23.6296892123
 30
0.0
 10
31.2083322737
 20
23.8022746461
 30
0.0
 10
30.9329411983
 20
23.9399712356
 30
0.0
 10
30.629275485
 20
24.0465406207
 30
0.0
 10
30.3019808093
 20
24.12633585
 30
0.0
 10
29.9556775954
 20
24.1835349947
 30
0.0
 10
29.4702169685
 20
24.2347531075
 30
0.0
 10
28.849680112
 20
24.2570295674
 30
0.0
 10
28.2291431639
 20
24.2347530778
 30
0.0
 10
27.7436826077
 20
24.1835348541
 30
0.0
 10
27.3973793694
 20
24.1263356908
 30
0.0
 10
27.0700848854
 20
24.0465401989
 30
0.0
 10
26.7664189581
 20
23.9399710302
 30
0.0
 10
26.4910282821
 20
23.8022737597
 30
0.0
 10
26.2486565844
 20
23.6296888082
 30
0.0
 10
26.043744645
 20
23.4204640609
 30
0.0
 10
25.8789241407
 20
23.1759922394
 30
0.0
 10
25.75350015
 20
22.9001633137
 30
0.0
 10
25.6637207308
 20
22.5976789335
 30
0.0
 10
25.6041771319
 20
22.2731334711
 30
0.0
 10
25.5565393332
 20
21.8091139448
 30
0.0
 10
25.5496806396
 20
21.4524719642
 30
0.0
 10
25.5496806396
 20
21.2111054929
 30
0.0
  0
SPLINE
  5
275
100
AcDbEntity
  8
0
100
AcDbSpline
 62
7
  6
CONTINUOUS
 70
0
 71
3
 72
31
 73
27
 74
0
 42
0.0000001
 43
0.0000001
 44
0.0000000001
 40
0.0
 40
0.0
 40
0.0
 40
0.0
 40
0.0119893784
 40
0.0254534372
 40
0.0413935341
 40
0.0603581491
 40
0.0825827718
 40
0.1081251747
 40
0.1368984974
 40
0.1687497411
 40
0.2407401145
 40
0.3218499738
 40
0.409298512
 40
0.4999910957
 40
0.5906835691
 40
0.6781325375
 40
0.759245043
 40
0.8312399513
 40
0.8630932613
 40
0.8918690612
 40
0.9174134389
 40
0.9396394401
 40
0.9586053927
 40
0.9745462314
 40
0.9880105773
 40
1.0
 40
1.0
 40
1.0
 40
1.0
 10
25.5496806396
 20
26.9694039982
 30
0.0
 10
25.5496806396
 20
26.9977819602
 30
0.0
 10
25.5620541945
 20
27.0584089339
 30
0.0
 10
25.6134251702
 20
27.1433678772
 30
0.0
 10
25.6950574983
 20
27.2247372303
 30
0.0
 10
25.805954558
 20
27.3028799031
 30
0.0
 10
25.9453408399
 20
27.3777642595
 30
0.0
 10
26.1122157722
 20
27.4487660817
 30
0.0
 10
26.3051216677
 20
27.5153794609
 30
0.0
 10
26.6072956075
 20
27.6008233375
 30
0.0
 10
27.0365734431
 20
27.6893765861
 30
0.0
 10
27.6011096088
 20
27.7658024801
 30
0.0
 10
28.2132390632
 20
27.8129330997
 30
0.0
 10
28.8496166972
 20
27.8288716106
 30
0.0
 10
29.4859954866
 20
27.8129386992
 30
0.0
 10
30.0981323801
 20
27.7658134181
 30
0.0
 10
30.6626874043
 20
27.6893934583
 30
0.0
 10
31.0919884703
 20
27.600843448
 30
0.0
 10
31.3941832986
 20
27.5153944924
 30
0.0
 10
31.587105221
 20
27.4487805397
 30
0.0
 10
31.7539947644
 20
27.3777774448
 30
0.0
 10
31.8933909593
 20
27.3028881689
 30
0.0
 10
32.0042966559
 20
27.224743448
 30
0.0
 10
32.0859332975
 20
27.1433703518
 30
0.0
 10
32.137306527
 20
27.0584098229
 30
0.0
 10
32.1496806396
 20
26.997782065
 30
0.0
 10
32.1496806396
 20
26.9694039982
 30
0.0
  0
SPLINE
  5
276
100
AcDbEntity
  8
0
100
AcDbSpline
 62
7
  6
CONTINUOUS
 70
0
 71
3
 72
19
 73
15
 74
0
 42
0.0000001
 43
0.0000001
 44
0.0000000001
 40
0.0
 40
0.0
 40
0.0
 40
0.0
 40
0.0239726005
 40
0.0509012207
 40
0.082782409
 40
0.1207178625
 40
0.1651654214
 40
0.2162433357
 40
0.2737951614
 40
0.33749413
 40
0.4814951813
 40
0.6436808952
 40
0.8186655558
 40
1.0
 40
1.0
 40
1.0
 40
1.0
 10
31.3996806396
 20
27.0814053842
 30
0.0
 10
31.3996806396
 20
27.1033280958
 30
0.0
 10
31.3901076175
 20
27.1501693954
 30
0.0
 10
31.3504101031
 20
27.2158086571
 30
0.0
 10
31.2873502668
 20
27.2787146354
 30
0.0
 10
31.2016414961
 20
27.3390871952
 30
0.0
 10
31.0939413454
 20
27.3969571744
 30
0.0
 10
30.9649964643
 20
27.4518250575
 30
0.0
 10
30.8159306325
 20
27.5032747508
 30
0.0
 10
30.5824242342
 20
27.5693397153
 30
0.0
 10
30.2507171808
 20
27.6377246212
 30
0.0
 10
29.8144230065
 20
27.6968245901
 30
0.0
 10
29.3414194048
 20
27.7332079405
 30
0.0
 10
29.0155092371
 20
27.7413939492
 30
0.0
 10
28.8496806396
 20
27.7413939492
 30
0.0
  0
SPLINE
  5
277
100
AcDbEntity
  8
0
100
AcDbSpline
 62
7
  6
CONTINUOUS
 70
0
 71
3
 72
19
 73
15
 74
0
 42
0.0000001
 43
0.0000001
 44
0.0000000001
 40
0.0
 40
0.0
 40
0.0
 40
0.0
 40
0.1813343932
 40
0.3563189674
 40
0.5185046693
 40
0.6625057352
 40
0.7262047145
 40
0.7837565625
 40
0.8348344904
 40
0.879282073
 40
0.9172175519
 40
0.9490987585
 40
0.9760273945
 40
1.0
 40
1.0
 40
1.0
 40
1.0
 10
28.8496806396
 20
27.7413939492
 30
0.0
 10
28.6838520895
 20
27.7413939492
 30
0.0
 10
28.3579420486
 20
27.7332079602
 30
0.0
 10
27.8849385851
 20
27.6968246193
 30
0.0
 10
27.4486444875
 20
27.6377246802
 30
0.0
 10
27.1169374143
 20
27.5693398125
 30
0.0
 10
26.8834309753
 20
27.5032748391
 30
0.0
 10
26.7343650904
 20
27.4518251713
 30
0.0
 10
26.6054201561
 20
27.3969572741
 30
0.0
 10
26.4977199446
 20
27.3390872915
 30
0.0
 10
26.4120111026
 20
27.278714722
 30
0.0
 10
26.3489512425
 20
27.2158086912
 30
0.0
 10
26.3092536871
 20
27.1501694172
 30
0.0
 10
26.2996806396
 20
27.1033281003
 30
0.0
 10
26.2996806396
 20
27.0814053842
 30
0.0
  0
SPLINE
  5
278
100
AcDbEntity
  8
0
100
AcDbSpline
 62
7
  6
CONTINUOUS
 70
0
 71
3
 72
36
 73
32
 74
0
 42
0.0000001
 43
0.0000001
 44
0.0000000001
 40
0.0
 40
0.0
 40
0.0
 40
0.0
 40
0.0678354723
 40
0.0999620654
 40
0.1306351214
 40
0.1598358074
 40
0.1877832112
 40
0.2149692431
 40
0.2420876882
 40
0.2698525716
 40
0.298810182
 40
0.3292492881
 40
0.3612151382
 40
0.3945698776
 40
0.4290529668
 40
0.499992741
 40
0.5709325165
 40
0.6054156229
 40
0.6387703282
 40
0.6707361935
 40
0.7011752908
 40
0.7301329138
 40
0.7578977948
 40
0.7850162304
 40
0.8122022529
 40
0.8401496055
 40
0.8693502466
 40
0.9000232846
 40
0.9321499152
 40
0.9655627167
 40
1.0
 40
1.0
 40
1.0
 40
1.0
 10
32.1496806396
 20
36.3031200802
 30
0.0
 10
32.1496806396
 20
36.5385381385
 30
0.0
 10
32.1418965412
 20
36.8859506483
 30
0.0
 10
32.0905796315
 20
37.3367718356
 30
0.0
 10
32.0275037378
 20
37.6502862488
 30
0.0
 10
31.9335988652
 20
37.9411201535
 30
0.0
 10
31.8039045612
 20
38.2048643292
 30
0.0
 10
31.6353420478
 20
38.4371183393
 30
0.0
 10
31.4279381084
 20
38.6345686432
 30
0.0
 10
31.1846933176
 20
38.7965536994
 30
0.0
 10
30.9099652444
 20
38.9252949881
 30
0.0
 10
30.6082478587
 20
39.024648749
 30
0.0
 10
30.2839421024
 20
39.0988600116
 30
0.0
 10
29.9414456376
 20
39.1519390496
 30
0.0
 10
29.461988536
 20
39.1993689456
 30
0.0
 10
28.8496801061
 20
39.2199458524
 30
0.0
 10
28.2373716117
 20
39.1993689242
 30
0.0
 10
27.7579145786
 20
39.1519389199
 30
0.0
 10
27.4154181159
 20
39.0988598585
 30
0.0
 10
27.0911125237
 20
39.0246483798
 30
0.0
 10
26.7893949827
 20
38.9252947881
 30
0.0
 10
26.5146672155
 20
38.7965529166
 30
0.0
 10
26.271422102
 20
38.6345682642
 30
0.0
 10
26.06401892
 20
38.4371173514
 30
0.0
 10
25.8954559026
 20
38.2048638431
 30
0.0
 10
25.7657632414
 20
37.9411197688
 30
0.0
 10
25.6718542124
 20
37.6502862269
 30
0.0
 10
25.6087947057
 20
37.3367723381
 30
0.0
 10
25.5709351641
 20
37.0047416189
 30
0.0
 10
25.5525621075
 20
36.6581276464
 30
0.0
 10
25.5496806396
 20
36.42263216
 30
0.0
 10
25.5496806396
 20
36.3031200802
 30
0.0
  0
SPLINE
  5
279
100
AcDbEntity
  8
0
100
AcDbSpline
 62
7
  6
CONTINUOUS
 70
0
 71
3
 72
31
 73
27
 74
0
 42
0.0000001
 43
0.0000001
 44
0.0000000001
 40
0.0
 40
0.0
 40
0.0
 40
0.0
 40
0.0119893784
 40
0.0254534372
 40
0.0413935341
 40
0.0603581491
 40
0.0825827718
 40
0.1081251747
 40
0.1368984974
 40
0.1687497411
 40
0.2407401145
 40
0.3218499738
 40
0.409298512
 40
0.4999910957
 40
0.5906835691
 40
0.6781325375
 40
0.759245043
 40
0.8312399513
 40
0.8630932613
 40
0.8918690612
 40
0.9174134389
 40
0.9396394401
 40
0.9586053927
 40
0.9745462314
 40
0.9880105773
 40
1.0
 40
1.0
 40
1.0
 40
1.0
 10
25.5496806396
 20
41.7384134571
 30
0.0
 10
25.5496806396
 20
41.766791419
 30
0.0
 10
25.5620541945
 20
41.8274183928
 30
0.0
 10
25.6134251702
 20
41.912377336
 30
0.0
 10
25.6950574983
 20
41.9937466892
 30
0.0
 10
25.805954558
 20
42.0718893619
 30
0.0
 10
25.9453408399
 20
42.1467737183
 30
0.0
 10
26.1122157722
 20
42.2177755405
 30
0.0
 10
26.3051216677
 20
42.2843889198
 30
0.0
 10
26.6072956075
 20
42.3698327963
 30
0.0
 10
27.0365734431
 20
42.4583860449
 30
0.0
 10
27.6011096088
 20
42.5348119389
 30
0.0
 10
28.2132390632
 20
42.5819425586
 30
0.0
 10
28.8496166972
 20
42.5978810694
 30
0.0
 10
29.4859954866
 20
42.581948158
 30
0.0
 10
30.0981323801
 20
42.534822877
 30
0.0
 10
30.6626874043
 20
42.4584029172
 30
0.0
 10
31.0919884703
 20
42.3698529069
 30
0.0
 10
31.3941832986
 20
42.2844039512
 30
0.0
 10
31.587105221
 20
42.2177899985
 30
0.0
 10
31.7539947644
 20
42.1467869037
 30
0.0
 10
31.8933909593
 20
42.0718976277
 30
0.0
 10
32.0042966559
 20
41.9937529068
 30
0.0
 10
32.0859332975
 20
41.9123798106
 30
0.0
 10
32.137306527
 20
41.8274192817
 30
0.0
 10
32.1496806396
 20
41.7667915238
 30
0.0
 10
32.1496806396
 20
41.7384134571
 30
0.0
  0
SPLINE
  5
27A
100
AcDbEntity
  8
0
100
AcDbSpline
 62
7
  6
CONTINUOUS
 70
0
 71
3
 72
19
 73
15
 74
0
 42
0.0000001
 43
0.0000001
 44
0.0000000001
 40
0.0
 40
0.0
 40
0.0
 40
0.0
 40
0.0239726005
 40
0.0509012207
 40
0.082782409
 40
0.1207178625
 40
0.1651654214
 40
0.2162433357
 40
0.2737951614
 40
0.33749413
 40
0.4814951813
 40
0.6436808952
 40
0.8186655558
 40
1.0
 40
1.0
 40
1.0
 40
1.0
 10
31.3996806396
 20
41.8555912239
 30
0.0
 10
31.3996806396
 20
41.8775139355
 30
0.0
 10
31.3901076175
 20
41.9243552351
 30
0.0
 10
31.3504101031
 20
41.9899944968
 30
0.0
 10
31.2873502668
 20
42.0529004751
 30
0.0
 10
31.2016414961
 20
42.1132730349
 30
0.0
 10
31.0939413454
 20
42.1711430141
 30
0.0
 10
30.9649964643
 20
42.2260108972
 30
0.0
 10
30.8159306325
 20
42.2774605905
 30
0.0
 10
30.5824242342
 20
42.343525555
 30
0.0
 10
30.2507171808
 20
42.4119104609
 30
0.0
 10
29.8144230065
 20
42.4710104298
 30
0.0
 10
29.3414194048
 20
42.5073937802
 30
0.0
 10
29.0155092371
 20
42.515579789
 30
0.0
 10
28.8496806396
 20
42.515579789
 30
0.0
  0
SPLINE
  5
27B
100
AcDbEntity
  8
0
100
AcDbSpline
 62
7
  6
CONTINUOUS
 70
0
 71
3
 72
19
 73
15
 74
0
 42
0.0000001
 43
0.0000001
 44
0.0000000001
 40
0.0
 40
0.0
 40
0.0
 40
0.0
 40
0.1813343932
 40
0.3563189674
 40
0.5185046693
 40
0.6625057352
 40
0.7262047145
 40
0.7837565625
 40
0.8348344904
 40
0.879282073
 40
0.9172175519
 40
0.9490987585
 40
0.9760273945
 40
1.0
 40
1.0
 40
1.0
 40
1.0
 10
28.8496806396
 20
42.515579789
 30
0.0
 10
28.6838520895
 20
42.515579789
 30
0.0
 10
28.3579420486
 20
42.5073937999
 30
0.0
 10
27.8849385851
 20
42.471010459
 30
0.0
 10
27.4486444875
 20
42.4119105199
 30
0.0
 10
27.1169374143
 20
42.3435256522
 30
0.0
 10
26.8834309753
 20
42.2774606788
 30
0.0
 10
26.7343650904
 20
42.226011011
 30
0.0
 10
26.6054201561
 20
42.1711431138
 30
0.0
 10
26.4977199446
 20
42.1132731312
 30
0.0
 10
26.4120111026
 20
42.0529005617
 30
0.0
 10
26.3489512425
 20
41.9899945309
 30
0.0
 10
26.3092536871
 20
41.9243552569
 30
0.0
 10
26.2996806396
 20
41.87751394
 30
0.0
 10
26.2996806396
 20
41.8555912239
 30
0.0
  0
SPLINE
  5
27C
100
AcDbEntity
  8
0
100
AcDbSpline
 62
7
  6
CONTINUOUS
 70
0
 71
3
 72
31
 73
27
 74
0
 42
0.0000001
 43
0.0000001
 44
0.0000000001
 40
0.0
 40
0.0
 40
0.0
 40
0.0
 40
0.0119893784
 40
0.0254534372
 40
0.0413935341
 40
0.0603581491
 40
0.0825827718
 40
0.1081251747
 40
0.1368984974
 40
0.1687497411
 40
0.2407401145
 40
0.3218499738
 40
0.409298512
 40
0.4999910957
 40
0.5906835691
 40
0.6781325375
 40
0.759245043
 40
0.8312399513
 40
0.8630932613
 40
0.8918690612
 40
0.9174134389
 40
0.9396394401
 40
0.9586053927
 40
0.9745462314
 40
0.9880105773
 40
1.0
 40
1.0
 40
1.0
 40
1.0
 10
32.1496806396
 20
52.2670049636
 30
0.0
 10
32.1496806396
 20
52.2953829255
 30
0.0
 10
32.1373070847
 20
52.3560098993
 30
0.0
 10
32.085936109
 20
52.4409688426
 30
0.0
 10
32.0043037809
 20
52.5223381957
 30
0.0
 10
31.8934067212
 20
52.6004808685
 30
0.0
 10
31.7540204393
 20
52.6753652249
 30
0.0
 10
31.587145507
 20
52.746367047
 30
0.0
 10
31.3942396115
 20
52.8129804263
 30
0.0
 10
31.0920656717
 20
52.8984243029
 30
0.0
 10
30.6627878361
 20
52.9869775515
 30
0.0
 10
30.0982516704
 20
53.0634034454
 30
0.0
 10
29.486122216
 20
53.1105340651
 30
0.0
 10
28.849744582
 20
53.126472576
 30
0.0
 10
28.2133657926
 20
53.1105396646
 30
0.0
 10
27.6012288991
 20
53.0634143835
 30
0.0
 10
27.0366738749
 20
52.9869944237
 30
0.0
 10
26.6073728089
 20
52.8984444134
 30
0.0
 10
26.3051779806
 20
52.8129954577
 30
0.0
 10
26.1122560582
 20
52.7463815051
 30
0.0
 10
25.9453665148
 20
52.6753784102
 30
0.0
 10
25.80597032
 20
52.6004891343
 30
0.0
 10
25.6950646233
 20
52.5223444134
 30
0.0
 10
25.6134279817
 20
52.4409713171
 30
0.0
 10
25.5620547522
 20
52.3560107883
 30
0.0
 10
25.5496806396
 20
52.2953830304
 30
0.0
 10
25.5496806396
 20
52.2670049636
 30
0.0
  0
ELLIPSE
  5
27D
100
AcDbEntity
  8
0
100
AcDbEllipse
 62
7
  6
CONTINUOUS
 10
28.8496806396
 20
54.2791136793
 30
0.0
 11
2.55
 21
0.0
 31
0.0
 40
0.2679491924
 41
0.0498378366
 42
3.091754817
  0
ENDSEC
  0
SECTION
  2
OBJECTS
  0
DICTIONARY
  5
C
100
AcDbDictionary
280
0
281
1
  3
ACAD_GROUP
350
D
  3
ACAD_MLINESTYLE
350
17
  3
ACAD_LAYOUT
350
1A
  3
ACAD_PLOTSETTINGS
350
19
  3
ACAD_PLOTSTYLENAME
350
E
  0
DICTIONARY
  5
D
102
{ACAD_REACTORS
330
C
102
}
100
AcDbDictionary
280
0
281
1
  0
ACDBDICTIONARYWDFLT
  5
E
102
{ACAD_REACTORS
330
C
102
}
100
AcDbDictionary
281
1
  3
Normal
350
F
100
AcDbDictionaryWithDefault
340
F
  0
DICTIONARY
  5
17
102
{ACAD_REACTORS
330
C
102
}
100
AcDbDictionary
280
0
281
1
  3
Standard
350
18
  0
DICTIONARY
  5
19
102
{ACAD_REACTORS
330
C
102
}
100
AcDbDictionary
281
1
  0
DICTIONARY
  5
1A
102
{ACAD_REACTORS
330
C
102
}
100
AcDbDictionary
281
1
  3
Model
350
27E
  3
Layout1
350
27F
  0
ACDBPLACEHOLDER
  5
F
102
{ACAD_REACTORS
330
E
102
}
  0
MLINESTYLE
  5
18
102
{ACAD_REACTORS
330
17
102
}
100
AcDbMlineStyle
  2
STANDARD
 70
0
  3

 62
256
 51
90.0
 52
90.0
 71
2
 49
0.5
 62
256
  6
BYLAYER
 49
-0.5
 62
256
  6
BYLAYER
  0
LAYOUT
  5
27E
102
{ACAD_REACTORS
330
1A
102
}
100
AcDbPlotSettings
  1

  2
none_device
  4

  6

 40
0.0
 41
0.0
 42
0.0
 43
0.0
 44
210.0
 45
297.0
 46
0.0
 47
0.0
 48
0.0
 49
0.0
140
0.0
141
0.0
142
1.0
143
1.0
 70
1024
 72
1
 73
0
 74
0
  7

 75
0
147
1.0
148
0.0
149
0.0
100
AcDbLayout
  1
Model
 70
0
 71
0
 10
0.0
 20
0.0
 11
210.0
 21
297.0
 12
0.0
 22
0.0
 32
0.0
 14
0.0
 24
0.0
 34
0.0
 15
0.0
 25
0.0
 35
0.0
146
0.0
 13
0.0
 23
0.0
 33
0.0
 16
1.0
 26
0.0
 36
0.0
 17
0.0
 27
1.0
 37
0.0
 76
0
330
210
345
0
346
0
  0
LAYOUT
  5
27F
102
{ACAD_REACTORS
330
1A
102
}
100
AcDbPlotSettings
  1

  2
none_device
  4

  6

 40
0.0
 41
0.0
 42
0.0
 43
0.0
 44
210.0
 45
297.0
 46
0.0
 47
0.0
 48
0.0
 49
0.0
140
0.0
141
0.0
142
1.0
143
1.0
 70
0
 72
1
 73
0
 74
0
  7

 75
0
147
1.0
148
0.0
149
0.0
100
AcDbLayout
  1
Layout1
 70
0
 71
1
 10
0.0
 20
0.0
 11
210.0
 21
297.0
 12
0.0
 22
0.0
 32
0.0
 14
0.0
 24
0.0
 34
0.0
 15
0.0
 25
0.0
 35
0.0
146
0.0
 13
0.0
 23
0.0
 33
0.0
 16
1.0
 26
0.0
 36
0.0
 17
0.0
 27
1.0
 37
0.0
 76
0
330
211
345
0
346
0
  0
ENDSEC
  0
EOF
