999
DXF file: C:\Users\sesa63760\Dev\_Creo\CAD\MCADPD0004458_3D-CAD\drw0001_6.dxf
999
Pro/ENGINEER 2019471 by Parametric Technology Corporation
  0
SECTION
  2
HEADER
  9
$ACADVER
  1
AC1024
  9
$DWGCODEPAGE
  3
ANSI_1252
  9
$EXTMAX
 10
151.5464737449
 20
214.3300128678
 30
0.0
  9
$EXTMIN
 10
0.0
 20
0.0
 30
0.0
  9
$LIMMIN
 10
0.0
 20
0.0
  9
$LIMMAX
 10
151.5464737449
 20
214.3300128678
  9
$VIEWCTR
 10
75.7732368724
 20
107.1650064339
  9
$VIEWSIZE
 40
214.3300128678
  9
$CLAYER
  8
0
  9
$LTSCALE
 40
13.9711415795
  9
$CELTYPE
  6
BYLAYER
  9
$DIMSCALE
 40
1.0
  9
$DIMASZ
 40
1.8041246874
  9
$DIMEXO
 40
1.0
  9
$DIMDLI
 40
9.6527887277
  9
$DIMEXE
 40
1.0
  9
$DIMCEN
 40
2.2861868039
  9
$DIMLFAC
 40
1.0
  9
$DIMBLK
  1
_FILLED
  9
$DIMALT
 70
0
  9
$DIMALTF
 40
0.0393700787
  9
$DIMTXT
 40
2.5257745624
  9
$DIMTOL
 70
1
  9
$DIMLIM
 70
0
  9
$DIMTFAC
 40
1.0
  9
$DIMTP
 40
0.01
  9
$DIMTM
 40
0.01
  9
$DIMGAP
 40
0.625
  9
$DIMDSEP
 70
46
  9
$AUNITS
 70
0
  9
$PDMODE
 70
3
  9
$PDSIZE
 40
0.3125
  9
$HANDSEED
  5
2CD
  9
$TILEMODE
 70
1
  9
$MEASUREMENT
 70
1
  9
$INSUNITS
 70
4
  0
ENDSEC
  0
SECTION
  2
CLASSES
  0
CLASS
  1
ACDBDICTIONARYWDFLT
  2
AcDbDictionaryWithDefault
  3
AutoCAD 2000
 90
0
 91
1
280
0
281
0
  0
CLASS
  1
ACDBPLACEHOLDER
  2
AcDbPlaceHolder
  3
AutoCAD 2000
 90
0
 91
1
280
0
281
0
  0
CLASS
  1
LAYOUT
  2
AcDbLayout
  3
AutoCAD 2000
 90
0
 91
0
280
0
281
0
  0
ENDSEC
  0
SECTION
  2
TABLES
  0
TABLE
  2
VPORT
  5
8
100
AcDbSymbolTable
 70
2
  0
VPORT
  5
1F4
100
AcDbSymbolTableRecord
100
AcDbViewportTableRecord
  2
*ACTIVE
 70
0
 10
0.0
 20
0.0
 11
1.0
 21
1.0
 12
75.7732368724
 22
107.1650064339
 13
0.0
 23
0.0
 14
1.0
 24
1.0
 15
0.0
 25
0.0
 16
0.0
 26
0.0
 36
1.0
 17
0.0
 27
0.0
 37
0.0
 40
214.3300128678
 41
0.7070707071
 42
50.0
 43
0.0
 44
0.0
 50
0.0
 51
0.0
 71
0
 72
100
 73
1
 74
1
 75
0
 76
0
 77
0
 78
0
  0
ENDTAB
  0
TABLE
  2
LTYPE
  5
5
100
AcDbSymbolTable
 70
6
  0
LTYPE
  5
14
100
AcDbSymbolTableRecord
100
AcDbLinetypeTableRecord
  2
BYBLOCK
 70
0
  3

 72
65
 73
0
 40
0.0
  0
LTYPE
  5
15
100
AcDbSymbolTableRecord
100
AcDbLinetypeTableRecord
  2
BYLAYER
 70
0
  3

 72
65
 73
0
 40
0.0
  0
LTYPE
  5
16
100
AcDbSymbolTableRecord
100
AcDbLinetypeTableRecord
  2
CONTINUOUS
 70
64
  3
Solid line
 72
65
 73
0
 40
0.0
  0
LTYPE
  5
1F5
100
AcDbSymbolTableRecord
100
AcDbLinetypeTableRecord
  2
CENTER
 70
64
  3
____ _ ____ _ ____ _ ____ _ ____ _ ____ _ ____
 72
65
 73
4
 40
0.6
 49
0.375
 74
0
 49
-0.075
 74
0
 49
0.075
 74
0
 49
-0.075
 74
0
  0
LTYPE
  5
1F6
100
AcDbSymbolTableRecord
100
AcDbLinetypeTableRecord
  2
HIDDEN
 70
64
  3
- - - - - - - - - - - - - - - - - - - -
 72
65
 73
2
 40
0.2
 49
0.1
 74
0
 49
-0.1
 74
0
  0
LTYPE
  5
1F7
100
AcDbSymbolTableRecord
100
AcDbLinetypeTableRecord
  2
PHANTOM
 70
64
  3
_____ _ _ _____ _ _ _____ _ _ _____
 72
65
 73
6
 40
0.8
 49
0.45
 74
0
 49
-0.05
 74
0
 49
0.1
 74
0
 49
-0.05
 74
0
 49
0.1
 74
0
 49
-0.05
 74
0
  0
LTYPE
  5
1F8
100
AcDbSymbolTableRecord
100
AcDbLinetypeTableRecord
  2
DOT
 70
64
  3
. . . . . . . . . . . . . . . . . . . .
 72
65
 73
2
 40
0.2
 49
0.1
 74
0
 49
-0.1
 74
0
  0
LTYPE
  5
1F9
100
AcDbSymbolTableRecord
100
AcDbLinetypeTableRecord
  2
DASHED
 70
64
  3
- - - - - - - - - - - - - - - - - - - -
 72
65
 73
2
 40
0.2
 49
0.1
 74
0
 49
-0.1
 74
0
  0
ENDTAB
  0
TABLE
  2
LAYER
  5
2
100
AcDbSymbolTable
 70
36
  0
LAYER
  5
10
100
AcDbSymbolTableRecord
100
AcDbLayerTableRecord
  2
0
 70
0
 62
7
  6
CONTINUOUS
370
-3
390
F
  0
LAYER
  5
1FA
100
AcDbSymbolTableRecord
100
AcDbLayerTableRecord
  2
DEFAULT_1
 70
0
 62
7
  6
CENTER
370
-3
390
F
  0
LAYER
  5
1FB
100
AcDbSymbolTableRecord
100
AcDbLayerTableRecord
  2
DEFAULT_2
 70
0
 62
7
  6
HIDDEN
370
-3
390
F
  0
LAYER
  5
1FC
100
AcDbSymbolTableRecord
100
AcDbLayerTableRecord
  2
DEFAULT_3
 70
0
 62
7
  6
PHANTOM
370
-3
390
F
  0
LAYER
  5
1FD
100
AcDbSymbolTableRecord
100
AcDbLayerTableRecord
  2
00_COMPONENTS
 70
0
 62
7
  6
CONTINUOUS
370
-3
390
F
  0
LAYER
  5
1FE
100
AcDbSymbolTableRecord
100
AcDbLayerTableRecord
  2
01_1_DEFAULT_DATUMS
 70
0
 62
7
  6
CONTINUOUS
370
-3
390
F
  0
LAYER
  5
1FF
100
AcDbSymbolTableRecord
100
AcDbLayerTableRecord
  2
01_PLANES
 70
0
 62
7
  6
CONTINUOUS
370
-3
390
F
  0
LAYER
  5
200
100
AcDbSymbolTableRecord
100
AcDbLayerTableRecord
  2
02_COORD_SYS
 70
0
 62
7
  6
CONTINUOUS
370
-3
390
F
  0
LAYER
  5
201
100
AcDbSymbolTableRecord
100
AcDbLayerTableRecord
  2
03_AXES
 70
0
 62
7
  6
CONTINUOUS
370
-3
390
F
  0
LAYER
  5
202
100
AcDbSymbolTableRecord
100
AcDbLayerTableRecord
  2
04_POINTS
 70
0
 62
7
  6
CONTINUOUS
370
-3
390
F
  0
LAYER
  5
203
100
AcDbSymbolTableRecord
100
AcDbLayerTableRecord
  2
05_CURVES
 70
0
 62
7
  6
CONTINUOUS
370
-3
390
F
  0
LAYER
  5
204
100
AcDbSymbolTableRecord
100
AcDbLayerTableRecord
  2
06_SURFS
 70
0
 62
7
  6
CONTINUOUS
370
-3
390
F
  0
LAYER
  5
205
100
AcDbSymbolTableRecord
100
AcDbLayerTableRecord
  2
07_COSMETICS
 70
0
 62
7
  6
CONTINUOUS
370
-3
390
F
  0
LAYER
  5
206
100
AcDbSymbolTableRecord
100
AcDbLayerTableRecord
  2
10_NOTES
 70
0
 62
7
  6
CONTINUOUS
370
-3
390
F
  0
LAYER
  5
207
100
AcDbSymbolTableRecord
100
AcDbLayerTableRecord
  2
11_NOTES_PUB
 70
0
 62
7
  6
CONTINUOUS
370
-3
390
F
  0
LAYER
  5
208
100
AcDbSymbolTableRecord
100
AcDbLayerTableRecord
  2
13_REF_GTOL
 70
0
 62
7
  6
CONTINUOUS
370
-3
390
F
  0
LAYER
  5
209
100
AcDbSymbolTableRecord
100
AcDbLayerTableRecord
  2
16_MISC
 70
0
 62
7
  6
CONTINUOUS
370
-3
390
F
  0
LAYER
  5
20A
100
AcDbSymbolTableRecord
100
AcDbLayerTableRecord
  2
17_NO_PRINT
 70
0
 62
7
  6
CONTINUOUS
370
-3
390
F
  0
LAYER
  5
20B
100
AcDbSymbolTableRecord
100
AcDbLayerTableRecord
  2
18_DATUM_CAMS_JOINTS
 70
0
 62
7
  6
CONTINUOUS
370
-3
390
F
  0
LAYER
  5
20C
100
AcDbSymbolTableRecord
100
AcDbLayerTableRecord
  2
19_DATUM_FUNCTIONAL
 70
0
 62
7
  6
CONTINUOUS
370
-3
390
F
  0
LAYER
  5
20D
100
AcDbSymbolTableRecord
100
AcDbLayerTableRecord
  2
20_DATUM_KINEMATIC_SCHEME
 70
0
 62
7
  6
CONTINUOUS
370
-3
390
F
  0
ENDTAB
  0
TABLE
  2
STYLE
  5
3
100
AcDbSymbolTable
 70
1
  0
STYLE
  5
11
100
AcDbSymbolTableRecord
100
AcDbTextStyleTableRecord
  2
STANDARD
 70
0
 40
0.0
 41
1.0
 50
0.0
 71
0
 42
0.2
  3
ARIAL.TTF
  4

  0
STYLE
  5
20E
100
AcDbSymbolTableRecord
100
AcDbTextStyleTableRecord
  2
TEXTSTYLE_1
 70
0
 40
0.0
 41
0.8
 50
0.0
 71
0
 42
0.2
  3
gdt
  4

  0
ENDTAB
  0
TABLE
  2
VIEW
  5
6
100
AcDbSymbolTable
 70
0
  0
ENDTAB
  0
TABLE
  2
UCS
  5
7
100
AcDbSymbolTable
 70
0
  0
ENDTAB
  0
TABLE
  2
APPID
  5
9
100
AcDbSymbolTable
 70
1
  0
APPID
  5
20F
100
AcDbSymbolTableRecord
100
AcDbRegAppTableRecord
  2
ACAD
 70
0
  0
ENDTAB
  0
TABLE
  2
BLOCK_RECORD
  5
1
100
AcDbSymbolTable
 70
0
  0
BLOCK_RECORD
  5
210
100
AcDbSymbolTableRecord
100
AcDbBlockTableRecord
  2
*Model_Space
  0
BLOCK_RECORD
  5
211
100
AcDbSymbolTableRecord
100
AcDbBlockTableRecord
  2
*Paper_Space
  0
BLOCK_RECORD
  5
212
100
AcDbSymbolTableRecord
100
AcDbBlockTableRecord
  2
_FILLED
  0
ENDTAB
  0
TABLE
  2
DIMSTYLE
  5
A
100
AcDbSymbolTable
 70
1
100
AcDbDimStyleTable
 71
0
  0
DIMSTYLE
105
213
100
AcDbSymbolTableRecord
100
AcDbDimStyleTableRecord
  2
STANDARD
 70
0
  3

  4

 40
1.0
 41
1.8041246874
 42
1.0
 43
0.38
 44
1.0
 45
0.0
 46
0.0
 47
0.01
 48
0.01
140
2.5257745624
141
0.09
142
0.0
143
25.4
144
1.0
145
0.0
146
1.0
147
0.625
 71
1
 72
0
 73
0
 74
0
 75
0
 76
0
 77
1
 78
8
 79
2
170
0
171
1
172
0
173
0
174
0
175
0
176
0
177
0
178
0
270
2
179
2
271
2
272
2
273
2
274
2
275
0
280
0
281
0
282
0
283
1
284
8
285
0
286
0
287
3
288
0
340
11
278
46
341
212
342
212
343
212
344
212
  0
ENDTAB
  0
ENDSEC
  0
SECTION
  2
BLOCKS
  0
BLOCK
  5
20
100
AcDbEntity
  8
0
100
AcDbBlockBegin
  2
*Model_Space
 70
0
 10
0.0
 20
0.0
 30
0.0
  3
*Model_Space
  1

  0
ENDBLK
  5
21
100
AcDbEntity
  8
0
100
AcDbBlockEnd
  0
BLOCK
  5
1C
100
AcDbEntity
  8
0
100
AcDbBlockBegin
  2
*Paper_Space
 70
0
 10
0.0
 20
0.0
 30
0.0
  3
*Paper_Space
  1

  0
ENDBLK
  5
1D
100
AcDbEntity
  8
0
100
AcDbBlockEnd
  0
BLOCK
  5
214
100
AcDbEntity
  8
0
100
AcDbBlockBegin
  2
_FILLED
 70
64
 10
0.0
 20
0.0
  3
_FILLED
  1

  0
SOLID
  5
215
100
AcDbEntity
  8
0
  6
BYBLOCK
 62
0
100
AcDbTrace
 10
0.0
 20
0.0
 11
-1.0
 21
0.25
 12
-1.0
 22
-0.25
 13
-1.0
 23
-0.25
  0
ENDBLK
  5
216
100
AcDbEntity
  8
0
  6
BYBLOCK
 62
0
100
AcDbBlockEnd
  0
ENDSEC
  0
SECTION
  2
ENTITIES
  0
LINE
  5
217
100
AcDbEntity
  8
0
100
AcDbLine
 62
7
  6
BYLAYER
 10
17.129121823
 20
94.6650064339
 11
17.129121823
 21
124.0650064339
  0
LINE
  5
218
100
AcDbEntity
  8
0
100
AcDbLine
 62
7
  6
BYLAYER
 10
18.9438832339
 20
94.6650064339
 11
18.9438832339
 21
124.0650064339
  0
LINE
  5
219
100
AcDbEntity
  8
0
100
AcDbLine
 62
7
  6
BYLAYER
 10
19.1140176143
 20
94.6650064339
 11
19.1140176143
 21
124.0650064339
  0
LINE
  5
21A
100
AcDbEntity
  8
0
100
AcDbLine
 62
7
  6
BYLAYER
 10
91.529121823
 20
50.9650071515
 11
126.229121823
 21
51.1470553382
  0
LINE
  5
21B
100
AcDbEntity
  8
0
100
AcDbLine
 62
7
  6
BYLAYER
 10
130.429121823
 20
46.5650064339
 11
137.029121823
 21
46.5650064339
  0
LINE
  5
21C
100
AcDbEntity
  8
0
100
AcDbLine
 62
7
  6
BYLAYER
 10
127.2298451805
 20
46.6562264175
 11
130.229121823
 21
46.6562264175
  0
LINE
  5
21D
100
AcDbEntity
  8
0
100
AcDbLine
 62
7
  6
BYLAYER
 10
130.229121823
 20
46.8634943601
 11
130.429121823
 21
46.8634943601
  0
LINE
  5
21E
100
AcDbEntity
  8
0
100
AcDbLine
 62
7
  6
BYLAYER
 10
131.629121823
 20
47.3375192195
 11
137.029121823
 21
47.3375192195
  0
LINE
  5
21F
100
AcDbEntity
  8
0
100
AcDbLine
 62
7
  6
BYLAYER
 10
137.029121823
 20
47.6900128901
 11
126.8163272697
 21
47.6900128901
  0
LINE
  5
220
100
AcDbEntity
  8
0
100
AcDbLine
 62
7
  6
BYLAYER
 10
44.141520407
 20
50.9650064339
 11
102.629121823
 21
50.9650064339
  0
LINE
  5
221
100
AcDbEntity
  8
0
100
AcDbLine
 62
7
  6
BYLAYER
 10
22.829121823
 20
110.7650064339
 11
22.829121823
 21
94.6650064339
  0
LINE
  5
222
100
AcDbEntity
  8
0
100
AcDbLine
 62
7
  6
BYLAYER
 10
24.929121823
 20
94.6650064339
 11
24.929121823
 21
124.0650064339
  0
LINE
  5
223
100
AcDbEntity
  8
0
100
AcDbLine
 62
7
  6
BYLAYER
 10
25.129121823
 20
135.1650064339
 11
25.129121823
 21
124.0650064339
  0
LINE
  5
224
100
AcDbEntity
  8
0
100
AcDbLine
 62
7
  6
BYLAYER
 10
25.129121823
 20
94.6650064339
 11
25.129121823
 21
83.5650064339
  0
LINE
  5
225
100
AcDbEntity
  8
0
100
AcDbLine
 62
7
  6
BYLAYER
 10
40.629122562
 20
52.4650064339
 11
102.629121823
 21
52.4650064339
  0
LINE
  5
226
100
AcDbEntity
  8
0
100
AcDbLine
 62
7
  6
BYLAYER
 10
40.7168636599
 20
53.5388251847
 11
40.9950951854
 21
53.5388251847
  0
LINE
  5
227
100
AcDbEntity
  8
0
100
AcDbLine
 62
7
  6
BYLAYER
 10
27.0605351612
 20
83.5650064339
 11
27.0605351612
 21
94.6650064339
  0
LINE
  5
228
100
AcDbEntity
  8
0
100
AcDbLine
 62
7
  6
BYLAYER
 10
27.0605351612
 20
124.0650064339
 11
27.0605351612
 21
135.1650064339
  0
LINE
  5
229
100
AcDbEntity
  8
0
100
AcDbLine
 62
7
  6
BYLAYER
 10
27.129121823
 20
83.5650064339
 11
27.129121823
 21
94.6650064339
  0
LINE
  5
22A
100
AcDbEntity
  8
0
100
AcDbLine
 62
7
  6
BYLAYER
 10
27.129121823
 20
124.0650064339
 11
27.129121823
 21
135.1650064339
  0
LINE
  5
22B
100
AcDbEntity
  8
0
100
AcDbLine
 62
7
  6
BYLAYER
 10
102.629121823
 20
59.5428523124
 11
137.029121823
 21
59.5428523124
  0
LINE
  5
22C
100
AcDbEntity
  8
0
100
AcDbLine
 62
7
  6
BYLAYER
 10
102.629121823
 20
64.9650064339
 11
104.129121823
 21
64.9650064339
  0
LINE
  5
22D
100
AcDbEntity
  8
0
100
AcDbLine
 62
7
  6
BYLAYER
 10
40.6291241236
 20
67.9650064339
 11
40.7782349288
 21
67.9650064339
  0
LINE
  5
22E
100
AcDbEntity
  8
0
100
AcDbLine
 62
7
  6
BYLAYER
 10
40.8967410427
 20
67.9650064339
 11
104.129121823
 21
67.9650064339
  0
LINE
  5
22F
100
AcDbEntity
  8
0
100
AcDbLine
 62
7
  6
BYLAYER
 10
40.9950951854
 20
53.5388249767
 11
41.0017252667
 21
52.4650064339
  0
LINE
  5
230
100
AcDbEntity
  8
0
100
AcDbLine
 62
7
  6
BYLAYER
 10
40.8967410427
 20
67.9650064339
 11
40.8942925307
 21
68.4650063661
  0
LINE
  5
231
100
AcDbEntity
  8
0
100
AcDbLine
 62
7
  6
BYLAYER
 10
40.7168636591
 20
165.1911879549
 11
40.7136651999
 21
166.2650064339
  0
LINE
  5
232
100
AcDbEntity
  8
0
100
AcDbLine
 62
7
  6
BYLAYER
 10
40.629121823
 20
67.9650064339
 11
40.629121823
 21
64.3650064339
  0
LINE
  5
233
100
AcDbEntity
  8
0
100
AcDbLine
 62
7
  6
BYLAYER
 10
40.629121823
 20
56.5650064339
 11
40.629121823
 21
52.4650064339
  0
LINE
  5
234
100
AcDbEntity
  8
0
100
AcDbLine
 62
7
  6
BYLAYER
 10
40.629121823
 20
68.4650064339
 11
40.629121823
 21
80.5650064339
  0
LINE
  5
235
100
AcDbEntity
  8
0
100
AcDbLine
 62
7
  6
BYLAYER
 10
40.629121823
 20
138.1650064339
 11
40.629121823
 21
150.2650064339
  0
LINE
  5
236
100
AcDbEntity
  8
0
100
AcDbLine
 62
7
  6
BYLAYER
 10
40.629121823
 20
150.7650064339
 11
40.629121823
 21
154.3650064339
  0
LINE
  5
237
100
AcDbEntity
  8
0
100
AcDbLine
 62
7
  6
BYLAYER
 10
40.629121823
 20
162.1650064339
 11
40.629121823
 21
166.2650064339
  0
LINE
  5
238
100
AcDbEntity
  8
0
100
AcDbLine
 62
7
  6
BYLAYER
 10
40.7684559531
 20
68.4650064339
 11
40.7684559531
 21
70.7120664312
  0
LINE
  5
239
100
AcDbEntity
  8
0
100
AcDbLine
 62
7
  6
BYLAYER
 10
40.7684559531
 20
148.0179464366
 11
40.7684559531
 21
150.2650064339
  0
LINE
  5
23A
100
AcDbEntity
  8
0
100
AcDbLine
 62
7
  6
BYLAYER
 10
40.7782348453
 20
71.0123779947
 11
40.7782348965
 21
67.9650064339
  0
LINE
  5
23B
100
AcDbEntity
  8
0
100
AcDbLine
 62
7
  6
BYLAYER
 10
40.7782348073
 20
147.7176347735
 11
40.7782349306
 21
150.7650064339
  0
LINE
  5
23C
100
AcDbEntity
  8
0
100
AcDbLine
 62
7
  6
BYLAYER
 10
40.8942926274
 20
68.4650064217
 11
40.8942927957
 21
71.0123775786
  0
LINE
  5
23D
100
AcDbEntity
  8
0
100
AcDbLine
 62
7
  6
BYLAYER
 10
40.8942925315
 20
150.7650064339
 11
40.8942929051
 21
147.7176350478
  0
LINE
  5
23E
100
AcDbEntity
  8
0
100
AcDbLine
 62
7
  6
BYLAYER
 10
40.9077272631
 20
150.2650064339
 11
40.9077272631
 21
148.0179464366
  0
LINE
  5
23F
100
AcDbEntity
  8
0
100
AcDbLine
 62
7
  6
BYLAYER
 10
40.9077272631
 20
70.7120664312
 11
40.9077272631
 21
68.4650064339
  0
LINE
  5
240
100
AcDbEntity
  8
0
100
AcDbLine
 62
7
  6
BYLAYER
 10
42.5050174273
 20
68.4649917486
 11
42.5050174273
 21
52.4650064339
  0
LINE
  5
241
100
AcDbEntity
  8
0
100
AcDbLine
 62
7
  6
BYLAYER
 10
42.5050174273
 20
150.2650064339
 11
42.5050174273
 21
166.2650064339
  0
LINE
  5
242
100
AcDbEntity
  8
0
100
AcDbLine
 62
7
  6
BYLAYER
 10
42.629121823
 20
68.4650064339
 11
42.629121823
 21
150.2650064339
  0
LINE
  5
243
100
AcDbEntity
  8
0
100
AcDbLine
 62
7
  6
BYLAYER
 10
40.7136651882
 20
52.4650064339
 11
40.7168636599
 21
53.5388251847
  0
LINE
  5
244
100
AcDbEntity
  8
0
100
AcDbLine
 62
7
  6
BYLAYER
 10
41.0017252869
 20
166.2650064339
 11
40.9950951841
 21
165.191187668
  0
LINE
  5
245
100
AcDbEntity
  8
0
100
AcDbLine
 62
7
  6
BYLAYER
 10
40.7684559531
 20
68.4650064339
 11
40.6291238303
 21
68.4650064339
  0
LINE
  5
246
100
AcDbEntity
  8
0
100
AcDbLine
 62
7
  6
BYLAYER
 10
40.8942925307
 20
68.4650063661
 11
91.529121823
 21
68.4650064339
  0
LINE
  5
247
100
AcDbEntity
  8
0
100
AcDbLine
 62
7
  6
BYLAYER
 10
40.8942927957
 20
71.0123775786
 11
40.9138349612
 21
71.0123775786
  0
LINE
  5
248
100
AcDbEntity
  8
0
100
AcDbLine
 62
7
  6
BYLAYER
 10
40.9058551611
 20
73.0650064339
 11
40.8321100689
 21
73.0650064339
  0
LINE
  5
249
100
AcDbEntity
  8
0
100
AcDbLine
 62
7
  6
BYLAYER
 10
44.14151997
 20
167.7650064339
 11
44.14151997
 21
166.2650064339
  0
LINE
  5
24A
100
AcDbEntity
  8
0
100
AcDbLine
 62
7
  6
BYLAYER
 10
44.14151997
 20
50.9650064339
 11
44.14151997
 21
52.4650064339
  0
LINE
  5
24B
100
AcDbEntity
  8
0
100
AcDbLine
 62
7
  6
BYLAYER
 10
45.0764007994
 20
83.5650064339
 11
45.0764007994
 21
135.1650064339
  0
LINE
  5
24C
100
AcDbEntity
  8
0
100
AcDbLine
 62
7
  6
BYLAYER
 10
45.6778244523
 20
50.9650064339
 11
45.6778244523
 21
52.4650064339
  0
LINE
  5
24D
100
AcDbEntity
  8
0
100
AcDbLine
 62
7
  6
BYLAYER
 10
45.6778244523
 20
166.2650064339
 11
45.6778244523
 21
167.7650064339
  0
LINE
  5
24E
100
AcDbEntity
  8
0
100
AcDbLine
 62
7
  6
BYLAYER
 10
45.7926536794
 20
80.5650064339
 11
33.0741198214
 21
80.5650064339
  0
LINE
  5
24F
100
AcDbEntity
  8
0
100
AcDbLine
 62
7
  6
BYLAYER
 10
25.1291717092
 20
83.5650064339
 11
45.0764007994
 21
83.5650064339
  0
LINE
  5
250
100
AcDbEntity
  8
0
100
AcDbLine
 62
7
  6
BYLAYER
 10
130.229121823
 20
87.3650064339
 11
134.029121823
 21
87.3650064339
  0
LINE
  5
251
100
AcDbEntity
  8
0
100
AcDbLine
 62
7
  6
BYLAYER
 10
130.429121823
 20
88.6650064339
 11
132.229121823
 21
88.6650064339
  0
LINE
  5
252
100
AcDbEntity
  8
0
100
AcDbLine
 62
7
  6
BYLAYER
 10
135.229121823
 20
88.6650064339
 11
137.029121823
 21
88.6650064339
  0
LINE
  5
253
100
AcDbEntity
  8
0
100
AcDbLine
 62
7
  6
BYLAYER
 10
130.229121823
 20
90.3650064339
 11
131.8827116615
 21
90.3650064339
  0
LINE
  5
254
100
AcDbEntity
  8
0
100
AcDbLine
 62
7
  6
BYLAYER
 10
135.229121823
 20
90.3650064339
 11
136.618908139
 21
90.3650064339
  0
LINE
  5
255
100
AcDbEntity
  8
0
100
AcDbLine
 62
7
  6
BYLAYER
 10
17.5095730491
 20
98.0482219694
 11
17.5110751443
 21
98.0480155245
  0
LINE
  5
256
100
AcDbEntity
  8
0
100
AcDbLine
 62
7
  6
BYLAYER
 10
130.229121823
 20
91.3719574424
 11
130.2152281099
 21
91.3719574424
  0
LINE
  5
257
100
AcDbEntity
  8
0
100
AcDbLine
 62
7
  6
BYLAYER
 10
137.029121823
 20
91.5650064339
 11
136.3654283619
 21
91.5650064339
  0
LINE
  5
258
100
AcDbEntity
  8
0
100
AcDbLine
 62
7
  6
BYLAYER
 10
130.4854320508
 20
91.5650064339
 11
130.2152281099
 21
91.5650064339
  0
LINE
  5
259
100
AcDbEntity
  8
0
100
AcDbLine
 62
7
  6
BYLAYER
 10
17.1291355778
 20
94.6650064339
 11
27.129121823
 21
94.6650064339
  0
LINE
  5
25A
100
AcDbEntity
  8
0
100
AcDbLine
 62
7
  6
BYLAYER
 10
132.4754334509
 20
95.8433290619
 11
131.8755433395
 21
95.8433290619
  0
LINE
  5
25B
100
AcDbEntity
  8
0
100
AcDbLine
 62
7
  6
BYLAYER
 10
17.5110761166
 20
99.7819980484
 11
17.5095730491
 21
99.7817916032
  0
LINE
  5
25C
100
AcDbEntity
  8
0
100
AcDbLine
 62
7
  6
BYLAYER
 10
22.829121823
 20
110.7650064339
 11
17.1291532332
 21
110.7650064339
  0
LINE
  5
25D
100
AcDbEntity
  8
0
100
AcDbLine
 62
7
  6
BYLAYER
 10
132.8595220824
 20
124.8610500706
 11
137.029121823
 21
126.7684201647
  0
LINE
  5
25E
100
AcDbEntity
  8
0
100
AcDbLine
 62
7
  6
BYLAYER
 10
91.529121823
 20
150.278568839
 11
91.529121823
 21
50.9650071515
  0
LINE
  5
25F
100
AcDbEntity
  8
0
100
AcDbLine
 62
7
  6
BYLAYER
 10
17.1291532332
 20
124.0650064339
 11
27.129121823
 21
124.0650064339
  0
LINE
  5
260
100
AcDbEntity
  8
0
100
AcDbLine
 62
7
  6
BYLAYER
 10
132.2831100602
 20
124.8610500706
 11
132.8595220824
 21
124.8610500706
  0
LINE
  5
261
100
AcDbEntity
  8
0
100
AcDbLine
 62
7
  6
BYLAYER
 10
130.377832433
 20
91.2338488615
 11
132.229121823
 21
90.1650064339
  0
LINE
  5
262
100
AcDbEntity
  8
0
100
AcDbLine
 62
7
  6
BYLAYER
 10
130.2152281099
 20
126.8678178516
 11
131.3651205433
 21
126.8678178516
  0
LINE
  5
263
100
AcDbEntity
  8
0
100
AcDbLine
 62
7
  6
BYLAYER
 10
103.0167906765
 20
157.327398356
 11
103.029121823
 21
153.8649944835
  0
LINE
  5
264
100
AcDbEntity
  8
0
100
AcDbLine
 62
7
  6
BYLAYER
 10
102.629121823
 20
50.9650064339
 11
102.629121823
 21
64.9650064339
  0
LINE
  5
265
100
AcDbEntity
  8
0
100
AcDbLine
 62
7
  6
BYLAYER
 10
102.629121823
 20
153.7650064339
 11
102.629121823
 21
167.7650064339
  0
LINE
  5
266
100
AcDbEntity
  8
0
100
AcDbLine
 62
7
  6
BYLAYER
 10
25.1291717092
 20
135.1650064339
 11
45.0764007994
 21
135.1650064339
  0
LINE
  5
267
100
AcDbEntity
  8
0
100
AcDbLine
 62
7
  6
BYLAYER
 10
137.029121823
 20
84.3650064339
 11
134.029121823
 21
87.3650064339
  0
LINE
  5
268
100
AcDbEntity
  8
0
100
AcDbLine
 62
7
  6
BYLAYER
 10
126.229121823
 20
49.1580147084
 11
127.2298451805
 21
46.6562264175
  0
LINE
  5
269
100
AcDbEntity
  8
0
100
AcDbLine
 62
7
  6
BYLAYER
 10
33.0741198214
 20
138.1650064339
 11
43.6462195814
 21
138.1650064339
  0
LINE
  5
26A
100
AcDbEntity
  8
0
100
AcDbLine
 62
7
  6
BYLAYER
 10
136.7407701747
 20
91.1521952587
 11
132.4754334509
 21
95.8433290619
  0
LINE
  5
26B
100
AcDbEntity
  8
0
100
AcDbLine
 62
7
  6
BYLAYER
 10
40.8321100689
 20
145.6650064339
 11
40.9059989466
 21
145.6650064339
  0
LINE
  5
26C
100
AcDbEntity
  8
0
100
AcDbLine
 62
7
  6
BYLAYER
 10
40.8942929051
 20
147.7176350478
 11
40.9138157661
 21
147.7176350464
  0
LINE
  5
26D
100
AcDbEntity
  8
0
100
AcDbLine
 62
7
  6
BYLAYER
 10
40.6291238303
 20
150.2650064339
 11
40.7684559531
 21
150.2650064339
  0
LINE
  5
26E
100
AcDbEntity
  8
0
100
AcDbLine
 62
7
  6
BYLAYER
 10
40.9077272631
 20
150.2650064339
 11
91.529121823
 21
150.2650064339
  0
LINE
  5
26F
100
AcDbEntity
  8
0
100
AcDbLine
 62
7
  6
BYLAYER
 10
104.7496682341
 20
150.278568839
 11
91.529121823
 21
150.278568839
  0
LINE
  5
270
100
AcDbEntity
  8
0
100
AcDbLine
 62
7
  6
BYLAYER
 10
40.7782349306
 20
150.7650064339
 11
40.629124122
 21
150.7650064339
  0
LINE
  5
271
100
AcDbEntity
  8
0
100
AcDbLine
 62
7
  6
BYLAYER
 10
40.8942925315
 20
150.7650064339
 11
104.129121823
 21
150.7650064339
  0
LINE
  5
272
100
AcDbEntity
  8
0
100
AcDbLine
 62
7
  6
BYLAYER
 10
126.229121823
 20
51.1470553382
 11
126.229121823
 21
49.1580147084
  0
LINE
  5
273
100
AcDbEntity
  8
0
100
AcDbLine
 62
7
  6
BYLAYER
 10
104.129121823
 20
153.7650064339
 11
102.629121823
 21
153.7650064339
  0
LINE
  5
274
100
AcDbEntity
  8
0
100
AcDbLine
 62
7
  6
BYLAYER
 10
103.029121823
 20
153.8649944835
 11
104.5291074825
 21
153.8650064338
  0
LINE
  5
275
100
AcDbEntity
  8
0
100
AcDbLine
 62
7
  6
BYLAYER
 10
137.029121823
 20
157.327398356
 11
103.0167906765
 21
157.327398356
  0
LINE
  5
276
100
AcDbEntity
  8
0
100
AcDbLine
 62
7
  6
BYLAYER
 10
136.929121823
 20
158.1650064339
 11
135.429121823
 21
158.1650064339
  0
LINE
  5
277
100
AcDbEntity
  8
0
100
AcDbLine
 62
7
  6
BYLAYER
 10
130.2152281099
 20
91.3719574424
 11
130.2152281099
 21
126.8678178516
  0
LINE
  5
278
100
AcDbEntity
  8
0
100
AcDbLine
 62
7
  6
BYLAYER
 10
130.229121823
 20
91.3719574424
 11
130.229121823
 21
87.3650064339
  0
LINE
  5
279
100
AcDbEntity
  8
0
100
AcDbLine
 62
7
  6
BYLAYER
 10
130.229121823
 20
46.8634943602
 11
130.229121823
 21
46.6562264175
  0
LINE
  5
27A
100
AcDbEntity
  8
0
100
AcDbLine
 62
7
  6
BYLAYER
 10
130.429121823
 20
88.6650064339
 11
130.429121823
 21
87.3650064339
  0
LINE
  5
27B
100
AcDbEntity
  8
0
100
AcDbLine
 62
7
  6
BYLAYER
 10
131.629121823
 20
88.6650064339
 11
131.629121823
 21
87.3650064339
  0
LINE
  5
27C
100
AcDbEntity
  8
0
100
AcDbLine
 62
7
  6
BYLAYER
 10
131.629121823
 20
47.3375192195
 11
131.629121823
 21
46.5650064339
  0
LINE
  5
27D
100
AcDbEntity
  8
0
100
AcDbLine
 62
7
  6
BYLAYER
 10
132.229121823
 20
90.1650064339
 11
132.229121823
 21
88.6650064339
  0
LINE
  5
27E
100
AcDbEntity
  8
0
100
AcDbLine
 62
7
  6
BYLAYER
 10
131.8755433395
 20
95.8433290619
 11
130.377832433
 21
91.2338488615
  0
LINE
  5
27F
100
AcDbEntity
  8
0
100
AcDbLine
 62
7
  6
BYLAYER
 10
131.3651205433
 20
126.8678178516
 11
132.2831100602
 21
124.8610500706
  0
LINE
  5
280
100
AcDbEntity
  8
0
100
AcDbLine
 62
7
  6
BYLAYER
 10
135.229121823
 20
88.6650064339
 11
135.229121823
 21
90.3650064339
  0
LINE
  5
281
100
AcDbEntity
  8
0
100
AcDbLine
 62
7
  6
BYLAYER
 10
135.429121823
 20
157.327398356
 11
135.429121823
 21
158.164963256
  0
LINE
  5
282
100
AcDbEntity
  8
0
100
AcDbLine
 62
7
  6
BYLAYER
 10
136.929121823
 20
158.164963256
 11
136.929121823
 21
157.327398356
  0
LINE
  5
283
100
AcDbEntity
  8
0
100
AcDbLine
 62
7
  6
BYLAYER
 10
137.029121823
 20
46.5650064339
 11
137.029121823
 21
91.5650064339
  0
LINE
  5
284
100
AcDbEntity
  8
0
100
AcDbLine
 62
7
  6
BYLAYER
 10
137.029121823
 20
126.7684201647
 11
137.029121823
 21
157.327398356
  0
LINE
  5
285
100
AcDbEntity
  8
0
100
AcDbLine
 62
7
  6
BYLAYER
 10
135.829121823
 20
90.3650064339
 11
135.7134692753
 21
88.6650064339
  0
LINE
  5
286
100
AcDbEntity
  8
0
100
AcDbLine
 62
7
  6
BYLAYER
 10
136.618908139
 20
90.3650064339
 11
136.7407701747
 21
91.1521952587
  0
LINE
  5
287
100
AcDbEntity
  8
0
100
AcDbLine
 62
7
  6
BYLAYER
 10
40.9950951841
 20
165.1911879549
 11
40.7168636591
 21
165.1911879549
  0
LINE
  5
288
100
AcDbEntity
  8
0
100
AcDbLine
 62
7
  6
BYLAYER
 10
40.629122562
 20
166.2650064339
 11
102.629121823
 21
166.2650064339
  0
LINE
  5
289
100
AcDbEntity
  8
0
100
AcDbLine
 62
7
  6
BYLAYER
 10
44.141520407
 20
167.7650064339
 11
102.629121823
 21
167.7650064339
  0
ARC
  5
28A
100
AcDbEntity
  8
0
100
AcDbCircle
 62
7
  6
BYLAYER
 10
132.5436134896
 20
109.3650064339
 40
103.5
100
AcDbArc
 50
165.565363985
 51
194.434636015
  0
ARC
  5
28B
100
AcDbEntity
  8
0
100
AcDbCircle
 62
7
  6
BYLAYER
 10
132.6619008925
 20
109.3650064339
 40
100.0
100
AcDbArc
 50
165.04857775
 51
194.95142225
  0
ARC
  5
28C
100
AcDbEntity
  8
0
100
AcDbCircle
 62
7
  6
BYLAYER
 10
28.3850430288
 20
148.0181935078
 40
12.3834291466
100
AcDbArc
 50
359.1067607236
 51
359.9988568483
  0
ARC
  5
28D
100
AcDbEntity
  8
0
100
AcDbCircle
 62
7
  6
BYLAYER
 10
28.6203798124
 20
70.7134343937
 40
12.1480765816
100
AcDbArc
 50
359.993548075
 51
0.9029296096
  0
ARC
  5
28E
100
AcDbEntity
  8
0
100
AcDbCircle
 62
7
  6
BYLAYER
 10
32.4062707822
 20
70.7778627911
 40
8.3616417774
100
AcDbArc
 50
0.8703085849
 51
1.64165126
  0
ARC
  5
28F
100
AcDbEntity
  8
0
100
AcDbCircle
 62
7
  6
BYLAYER
 10
33.0741198214
 20
130.1650064339
 40
8.0
100
AcDbArc
 50
90.0
 51
141.3178125465
  0
ARC
  5
290
100
AcDbEntity
  8
0
100
AcDbCircle
 62
7
  6
BYLAYER
 10
33.0741198214
 20
88.5650064339
 40
8.0
100
AcDbArc
 50
218.6821874535
 51
270.0
  0
ARC
  5
291
100
AcDbEntity
  8
0
100
AcDbCircle
 62
7
  6
BYLAYER
 10
104.529121823
 20
152.0650064339
 40
1.8
100
AcDbArc
 50
277.0378952679
 51
90.0004564741
  0
ARC
  5
292
100
AcDbEntity
  8
0
100
AcDbCircle
 62
7
  6
BYLAYER
 10
104.129121823
 20
66.4650064339
 40
1.5
100
AcDbArc
 50
270.0
 51
90.0
  0
ARC
  5
293
100
AcDbEntity
  8
0
100
AcDbCircle
 62
7
  6
BYLAYER
 10
104.129121823
 20
152.2650064339
 40
1.5
100
AcDbArc
 50
270.0
 51
90.0
  0
SPLINE
  5
294
100
AcDbEntity
  8
0
100
AcDbSpline
 62
7
  6
BYLAYER
 70
0
 71
3
 72
29
 73
25
 74
0
 42
0.0000001
 43
0.0000001
 44
0.0000000001
 40
0.0
 40
0.0
 40
0.0
 40
0.0
 40
0.0044586885
 40
0.0079731995
 40
0.0125185318
 40
0.024859381
 40
0.04158824
 40
0.0877368239
 40
0.1495084726
 40
0.2246460089
 40
0.3103241109
 40
0.4032962388
 40
0.4999894186
 40
0.5966825712
 40
0.6896553821
 40
0.7753332914
 40
0.8504722578
 40
0.9122519824
 40
0.9584063294
 40
0.9751377696
 40
0.9874797528
 40
0.9920256825
 40
0.9955407442
 40
1.0
 40
1.0
 40
1.0
 40
1.0
 10
17.511038088
 20
98.0480179206
 30
0.0
 10
17.5136418509
 20
98.048025773
 30
0.0
 10
17.5177079224
 20
98.0516897523
 30
0.0
 10
17.5213113402
 20
98.0578257853
 30
0.0
 10
17.5261964418
 20
98.0688175255
 30
0.0
 10
17.5316955595
 20
98.0876561705
 30
0.0
 10
17.5409785096
 20
98.1306334076
 30
0.0
 10
17.550973092
 20
98.2027945964
 30
0.0
 10
17.5612404602
 20
98.3092109105
 30
0.0
 10
17.5697930725
 20
98.4389341956
 30
0.0
 10
17.5762861479
 20
98.5870063575
 30
0.0
 10
17.580314518
 20
98.7477592738
 30
0.0
 10
17.58168174
 20
98.9149880905
 30
0.0
 10
17.5803151391
 20
99.0822173228
 30
0.0
 10
17.5762860766
 20
99.2429704812
 30
0.0
 10
17.5697953524
 20
99.3910438626
 30
0.0
 10
17.5612435357
 20
99.5207726526
 30
0.0
 10
17.5509751052
 20
99.6271978703
 30
0.0
 10
17.5409798594
 20
99.6993685361
 30
0.0
 10
17.5316977828
 20
99.7423516761
 30
0.0
 10
17.5261977601
 20
99.7611926658
 30
0.0
 10
17.5213121891
 20
99.7721856987
 30
0.0
 10
17.517708389
 20
99.7783225523
 30
0.0
 10
17.5136421964
 20
99.7819875884
 30
0.0
 10
17.5110381028
 20
99.7819956046
 30
0.0
  0
SPLINE
  5
295
100
AcDbEntity
  8
0
100
AcDbSpline
 62
7
  6
BYLAYER
 70
0
 71
3
 72
27
 73
23
 74
0
 42
0.0000001
 43
0.0000001
 44
0.0000000001
 40
0.0
 40
0.0
 40
0.0
 40
0.0
 40
0.0049236979
 40
0.013590914
 40
0.0264921691
 40
0.0436797207
 40
0.0904072736
 40
0.152309558
 40
0.2271622747
 40
0.3122126902
 40
0.404307536
 40
0.4999927174
 40
0.5956779955
 40
0.6877741025
 40
0.7728269817
 40
0.8476827102
 40
0.9095887087
 40
0.9563186318
 40
0.9735071282
 40
0.9864087974
 40
0.9950762523
 40
1.0
 40
1.0
 40
1.0
 40
1.0
 10
17.5095730491
 20
99.7818007857
 30
0.0
 10
17.5067930953
 20
99.7810918923
 30
0.0
 10
17.5012591604
 20
99.7742455907
 30
0.0
 10
17.4957522428
 20
99.7602010849
 30
0.0
 10
17.4897620457
 20
99.7382041988
 30
0.0
 10
17.4813768804
 20
99.6943168618
 30
0.0
 10
17.4723065945
 20
99.6214446577
 30
0.0
 10
17.4634047545
 20
99.5149291916
 30
0.0
 10
17.4561200695
 20
99.3858682306
 30
0.0
 10
17.4507187145
 20
99.2391322739
 30
0.0
 10
17.447408319
 20
99.0801879879
 30
0.0
 10
17.4462935099
 20
98.9150188291
 30
0.0
 10
17.4474087221
 20
98.749848949
 30
0.0
 10
17.4507173185
 20
98.5909023986
 30
0.0
 10
17.4561192781
 20
98.4441625202
 30
0.0
 10
17.4634046848
 20
98.3150962582
 30
0.0
 10
17.4723051259
 20
98.208575356
 30
0.0
 10
17.4813761143
 20
98.1356990824
 30
0.0
 10
17.4897617536
 20
98.0918096398
 30
0.0
 10
17.4957522817
 20
98.0698118492
 30
0.0
 10
17.5012591617
 20
98.055766967
 30
0.0
 10
17.5067930673
 20
98.048920339
 30
0.0
 10
17.5095730491
 20
98.0482114379
 30
0.0
  0
SPLINE
  5
296
100
AcDbEntity
  8
0
100
AcDbSpline
 62
7
  6
BYLAYER
 70
0
 71
3
 72
11
 73
7
 74
0
 42
0.0000001
 43
0.0000001
 44
0.0000000001
 40
0.0
 40
0.0
 40
0.0
 40
0.0
 40
0.3826344816
 40
0.7070051541
 40
0.9238281165
 40
1.0
 40
1.0
 40
1.0
 40
1.0
 10
40.6694303311
 20
60.4650064339
 30
0.0
 10
40.6694303311
 20
59.9675119671
 30
0.0
 10
40.6658646423
 20
59.0482707414
 30
0.0
 10
40.6520789374
 20
57.8471987661
 30
0.0
 10
40.6390570732
 20
57.0446125558
 30
0.0
 10
40.6309352973
 20
56.6637517777
 30
0.0
 10
40.6291218263
 20
56.5647310703
 30
0.0
  0
SPLINE
  5
297
100
AcDbEntity
  8
0
100
AcDbSpline
 62
7
  6
BYLAYER
 70
0
 71
3
 72
20
 73
16
 74
0
 42
0.0000001
 43
0.0000001
 44
0.0000000001
 40
0.0
 40
0.0
 40
0.0
 40
0.0
 40
0.1926342317
 40
0.3778966903
 40
0.5485879586
 40
0.6983390124
 40
0.7635908128
 40
0.8216039755
 40
0.8718912732
 40
0.9140302463
 40
0.9477303498
 40
0.9728730443
 40
0.9822996705
 40
0.9897657931
 40
1.0
 40
1.0
 40
1.0
 40
1.0
 10
41.8465742327
 20
60.4650064339
 30
0.0
 10
41.8465742327
 20
60.2107645855
 30
0.0
 10
41.8410296852
 20
59.7119923804
 30
0.0
 10
41.8165748768
 20
58.988303062
 30
0.0
 10
41.7774806525
 20
58.3219421158
 30
0.0
 10
41.7331215059
 20
57.8147239173
 30
0.0
 10
41.6911044897
 20
57.4568260569
 30
0.0
 10
41.6590925043
 20
57.2299898564
 30
0.0
 10
41.6255802228
 20
57.0342520343
 30
0.0
 10
41.5911710771
 20
56.8713190656
 30
0.0
 10
41.5560876076
 20
56.7426402464
 30
0.0
 10
41.5251655655
 20
56.6578360817
 30
0.0
 10
41.4983841092
 20
56.6087986138
 30
0.0
 10
41.477687502
 20
56.5802583979
 30
0.0
 10
41.4558979705
 20
56.565049325
 30
0.0
 10
41.4423906949
 20
56.5650505072
 30
0.0
  0
SPLINE
  5
298
100
AcDbEntity
  8
0
100
AcDbSpline
 62
7
  6
BYLAYER
 70
0
 71
3
 72
20
 73
16
 74
0
 42
0.0000001
 43
0.0000001
 44
0.0000000001
 40
0.0
 40
0.0
 40
0.0
 40
0.0
 40
0.0072632647
 40
0.0126658755
 40
0.0196166434
 40
0.0387335902
 40
0.0656463426
 40
0.1014554845
 40
0.1478388316
 40
0.2073138524
 40
0.2840116686
 40
0.5124739027
 40
0.7589939598
 40
0.9093439484
 40
1.0
 40
1.0
 40
1.0
 40
1.0
 10
40.8321101275
 20
73.0649966152
 30
0.0
 10
40.8270967749
 20
73.0649945187
 30
0.0
 10
40.8190314447
 20
73.0589526941
 30
0.0
 10
40.8118513513
 20
73.0477421053
 30
0.0
 10
40.8025112889
 20
73.0279469388
 30
0.0
 10
40.7921859766
 20
72.9927966217
 30
0.0
 10
40.7808463134
 20
72.9374162976
 30
0.0
 10
40.7700504482
 20
72.8628570712
 30
0.0
 10
40.7597928964
 20
72.7655964049
 30
0.0
 10
40.7502625287
 20
72.63993615
 30
0.0
 10
40.7372071433
 20
72.3885719224
 30
0.0
 10
40.7302358947
 20
72.0077521338
 30
0.0
 10
40.7354372844
 20
71.5760456117
 30
0.0
 10
40.7521755874
 20
71.2399236424
 30
0.0
 10
40.7685543747
 20
71.0741981828
 30
0.0
 10
40.7782348708
 20
71.012377629
 30
0.0
  0
SPLINE
  5
299
100
AcDbEntity
  8
0
100
AcDbSpline
 62
7
  6
BYLAYER
 70
0
 71
3
 72
16
 73
12
 74
0
 42
0.0000001
 43
0.0000001
 44
0.0000000001
 40
0.0
 40
0.0
 40
0.0
 40
0.0
 40
0.0185456128
 40
0.034800951
 40
0.0565562274
 40
0.0842552989
 40
0.1183620062
 40
0.2077476217
 40
0.3302314509
 40
0.4950973673
 40
1.0
 40
1.0
 40
1.0
 40
1.0
 10
40.8321101903
 20
54.9649839598
 30
0.0
 10
40.8410699364
 20
54.9649834082
 30
0.0
 10
40.8541188298
 20
54.9490140692
 30
0.0
 10
40.8655220994
 20
54.9255689278
 30
0.0
 10
40.8767087927
 20
54.8953191078
 30
0.0
 10
40.8877795818
 20
54.8566553461
 30
0.0
 10
40.904520187
 20
54.7854486547
 30
0.0
 10
40.9249439672
 20
54.6683560452
 30
0.0
 10
40.948117275
 20
54.4877651805
 30
0.0
 10
40.9825023295
 20
54.1065079707
 30
0.0
 10
40.9935959065
 20
53.7827486486
 30
0.0
 10
40.9950951854
 20
53.5388249767
 30
0.0
  0
SPLINE
  5
29A
100
AcDbEntity
  8
0
100
AcDbSpline
 62
7
  6
BYLAYER
 70
0
 71
3
 72
15
 73
11
 74
0
 42
0.0000001
 43
0.0000001
 44
0.0000000001
 40
0.0
 40
0.0
 40
0.0
 40
0.0
 40
0.0193690418
 40
0.0761759341
 40
0.1685711237
 40
0.2929731671
 40
0.4444806498
 40
0.6173381506
 40
0.8049506635
 40
1.0
 40
1.0
 40
1.0
 40
1.0
 10
40.629121825
 20
64.3652748146
 30
0.0
 10
40.6283942586
 20
64.3904475706
 30
0.0
 10
40.633389198
 20
64.1704595169
 30
0.0
 10
40.6349111782
 20
64.0657855792
 30
0.0
 10
40.6429049054
 20
63.6469599071
 30
0.0
 10
40.649863992
 20
63.1946462253
 30
0.0
 10
40.6577159885
 20
62.6016323914
 30
0.0
 10
40.6640944529
 20
61.9391473453
 30
0.0
 10
40.6684292881
 20
61.2159063764
 30
0.0
 10
40.6694303311
 20
60.7186059562
 30
0.0
 10
40.6694303311
 20
60.4650064339
 30
0.0
  0
SPLINE
  5
29B
100
AcDbEntity
  8
0
100
AcDbSpline
 62
7
  6
BYLAYER
 70
0
 71
3
 72
20
 73
16
 74
0
 42
0.0000001
 43
0.0000001
 44
0.0000000001
 40
0.0
 40
0.0
 40
0.0
 40
0.0
 40
0.0102346933
 40
0.0177010322
 40
0.0271279962
 40
0.0522709865
 40
0.0859696662
 40
0.1281089266
 40
0.1783967018
 40
0.236410093
 40
0.3016599937
 40
0.4514085877
 40
0.6221005767
 40
0.8073644879
 40
1.0
 40
1.0
 40
1.0
 40
1.0
 10
41.4423906939
 20
64.3649636282
 30
0.0
 10
41.4558986025
 20
64.3649615993
 30
0.0
 10
41.4776864359
 20
64.3497508672
 30
0.0
 10
41.4983833711
 20
64.3212088672
 30
0.0
 10
41.5251637634
 20
64.272169725
 30
0.0
 10
41.5560855695
 20
64.1873667602
 30
0.0
 10
41.5911710954
 20
64.0586897027
 30
0.0
 10
41.6255782593
 20
63.8957572625
 30
0.0
 10
41.659089875
 20
63.7000181608
 30
0.0
 10
41.6911008741
 20
63.4731835766
 30
0.0
 10
41.7331216762
 20
63.1152919144
 30
0.0
 10
41.7774820618
 20
62.608078895
 30
0.0
 10
41.8165736672
 20
61.9417186335
 30
0.0
 10
41.8410296282
 20
61.2180252926
 30
0.0
 10
41.8465742327
 20
60.7192498029
 30
0.0
 10
41.8465742327
 20
60.4650064339
 30
0.0
  0
SPLINE
  5
29C
100
AcDbEntity
  8
0
100
AcDbSpline
 62
7
  6
BYLAYER
 70
0
 71
3
 72
16
 73
12
 74
0
 42
0.0000001
 43
0.0000001
 44
0.0000000001
 40
0.0
 40
0.0
 40
0.0
 40
0.0
 40
0.50676059
 40
0.6719167522
 40
0.7943260315
 40
0.8833592785
 40
0.9172091909
 40
0.9446090764
 40
0.9660340851
 40
0.9819519621
 40
1.0
 40
1.0
 40
1.0
 40
1.0
 10
40.7168636599
 20
53.5388251847
 30
0.0
 10
40.717596513
 20
53.782600378
 30
0.0
 10
40.7225899904
 20
54.1059066266
 30
0.0
 10
40.7420007908
 20
54.48754842
 30
0.0
 10
40.7564780159
 20
54.6681778749
 30
0.0
 10
40.7705039379
 20
54.7853522706
 30
0.0
 10
40.7831216329
 20
54.8566420745
 30
0.0
 10
40.7918356776
 20
54.8952872747
 30
0.0
 10
40.8012090598
 20
54.9255272924
 30
0.0
 10
40.8109658253
 20
54.948948236
 30
0.0
 10
40.8234282133
 20
54.9649844942
 30
0.0
 10
40.8321101903
 20
54.9649839598
 30
0.0
  0
SPLINE
  5
29D
100
AcDbEntity
  8
0
100
AcDbSpline
 62
7
  6
BYLAYER
 70
0
 71
3
 72
9
 73
5
 74
0
 42
0.0000001
 43
0.0000001
 44
0.0000000001
 40
0.0
 40
0.0
 40
0.0
 40
0.0
 40
0.1949902531
 40
1.0
 40
1.0
 40
1.0
 40
1.0
 10
40.8942927116
 20
71.0123767619
 30
0.0
 10
40.8976307576
 20
71.0283547161
 30
0.0
 10
40.9132394495
 20
71.110611587
 30
0.0
 10
40.9238834375
 20
71.1937431549
 30
0.0
 10
40.9310705871
 20
71.260747323
 30
0.0
  0
SPLINE
  5
29E
100
AcDbEntity
  8
0
100
AcDbSpline
 62
7
  6
BYLAYER
 70
0
 71
3
 72
18
 73
14
 74
0
 42
0.0000001
 43
0.0000001
 44
0.0000000001
 40
0.0
 40
0.0
 40
0.0
 40
0.0
 40
0.1567476817
 40
0.3953104032
 40
0.628696829
 40
0.780728004
 40
0.8800532261
 40
0.9159583517
 40
0.9444698082
 40
0.9663838327
 40
0.9823601186
 40
0.9931163345
 40
1.0
 40
1.0
 40
1.0
 40
1.0
 10
40.9310705871
 20
71.260747323
 30
0.0
 10
40.9412492149
 20
71.3556403646
 30
0.0
 10
40.959311944
 20
71.5957735823
 30
0.0
 10
40.9684663734
 20
71.9786292961
 30
0.0
 10
40.9580455786
 20
72.3586062892
 30
0.0
 10
40.9347965541
 20
72.6529281171
 30
0.0
 10
40.9120164382
 20
72.8264667005
 30
0.0
 10
40.8933268055
 20
72.9244240615
 30
0.0
 10
40.8810308228
 20
72.9755523317
 30
0.0
 10
40.8691650838
 20
73.0142423316
 30
0.0
 10
40.8573092984
 20
73.0415042676
 30
0.0
 10
40.8464625442
 20
73.0589076463
 30
0.0
 10
40.8363013152
 20
73.0649983678
 30
0.0
 10
40.8321101275
 20
73.0649966152
 30
0.0
  0
SPLINE
  5
29F
100
AcDbEntity
  8
0
100
AcDbSpline
 62
7
  6
BYLAYER
 70
0
 71
3
 72
22
 73
18
 74
0
 42
0.0000001
 43
0.0000001
 44
0.0000000001
 40
0.0
 40
0.0
 40
0.0
 40
0.0
 40
0.192954455
 40
0.3785301727
 40
0.5494884596
 40
0.6993910796
 40
0.7646484698
 40
0.8226090772
 40
0.8727808499
 40
0.9147413552
 40
0.9482060556
 40
0.9617178237
 40
0.9730876774
 40
0.9823713974
 40
0.9897025058
 40
0.9953691642
 40
1.0
 40
1.0
 40
1.0
 40
1.0
 10
41.1198760753
 20
60.4650064339
 30
0.0
 10
41.1198760753
 20
60.7190435304
 30
0.0
 10
41.1233650867
 20
61.2174101873
 30
0.0
 10
41.1390255427
 20
61.9407085624
 30
0.0
 10
41.1649675407
 20
62.6069945985
 30
0.0
 10
41.1958881216
 20
63.1144757246
 30
0.0
 10
41.2268127231
 20
63.4727453713
 30
0.0
 10
41.2512189139
 20
63.6997346141
 30
0.0
 10
41.2776730924
 20
63.8956029258
 30
0.0
 10
41.30602188
 20
64.0585470085
 30
0.0
 10
41.332399403
 20
64.1727623974
 30
0.0
 10
41.3552647811
 20
64.2461404547
 30
0.0
 10
41.371513873
 20
64.2881293509
 30
0.0
 10
41.3880625665
 20
64.3211472027
 30
0.0
 10
41.40499468
 20
64.345270691
 30
0.0
 10
41.4226736083
 20
64.3608950103
 30
0.0
 10
41.4362938972
 20
64.364964544
 30
0.0
 10
41.4423906939
 20
64.3649636282
 30
0.0
  0
SPLINE
  5
2A0
100
AcDbEntity
  8
0
100
AcDbSpline
 62
7
  6
BYLAYER
 70
0
 71
3
 72
22
 73
18
 74
0
 42
0.0000001
 43
0.0000001
 44
0.0000000001
 40
0.0
 40
0.0
 40
0.0
 40
0.0
 40
0.0046309549
 40
0.0102975791
 40
0.0176284863
 40
0.026912199
 40
0.0382825534
 40
0.0517946475
 40
0.0852597288
 40
0.127221462
 40
0.1773936408
 40
0.2353540535
 40
0.3006098286
 40
0.450510437
 40
0.6214686371
 40
0.8070447082
 40
1.0
 40
1.0
 40
1.0
 40
1.0
 10
41.4423906949
 20
56.5650505072
 30
0.0
 10
41.4362937463
 20
56.5650510408
 30
0.0
 10
41.4226742763
 20
56.569121815
 30
0.0
 10
41.4049949168
 20
56.5847452104
 30
0.0
 10
41.3880623769
 20
56.6088680898
 30
0.0
 10
41.3715135317
 20
56.6418862942
 30
0.0
 10
41.3552653756
 20
56.6838766823
 30
0.0
 10
41.3323997757
 20
56.7572562253
 30
0.0
 10
41.3060215544
 20
56.8714740101
 30
0.0
 10
41.2776742158
 20
57.0344209052
 30
0.0
 10
41.2512197653
 20
57.2302909109
 30
0.0
 10
41.2268139741
 20
57.457278155
 30
0.0
 10
41.195887434
 20
57.8155422845
 30
0.0
 10
41.1649665369
 20
58.3230181272
 30
0.0
 10
41.1390261108
 20
58.9893013808
 30
0.0
 10
41.1233649713
 20
59.7126006097
 30
0.0
 10
41.1198760753
 20
60.210968439
 30
0.0
 10
41.1198760753
 20
60.4650064339
 30
0.0
  0
SPLINE
  5
2A1
100
AcDbEntity
  8
0
100
AcDbSpline
 62
7
  6
BYLAYER
 70
0
 71
3
 72
20
 73
16
 74
0
 42
0.0000001
 43
0.0000001
 44
0.0000000001
 40
0.0
 40
0.0
 40
0.0
 40
0.0
 40
0.1926312829
 40
0.3778787821
 40
0.5485712319
 40
0.6983223713
 40
0.7635740227
 40
0.821591509
 40
0.8718855916
 40
0.9140262144
 40
0.9477257293
 40
0.9728681262
 40
0.9822960415
 40
0.9897638968
 40
1.0
 40
1.0
 40
1.0
 40
1.0
 10
41.8465742327
 20
158.2650064339
 30
0.0
 10
41.8465742327
 20
158.5192469244
 30
0.0
 10
41.8410338924
 20
159.0180005401
 30
0.0
 10
41.8165729667
 20
159.7416748071
 30
0.0
 10
41.7774831592
 20
160.4080244443
 30
0.0
 10
41.7331318618
 20
160.9152499323
 30
0.0
 10
41.6911142931
 20
161.2731570677
 30
0.0
 10
41.6590967467
 20
161.5000093717
 30
0.0
 10
41.6255822744
 20
161.6957659345
 30
0.0
 10
41.5911723392
 20
161.8587108577
 30
0.0
 10
41.5560934716
 20
161.9873935624
 30
0.0
 10
41.5251720574
 20
162.0721991089
 30
0.0
 10
41.498391232
 20
162.1212420059
 30
0.0
 10
41.4776946489
 20
162.1497892784
 30
0.0
 10
41.4559026365
 20
162.1650083163
 30
0.0
 10
41.4423927235
 20
162.1650063415
 30
0.0
  0
SPLINE
  5
2A2
100
AcDbEntity
  8
0
100
AcDbSpline
 62
7
  6
BYLAYER
 70
0
 71
3
 72
16
 73
12
 74
0
 42
0.0000001
 43
0.0000001
 44
0.0000000001
 40
0.0
 40
0.0
 40
0.0
 40
0.0
 40
0.0185454385
 40
0.0348004754
 40
0.0565567744
 40
0.0842557736
 40
0.1183621687
 40
0.2077479229
 40
0.3302316777
 40
0.495097433
 40
1.0
 40
1.0
 40
1.0
 40
1.0
 10
40.8321101995
 20
163.7650295193
 30
0.0
 10
40.8410698583
 20
163.765030031
 30
0.0
 10
40.8541189558
 20
163.7809986043
 30
0.0
 10
40.8655227748
 20
163.8044439059
 30
0.0
 10
40.8767084792
 20
163.8346944121
 30
0.0
 10
40.8877797883
 20
163.8733583004
 30
0.0
 10
40.9045203429
 20
163.9445648791
 30
0.0
 10
40.9249440124
 20
164.0616573276
 30
0.0
 10
40.9481173137
 20
164.2422480869
 30
0.0
 10
40.9825023231
 20
164.6235050154
 30
0.0
 10
40.9935959013
 20
164.9472641141
 30
0.0
 10
40.9950951841
 20
165.191187668
 30
0.0
  0
SPLINE
  5
2A3
100
AcDbEntity
  8
0
100
AcDbSpline
 62
7
  6
BYLAYER
 70
0
 71
3
 72
20
 73
16
 74
0
 42
0.0000001
 43
0.0000001
 44
0.0000000001
 40
0.0
 40
0.0
 40
0.0
 40
0.0
 40
0.007262954
 40
0.0126658165
 40
0.0196170057
 40
0.0387332262
 40
0.0656461678
 40
0.1014547518
 40
0.1478381353
 40
0.207312228
 40
0.2840096393
 40
0.5124707719
 40
0.7589940795
 40
0.9093440817
 40
1.0
 40
1.0
 40
1.0
 40
1.0
 10
40.8321101315
 20
145.6650167581
 30
0.0
 10
40.8270969937
 20
145.6650186061
 30
0.0
 10
40.8190308852
 20
145.6710593498
 30
0.0
 10
40.8118514609
 20
145.6822708684
 30
0.0
 10
40.8025120009
 20
145.7020661312
 30
0.0
 10
40.792185504
 20
145.7372160212
 30
0.0
 10
40.7808468388
 20
145.7925958201
 30
0.0
 10
40.7700503798
 20
145.8671546794
 30
0.0
 10
40.7597932635
 20
145.9644144003
 30
0.0
 10
40.7502625454
 20
146.0900737047
 30
0.0
 10
40.7372075718
 20
146.3414362582
 30
0.0
 10
40.7302357706
 20
146.7222571834
 30
0.0
 10
40.7354372195
 20
147.1539651673
 30
0.0
 10
40.7521755836
 20
147.4900892625
 30
0.0
 10
40.7685544038
 20
147.655814619
 30
0.0
 10
40.7782348895
 20
147.7176350749
 30
0.0
  0
SPLINE
  5
2A4
100
AcDbEntity
  8
0
100
AcDbSpline
 62
7
  6
BYLAYER
 70
0
 71
3
 72
25
 73
21
 74
0
 42
0.0000001
 43
0.0000001
 44
0.0000000001
 40
0.0
 40
0.0
 40
0.0
 40
0.0
 40
0.0012074503
 40
0.0027143717
 40
0.0048212791
 40
0.0108286185
 40
0.0192166005
 40
0.0299718375
 40
0.0430685096
 40
0.0584681049
 40
0.0761315399
 40
0.1180905849
 40
0.1685449613
 40
0.2269990626
 40
0.2929066307
 40
0.3656181144
 40
0.4444518234
 40
0.6173294258
 40
0.8049466503
 40
1.0
 40
1.0
 40
1.0
 40
1.0
 10
40.6291190412
 20
154.3650064338
 30
0.0
 10
40.6286524971
 20
154.3635075683
 30
0.0
 10
40.6295147835
 20
154.3718734488
 30
0.0
 10
40.6292389189
 20
154.3756412331
 30
0.0
 10
40.629730799
 20
154.3895686582
 30
0.0
 10
40.6300011838
 20
154.4099631443
 30
0.0
 10
40.6307502325
 20
154.4431620053
 30
0.0
 10
40.6315624451
 20
154.4848711498
 30
0.0
 10
40.6325880865
 20
154.5359625626
 30
0.0
 10
40.6337575781
 20
154.5959388836
 30
0.0
 10
40.6356323191
 20
154.6934667141
 30
0.0
 10
40.6382991325
 20
154.8365457445
 30
0.0
 10
40.6417796493
 20
155.0326590631
 30
0.0
 10
40.6455516373
 20
155.2599039458
 30
0.0
 10
40.6494708888
 20
155.5160875639
 30
0.0
 10
40.6533891589
 20
155.7987690586
 30
0.0
 10
40.6585710439
 20
156.2205169173
 30
0.0
 10
40.6641115825
 20
156.7916589176
 30
0.0
 10
40.6684250645
 20
157.5139115267
 30
0.0
 10
40.6694303311
 20
158.0114191141
 30
0.0
 10
40.6694303311
 20
158.2650064339
 30
0.0
  0
SPLINE
  5
2A5
100
AcDbEntity
  8
0
100
AcDbSpline
 62
7
  6
BYLAYER
 70
0
 71
3
 72
20
 73
16
 74
0
 42
0.0000001
 43
0.0000001
 44
0.0000000001
 40
0.0
 40
0.0
 40
0.0
 40
0.0
 40
0.0102361546
 40
0.017703353
 40
0.0271308612
 40
0.0522729931
 40
0.0859698727
 40
0.1281097868
 40
0.1784012985
 40
0.2364177991
 40
0.3016690806
 40
0.4514221645
 40
0.6221172149
 40
0.807369494
 40
1.0
 40
1.0
 40
1.0
 40
1.0
 10
41.4423912068
 20
154.3650064922
 30
0.0
 10
41.4559011927
 20
154.3650080592
 30
0.0
 10
41.4776919454
 20
154.3802221105
 30
0.0
 10
41.4983909066
 20
154.4087674425
 30
0.0
 10
41.5251714549
 20
154.4578081446
 30
0.0
 10
41.5560904628
 20
154.5426102464
 30
0.0
 10
41.5911705267
 20
154.6712875628
 30
0.0
 10
41.625576172
 20
154.8342255971
 30
0.0
 10
41.6590914704
 20
155.0299763022
 30
0.0
 10
41.6911073857
 20
155.2568237174
 30
0.0
 10
41.733129812
 20
155.6147311575
 30
0.0
 10
41.7774835768
 20
156.1219622619
 30
0.0
 10
41.8165710152
 20
156.788324599
 30
0.0
 10
41.8410332301
 20
157.5120077871
 30
0.0
 10
41.8465742327
 20
158.0107668746
 30
0.0
 10
41.8465742327
 20
158.2650064339
 30
0.0
  0
SPLINE
  5
2A6
100
AcDbEntity
  8
0
100
AcDbSpline
 62
7
  6
BYLAYER
 70
0
 71
3
 72
22
 73
18
 74
0
 42
0.0000001
 43
0.0000001
 44
0.0000000001
 40
0.0
 40
0.0
 40
0.0
 40
0.0
 40
0.1950611379
 40
0.3826740313
 40
0.5555387708
 40
0.707077154
 40
0.7729850178
 40
0.8314409643
 40
0.8818997478
 40
0.923861925
 40
0.956928622
 40
0.9700268319
 40
0.9807830356
 40
0.9891714422
 40
0.9951788569
 40
0.9987926022
 40
1.0
 40
1.0
 40
1.0
 40
1.0
 10
40.6694303311
 20
158.2650064339
 30
0.0
 10
40.6694303311
 20
158.5186038671
 30
0.0
 10
40.6684246595
 20
159.0161159878
 30
0.0
 10
40.6641118017
 20
159.73835607
 30
0.0
 10
40.657654549
 20
160.4039950933
 30
0.0
 10
40.6510393885
 20
160.9113904709
 30
0.0
 10
40.6455533824
 20
161.2700513343
 30
0.0
 10
40.6417799959
 20
161.4972945918
 30
0.0
 10
40.6383009834
 20
161.693450561
 30
0.0
 10
40.6352543948
 20
161.8564744567
 30
0.0
 10
40.6330509837
 20
161.9712434221
 30
0.0
 10
40.6315593261
 20
162.0448967445
 30
0.0
 10
40.6307594609
 20
162.087514227
 30
0.0
 10
40.6299777358
 20
162.1183743821
 30
0.0
 10
40.6297568739
 20
162.1459442741
 30
0.0
 10
40.6290028645
 20
162.1527005265
 30
0.0
 10
40.6293487199
 20
162.1665592591
 30
0.0
 10
40.6291189704
 20
162.1650064353
 30
0.0
  0
SPLINE
  5
2A7
100
AcDbEntity
  8
0
100
AcDbSpline
 62
7
  6
BYLAYER
 70
0
 71
3
 72
22
 73
18
 74
0
 42
0.0000001
 43
0.0000001
 44
0.0000000001
 40
0.0
 40
0.0
 40
0.0
 40
0.0
 40
0.1929506452
 40
0.3785107254
 40
0.5494703117
 40
0.6993736659
 40
0.7646311039
 40
0.822595962
 40
0.8727746258
 40
0.9147370466
 40
0.9482015262
 40
0.9617129992
 40
0.9730829213
 40
0.9823677731
 40
0.9897004533
 40
0.9953684335
 40
1.0
 40
1.0
 40
1.0
 40
1.0
 10
41.1198760753
 20
158.2650064339
 30
0.0
 10
41.1198760753
 20
158.0109718221
 30
0.0
 10
41.123363801
 20
157.512625799
 30
0.0
 10
41.1390233093
 20
156.7893440858
 30
0.0
 10
41.1649645195
 20
156.1230693067
 30
0.0
 10
41.1958829587
 20
155.6155802447
 30
0.0
 10
41.2268075985
 20
155.2573003252
 30
0.0
 10
41.2512165349
 20
155.0302943054
 30
0.0
 10
41.2776695639
 20
154.8344064978
 30
0.0
 10
41.3060194965
 20
154.6714494725
 30
0.0
 10
41.3323951009
 20
154.5572305814
 30
0.0
 10
41.3552595144
 20
154.4838519896
 30
0.0
 10
41.3715095502
 20
154.4418617259
 30
0.0
 10
41.3880585047
 20
154.4088395816
 30
0.0
 10
41.4049911934
 20
154.384709827
 30
0.0
 10
41.4226705994
 20
154.3690786496
 30
0.0
 10
41.4362933874
 20
154.365005785
 30
0.0
 10
41.4423912068
 20
154.3650064922
 30
0.0
  0
SPLINE
  5
2A8
100
AcDbEntity
  8
0
100
AcDbSpline
 62
7
  6
BYLAYER
 70
0
 71
3
 72
9
 73
5
 74
0
 42
0.0000001
 43
0.0000001
 44
0.0000000001
 40
0.0
 40
0.0
 40
0.0
 40
0.0
 40
0.1945159305
 40
1.0
 40
1.0
 40
1.0
 40
1.0
 10
40.8942927183
 20
147.7176360753
 30
0.0
 10
40.8976649058
 20
147.701494678
 30
0.0
 10
40.9134563669
 20
147.6181905865
 30
0.0
 10
40.924177601
 20
147.5339949505
 30
0.0
 10
40.9314094304
 20
147.4660949073
 30
0.0
  0
SPLINE
  5
2A9
100
AcDbEntity
  8
0
100
AcDbSpline
 62
7
  6
BYLAYER
 70
0
 71
3
 72
18
 73
14
 74
0
 42
0.0000001
 43
0.0000001
 44
0.0000000001
 40
0.0
 40
0.0
 40
0.0
 40
0.0
 40
0.15765966
 40
0.3970465537
 40
0.629689467
 40
0.7811887902
 40
0.8802602345
 40
0.9160895176
 40
0.9445466749
 40
0.9664225117
 40
0.9823752468
 40
0.9931184483
 40
1.0
 40
1.0
 40
1.0
 40
1.0
 10
40.9314094304
 20
147.4660949073
 30
0.0
 10
40.9415580826
 20
147.3708086558
 30
0.0
 10
40.9595159951
 20
147.130030736
 30
0.0
 10
40.9684474264
 20
146.747234048
 30
0.0
 10
40.9578594557
 20
146.3682008999
 30
0.0
 10
40.9346029836
 20
146.0753293465
 30
0.0
 10
40.9118667775
 20
145.9026213818
 30
0.0
 10
40.8932141691
 20
145.8050716771
 30
0.0
 10
40.8809418073
 20
145.7541373178
 30
0.0
 10
40.8690961294
 20
145.7155886482
 30
0.0
 10
40.8572646888
 20
145.6884228094
 30
0.0
 10
40.8464311418
 20
145.6710787939
 30
0.0
 10
40.8362927225
 20
145.6650152163
 30
0.0
 10
40.8321101315
 20
145.6650167581
 30
0.0
  0
SPLINE
  5
2AA
100
AcDbEntity
  8
0
100
AcDbSpline
 62
7
  6
BYLAYER
 70
0
 71
3
 72
22
 73
18
 74
0
 42
0.0000001
 43
0.0000001
 44
0.0000000001
 40
0.0
 40
0.0
 40
0.0
 40
0.0
 40
0.0046316288
 40
0.0102993948
 40
0.0176315569
 40
0.0269161279
 40
0.0382864374
 40
0.0517974847
 40
0.0852597449
 40
0.1272217108
 40
0.1773980619
 40
0.2353620103
 40
0.3006189556
 40
0.4505236835
 40
0.6214851597
 40
0.8070497508
 40
1.0
 40
1.0
 40
1.0
 40
1.0
 10
41.4423927235
 20
162.1650063415
 30
0.0
 10
41.4362948216
 20
162.1650054501
 30
0.0
 10
41.4226732553
 20
162.1609317906
 30
0.0
 10
41.4049927144
 20
162.1453034771
 30
0.0
 10
41.3880588512
 20
162.1211759637
 30
0.0
 10
41.3715093064
 20
162.0881546472
 30
0.0
 10
41.355261155
 20
162.0461640787
 30
0.0
 10
41.3323965743
 20
161.972788739
 30
0.0
 10
41.3060199052
 20
161.8585741737
 30
0.0
 10
41.2776737785
 20
161.69562314
 30
0.0
 10
41.2512186927
 20
161.4997405224
 30
0.0
 10
41.2268110759
 20
161.272739227
 30
0.0
 10
41.195884958
 20
160.9144594717
 30
0.0
 10
41.1649651194
 20
160.4069667685
 30
0.0
 10
41.1390235581
 20
159.7406817049
 30
0.0
 10
41.1233644667
 20
159.0173920192
 30
0.0
 10
41.1198760753
 20
158.5190405446
 30
0.0
 10
41.1198760753
 20
158.2650064339
 30
0.0
  0
SPLINE
  5
2AB
100
AcDbEntity
  8
0
100
AcDbSpline
 62
7
  6
BYLAYER
 70
0
 71
3
 72
16
 73
12
 74
0
 42
0.0000001
 43
0.0000001
 44
0.0000000001
 40
0.0
 40
0.0
 40
0.0
 40
0.0
 40
0.5067605244
 40
0.6719164207
 40
0.7943257233
 40
0.8833590819
 40
0.9172086473
 40
0.944608447
 40
0.9660346157
 40
0.9819521663
 40
1.0
 40
1.0
 40
1.0
 40
1.0
 10
40.7168636591
 20
165.1911879549
 30
0.0
 10
40.7175965094
 20
164.9474127948
 30
0.0
 10
40.7225899768
 20
164.6241067063
 30
0.0
 10
40.742000763
 20
164.2424650664
 30
0.0
 10
40.7564779619
 20
164.0618356692
 30
0.0
 10
40.7705038103
 20
163.9446613801
 30
0.0
 10
40.7831214422
 20
163.873371706
 30
0.0
 10
40.7918359666
 20
163.8347262735
 30
0.0
 10
40.8012084627
 20
163.8044856291
 30
0.0
 10
40.8109656874
 20
163.7810643544
 30
0.0
 10
40.8234283208
 20
163.7650290234
 30
0.0
 10
40.8321101995
 20
163.7650295193
 30
0.0
  0
SPLINE
  5
2AC
100
AcDbEntity
  8
0
100
AcDbSpline
 62
7
  6
BYLAYER
 70
0
 71
3
 72
20
 73
16
 74
0
 42
0.0000001
 43
0.0000001
 44
0.0000000001
 40
0.0
 40
0.0
 40
0.0
 40
0.0
 40
0.1930141286
 40
0.3786349672
 40
0.5496704362
 40
0.6996963996
 40
0.7650426889
 40
0.8231168553
 40
0.8734200726
 40
0.915511032
 40
0.9490844631
 40
0.9739940373
 40
0.9832450635
 40
0.9904776902
 40
1.0
 40
1.0
 40
1.0
 40
1.0
 10
26.103396323
 20
128.6650064339
 30
0.0
 10
26.103396323
 20
128.8767725419
 30
0.0
 10
26.099281989
 20
129.2922052622
 30
0.0
 10
26.0810626349
 20
129.8950474396
 30
0.0
 10
26.0519402721
 20
130.4502386081
 30
0.0
 10
26.0188193927
 20
130.8729653753
 30
0.0
 10
25.9873740545
 20
131.1713428814
 30
0.0
 10
25.9634079928
 20
131.3604489571
 30
0.0
 10
25.9382912836
 20
131.5236404562
 30
0.0
 10
25.9124799534
 20
131.6594495176
 30
0.0
 10
25.8860900664
 20
131.7666903052
 30
0.0
 10
25.862882339
 20
131.8373444584
 30
0.0
 10
25.8425942324
 20
131.8783965104
 30
0.0
 10
25.8273165576
 20
131.9017882575
 30
0.0
 10
25.8106700555
 20
131.9150082007
 30
0.0
 10
25.800222621
 20
131.915006338
 30
0.0
  0
SPLINE
  5
2AD
100
AcDbEntity
  8
0
100
AcDbSpline
 62
7
  6
BYLAYER
 70
0
 71
3
 72
23
 73
19
 74
0
 42
0.0000001
 43
0.0000001
 44
0.0000000001
 40
0.0
 40
0.0
 40
0.0
 40
0.0
 40
0.0018448231
 40
0.0057254128
 40
0.011895666
 40
0.0203959399
 40
0.0312314838
 40
0.0443853117
 40
0.0775115116
 40
0.119483997
 40
0.1699116432
 40
0.2283032647
 40
0.2941181906
 40
0.3667136062
 40
0.4454134911
 40
0.6179852253
 40
0.8052758962
 40
1.0
 40
1.0
 40
1.0
 40
1.0
 10
25.2035684795
 20
125.4150064798
 30
0.0
 10
25.2055712005
 20
125.4150072423
 30
0.0
 10
25.2099492572
 20
125.4212000452
 30
0.0
 10
25.213543952
 20
125.4327273331
 30
0.0
 10
25.218397261
 20
125.4527451589
 30
0.0
 10
25.2229809751
 20
125.4798734481
 30
0.0
 10
25.2278954943
 20
125.5148736019
 30
0.0
 10
25.2350387594
 20
125.5764361498
 30
0.0
 10
25.2437820653
 20
125.6718743415
 30
0.0
 10
25.2537757874
 20
125.8077719057
 30
0.0
 10
25.2637137459
 20
125.971174845
 30
0.0
 10
25.2734151407
 20
126.1605086026
 30
0.0
 10
25.282689789
 20
126.3739555866
 30
0.0
 10
25.2913697624
 20
126.6094897707
 30
0.0
 10
25.3022427509
 20
126.9609100522
 30
0.0
 10
25.313074957
 20
127.4368945683
 30
0.0
 10
25.3211057941
 20
128.0389020253
 30
0.0
 10
25.3229319411
 20
128.453615931
 30
0.0
 10
25.3229319411
 20
128.6650064339
 30
0.0
  0
SPLINE
  5
2AE
100
AcDbEntity
  8
0
100
AcDbSpline
 62
7
  6
BYLAYER
 70
0
 71
3
 72
20
 73
16
 74
0
 42
0.0000001
 43
0.0000001
 44
0.0000000001
 40
0.0
 40
0.0
 40
0.0
 40
0.0
 40
0.0095222267
 40
0.0167540279
 40
0.0260046083
 40
0.0509141602
 40
0.0844849793
 40
0.1265754016
 40
0.1768759489
 40
0.2349492522
 40
0.3002953459
 40
0.450323647
 40
0.6213617401
 40
0.8069873091
 40
1.0
 40
1.0
 40
1.0
 40
1.0
 10
25.8002205755
 20
86.8150064947
 30
0.0
 10
25.8106679235
 20
86.8150080002
 30
0.0
 10
25.8273131069
 20
86.8282229268
 30
0.0
 10
25.8425925786
 20
86.851613203
 30
0.0
 10
25.8628803946
 20
86.8926633741
 30
0.0
 10
25.8860875036
 20
86.9633144729
 30
0.0
 10
25.9124806141
 20
87.0705507918
 30
0.0
 10
25.9382892039
 20
87.2063540643
 30
0.0
 10
25.9634072228
 20
87.369540851
 30
0.0
 10
25.9873717332
 20
87.5586431272
 30
0.0
 10
26.0188169588
 20
87.8570221711
 30
0.0
 10
26.0519369138
 20
88.2797544424
 30
0.0
 10
26.0810629294
 20
88.8349563083
 30
0.0
 10
26.0992808069
 20
89.4378053145
 30
0.0
 10
26.103396323
 20
89.8532418086
 30
0.0
 10
26.103396323
 20
90.0650064339
 30
0.0
  0
SPLINE
  5
2AF
100
AcDbEntity
  8
0
100
AcDbSpline
 62
7
  6
BYLAYER
 70
0
 71
3
 72
23
 73
19
 74
0
 42
0.0000001
 43
0.0000001
 44
0.0000000001
 40
0.0
 40
0.0
 40
0.0
 40
0.0
 40
0.0018448231
 40
0.0057254128
 40
0.011895666
 40
0.0203959399
 40
0.0312314838
 40
0.0443853117
 40
0.0775115116
 40
0.119483997
 40
0.1699116432
 40
0.2283032647
 40
0.2941181906
 40
0.3667136062
 40
0.4454134911
 40
0.6179852253
 40
0.8052758962
 40
1.0
 40
1.0
 40
1.0
 40
1.0
 10
25.2035684795
 20
86.8150064798
 30
0.0
 10
25.2055712005
 20
86.8150072423
 30
0.0
 10
25.2099492572
 20
86.8212000452
 30
0.0
 10
25.213543952
 20
86.8327273331
 30
0.0
 10
25.218397261
 20
86.8527451589
 30
0.0
 10
25.2229809751
 20
86.8798734481
 30
0.0
 10
25.2278954943
 20
86.9148736019
 30
0.0
 10
25.2350387594
 20
86.9764361498
 30
0.0
 10
25.2437820653
 20
87.0718743415
 30
0.0
 10
25.2537757874
 20
87.2077719057
 30
0.0
 10
25.2637137459
 20
87.371174845
 30
0.0
 10
25.2734151407
 20
87.5605086026
 30
0.0
 10
25.282689789
 20
87.7739555866
 30
0.0
 10
25.2913697624
 20
88.0094897707
 30
0.0
 10
25.3022427509
 20
88.3609100522
 30
0.0
 10
25.313074957
 20
88.8368945683
 30
0.0
 10
25.3211057941
 20
89.4389020253
 30
0.0
 10
25.3229319411
 20
89.853615931
 30
0.0
 10
25.3229319411
 20
90.0650064339
 30
0.0
  0
SPLINE
  5
2B0
100
AcDbEntity
  8
0
100
AcDbSpline
 62
7
  6
BYLAYER
 70
0
 71
3
 72
20
 73
16
 74
0
 42
0.0000001
 43
0.0000001
 44
0.0000000001
 40
0.0
 40
0.0
 40
0.0
 40
0.0
 40
0.0095222267
 40
0.0167540279
 40
0.0260046083
 40
0.0509141602
 40
0.0844849793
 40
0.1265754016
 40
0.1768759489
 40
0.2349492522
 40
0.3002953459
 40
0.450323647
 40
0.6213617401
 40
0.8069873091
 40
1.0
 40
1.0
 40
1.0
 40
1.0
 10
25.8002205755
 20
125.4150064947
 30
0.0
 10
25.8106679235
 20
125.4150080002
 30
0.0
 10
25.8273131069
 20
125.4282229268
 30
0.0
 10
25.8425925786
 20
125.451613203
 30
0.0
 10
25.8628803946
 20
125.4926633741
 30
0.0
 10
25.8860875036
 20
125.5633144729
 30
0.0
 10
25.9124806141
 20
125.6705507918
 30
0.0
 10
25.9382892039
 20
125.8063540643
 30
0.0
 10
25.9634072228
 20
125.969540851
 30
0.0
 10
25.9873717332
 20
126.1586431272
 30
0.0
 10
26.0188169588
 20
126.4570221711
 30
0.0
 10
26.0519369138
 20
126.8797544424
 30
0.0
 10
26.0810629294
 20
127.4349563083
 30
0.0
 10
26.0992808069
 20
128.0378053145
 30
0.0
 10
26.103396323
 20
128.4532418086
 30
0.0
 10
26.103396323
 20
128.6650064339
 30
0.0
  0
SPLINE
  5
2B1
100
AcDbEntity
  8
0
100
AcDbSpline
 62
7
  6
BYLAYER
 70
0
 71
3
 72
23
 73
19
 74
0
 42
0.0000001
 43
0.0000001
 44
0.0000000001
 40
0.0
 40
0.0
 40
0.0
 40
0.0
 40
0.1947245758
 40
0.3820104097
 40
0.5545798913
 40
0.6332782602
 40
0.705873413
 40
0.7716887302
 40
0.8300812507
 40
0.8805114427
 40
0.9224845471
 40
0.9556131509
 40
0.9687675065
 40
0.9796026896
 40
0.9881033717
 40
0.9942744164
 40
0.9981554984
 40
1.0
 40
1.0
 40
1.0
 40
1.0
 10
25.3229319411
 20
128.6650064339
 30
0.0
 10
25.3229319411
 20
128.8763974587
 30
0.0
 10
25.3211063293
 20
129.2911066481
 30
0.0
 10
25.3130750126
 20
129.8931069396
 30
0.0
 10
25.3022439906
 20
130.3690821571
 30
0.0
 10
25.2913712696
 20
130.7204980864
 30
0.0
 10
25.2826908299
 20
130.9560307565
 30
0.0
 10
25.2734158572
 20
131.1694788539
 30
0.0
 10
25.2637137534
 20
131.3588167495
 30
0.0
 10
25.2537760994
 20
131.5222241391
 30
0.0
 10
25.2437821049
 20
131.6581277362
 30
0.0
 10
25.2350391876
 20
131.7535698666
 30
0.0
 10
25.2278962684
 20
131.815135217
 30
0.0
 10
25.2229813968
 20
131.8501360696
 30
0.0
 10
25.2183979492
 20
131.8772650026
 30
0.0
 10
25.2135438756
 20
131.8972853633
 30
0.0
 10
25.2099508512
 20
131.9088125756
 30
0.0
 10
25.2055714041
 20
131.9150072102
 30
0.0
 10
25.203569032
 20
131.9150063786
 30
0.0
  0
SPLINE
  5
2B2
100
AcDbEntity
  8
0
100
AcDbSpline
 62
7
  6
BYLAYER
 70
0
 71
3
 72
20
 73
16
 74
0
 42
0.0000001
 43
0.0000001
 44
0.0000000001
 40
0.0
 40
0.0
 40
0.0
 40
0.0
 40
0.1930141286
 40
0.3786349672
 40
0.5496704362
 40
0.6996963996
 40
0.7650426889
 40
0.8231168553
 40
0.8734200726
 40
0.915511032
 40
0.9490844631
 40
0.9739940373
 40
0.9832450635
 40
0.9904776902
 40
1.0
 40
1.0
 40
1.0
 40
1.0
 10
26.103396323
 20
90.0650064339
 30
0.0
 10
26.103396323
 20
90.2767725419
 30
0.0
 10
26.099281989
 20
90.6922052622
 30
0.0
 10
26.0810626349
 20
91.2950474396
 30
0.0
 10
26.0519402721
 20
91.8502386081
 30
0.0
 10
26.0188193927
 20
92.2729653753
 30
0.0
 10
25.9873740545
 20
92.5713428814
 30
0.0
 10
25.9634079928
 20
92.7604489571
 30
0.0
 10
25.9382912836
 20
92.9236404562
 30
0.0
 10
25.9124799534
 20
93.0594495176
 30
0.0
 10
25.8860900664
 20
93.1666903052
 30
0.0
 10
25.862882339
 20
93.2373444584
 30
0.0
 10
25.8425942324
 20
93.2783965104
 30
0.0
 10
25.8273165576
 20
93.3017882575
 30
0.0
 10
25.8106700555
 20
93.3150082007
 30
0.0
 10
25.800222621
 20
93.315006338
 30
0.0
  0
SPLINE
  5
2B3
100
AcDbEntity
  8
0
100
AcDbSpline
 62
7
  6
BYLAYER
 70
0
 71
3
 72
23
 73
19
 74
0
 42
0.0000001
 43
0.0000001
 44
0.0000000001
 40
0.0
 40
0.0
 40
0.0
 40
0.0
 40
0.1947245758
 40
0.3820104097
 40
0.5545798913
 40
0.6332782602
 40
0.705873413
 40
0.7716887302
 40
0.8300812507
 40
0.8805114427
 40
0.9224845471
 40
0.9556131509
 40
0.9687675065
 40
0.9796026896
 40
0.9881033717
 40
0.9942744164
 40
0.9981554984
 40
1.0
 40
1.0
 40
1.0
 40
1.0
 10
25.3229319411
 20
90.0650064339
 30
0.0
 10
25.3229319411
 20
90.2763974587
 30
0.0
 10
25.3211063293
 20
90.6911066481
 30
0.0
 10
25.3130750126
 20
91.2931069396
 30
0.0
 10
25.3022439906
 20
91.7690821571
 30
0.0
 10
25.2913712696
 20
92.1204980864
 30
0.0
 10
25.2826908299
 20
92.3560307565
 30
0.0
 10
25.2734158572
 20
92.5694788539
 30
0.0
 10
25.2637137534
 20
92.7588167495
 30
0.0
 10
25.2537760994
 20
92.9222241391
 30
0.0
 10
25.2437821049
 20
93.0581277362
 30
0.0
 10
25.2350391876
 20
93.1535698666
 30
0.0
 10
25.2278962684
 20
93.215135217
 30
0.0
 10
25.2229813968
 20
93.2501360696
 30
0.0
 10
25.2183979492
 20
93.2772650026
 30
0.0
 10
25.2135438756
 20
93.2972853633
 30
0.0
 10
25.2099508512
 20
93.3088125756
 30
0.0
 10
25.2055714041
 20
93.3150072102
 30
0.0
 10
25.203569032
 20
93.3150063786
 30
0.0
  0
SPLINE
  5
2B4
100
AcDbEntity
  8
0
100
AcDbSpline
 62
7
  6
BYLAYER
 70
0
 71
3
 72
21
 73
17
 74
0
 42
0.0000001
 43
0.0000001
 44
0.0000000001
 40
0.0
 40
0.0
 40
0.0
 40
0.0
 40
0.193293111
 40
0.3791864595
 40
0.5504572329
 40
0.7006274937
 40
0.7659907787
 40
0.8240362072
 40
0.8742614262
 40
0.916224965
 40
0.9496255091
 40
0.9630698942
 40
0.9743402887
 40
0.9834815172
 40
0.9906083395
 40
1.0
 40
1.0
 40
1.0
 40
1.0
 10
25.5536348106
 20
90.0650064339
 30
0.0
 10
25.5536348106
 20
89.8533699594
 30
0.0
 10
25.5563301683
 20
89.4381938217
 30
0.0
 10
25.5684624789
 20
88.8355989483
 30
0.0
 10
25.5884774219
 20
88.2804554946
 30
0.0
 10
25.612291916
 20
87.8575627054
 30
0.0
 10
25.6360473299
 20
87.5589506026
 30
0.0
 10
25.6547440876
 20
87.3697469935
 30
0.0
 10
25.6749569674
 20
87.2064768333
 30
0.0
 10
25.6966030814
 20
87.0706519908
 30
0.0
 10
25.7166772445
 20
86.9754352443
 30
0.0
 10
25.7341271254
 20
86.914182917
 30
0.0
 10
25.7463783272
 20
86.8792395486
 30
0.0
 10
25.7591472144
 20
86.8516243208
 30
0.0
 10
25.7735633543
 20
86.8281931207
 30
0.0
 10
25.7899376539
 20
86.8150050129
 30
0.0
 10
25.8002205755
 20
86.8150064947
 30
0.0
  0
SPLINE
  5
2B5
100
AcDbEntity
  8
0
100
AcDbSpline
 62
7
  6
BYLAYER
 70
0
 71
3
 72
23
 73
19
 74
0
 42
0.0000001
 43
0.0000001
 44
0.0000000001
 40
0.0
 40
0.0
 40
0.0
 40
0.0
 40
0.1948286207
 40
0.3822159406
 40
0.5548737374
 40
0.6336056275
 40
0.7062235997
 40
0.7720482733
 40
0.830434297
 40
0.8808407634
 40
0.9227725682
 40
0.9558430521
 40
0.9689627027
 40
0.9797599229
 40
0.9882198579
 40
0.9943481646
 40
0.9981863851
 40
1.0
 40
1.0
 40
1.0
 40
1.0
 10
25.1402581419
 20
90.0650064339
 30
0.0
 10
25.1402581419
 20
89.8536581614
 30
0.0
 10
25.1406862166
 20
89.4390336804
 30
0.0
 10
25.142719466
 20
88.837114718
 30
0.0
 10
25.1458387864
 20
88.3611422008
 30
0.0
 10
25.1495010682
 20
88.0096802708
 30
0.0
 10
25.1527313178
 20
87.7741130956
 30
0.0
 10
25.1565584057
 20
87.5606282622
 30
0.0
 10
25.1610221247
 20
87.3712577186
 30
0.0
 10
25.1661285982
 20
87.2078272416
 30
0.0
 10
25.1718955402
 20
87.0719136928
 30
0.0
 10
25.17755247
 20
86.9764563339
 30
0.0
 10
25.1826477114
 20
86.9148762099
 30
0.0
 10
25.1863900071
 20
86.8798803104
 30
0.0
 10
25.1900326515
 20
86.8527633823
 30
0.0
 10
25.1942314678
 20
86.8327472933
 30
0.0
 10
25.1973526222
 20
86.8212299836
 30
0.0
 10
25.2016010871
 20
86.8150057308
 30
0.0
 10
25.2035684795
 20
86.8150064798
 30
0.0
  0
SPLINE
  5
2B6
100
AcDbEntity
  8
0
100
AcDbSpline
 62
7
  6
BYLAYER
 70
0
 71
3
 72
21
 73
17
 74
0
 42
0.0000001
 43
0.0000001
 44
0.0000000001
 40
0.0
 40
0.0
 40
0.0
 40
0.0
 40
0.009391557
 40
0.0165176863
 40
0.025658587
 40
0.0369295145
 40
0.0503734971
 40
0.0837716743
 40
0.1257348152
 40
0.1759575456
 40
0.2340021929
 40
0.299365219
 40
0.4495373656
 40
0.6208101939
 40
0.8067080507
 40
1.0
 40
1.0
 40
1.0
 40
1.0
 10
25.800222621
 20
131.915006338
 30
0.0
 10
25.7899398095
 20
131.9150045046
 30
0.0
 10
25.7735669852
 20
131.9018209081
 30
0.0
 10
25.7591485795
 20
131.8783912185
 30
0.0
 10
25.7463794313
 20
131.8507769587
 30
0.0
 10
25.7341292295
 20
131.8158333448
 30
0.0
 10
25.716678283
 20
131.7545839582
 30
0.0
 10
25.6966022831
 20
131.6593709798
 30
0.0
 10
25.6749599129
 20
131.5235513217
 30
0.0
 10
25.6547453861
 20
131.3602853994
 30
0.0
 10
25.6360492456
 20
131.1710855211
 30
0.0
 10
25.6122930513
 20
130.8724724657
 30
0.0
 10
25.588479176
 20
130.4495754557
 30
0.0
 10
25.5684618818
 20
129.8944226558
 30
0.0
 10
25.5563310672
 20
129.2918216293
 30
0.0
 10
25.5536348106
 20
128.8766417056
 30
0.0
 10
25.5536348106
 20
128.6650064339
 30
0.0
  0
SPLINE
  5
2B7
100
AcDbEntity
  8
0
100
AcDbSpline
 62
7
  6
BYLAYER
 70
0
 71
3
 72
23
 73
19
 74
0
 42
0.0000001
 43
0.0000001
 44
0.0000000001
 40
0.0
 40
0.0
 40
0.0
 40
0.0
 40
0.1948286207
 40
0.3822159406
 40
0.5548737374
 40
0.6336056275
 40
0.7062235997
 40
0.7720482733
 40
0.830434297
 40
0.8808407634
 40
0.9227725682
 40
0.9558430521
 40
0.9689627027
 40
0.9797599229
 40
0.9882198579
 40
0.9943481646
 40
0.9981863851
 40
1.0
 40
1.0
 40
1.0
 40
1.0
 10
25.1402581419
 20
128.6650064339
 30
0.0
 10
25.1402581419
 20
128.4536581614
 30
0.0
 10
25.1406862166
 20
128.0390336804
 30
0.0
 10
25.142719466
 20
127.437114718
 30
0.0
 10
25.1458387864
 20
126.9611422008
 30
0.0
 10
25.1495010682
 20
126.6096802708
 30
0.0
 10
25.1527313178
 20
126.3741130956
 30
0.0
 10
25.1565584057
 20
126.1606282622
 30
0.0
 10
25.1610221247
 20
125.9712577186
 30
0.0
 10
25.1661285982
 20
125.8078272416
 30
0.0
 10
25.1718955402
 20
125.6719136928
 30
0.0
 10
25.17755247
 20
125.5764563339
 30
0.0
 10
25.1826477114
 20
125.5148762099
 30
0.0
 10
25.1863900071
 20
125.4798803104
 30
0.0
 10
25.1900326515
 20
125.4527633823
 30
0.0
 10
25.1942314678
 20
125.4327472933
 30
0.0
 10
25.1973526222
 20
125.4212299836
 30
0.0
 10
25.2016010871
 20
125.4150057308
 30
0.0
 10
25.2035684795
 20
125.4150064798
 30
0.0
  0
SPLINE
  5
2B8
100
AcDbEntity
  8
0
100
AcDbSpline
 62
7
  6
BYLAYER
 70
0
 71
3
 72
21
 73
17
 74
0
 42
0.0000001
 43
0.0000001
 44
0.0000000001
 40
0.0
 40
0.0
 40
0.0
 40
0.0
 40
0.009391557
 40
0.0165176863
 40
0.025658587
 40
0.0369295145
 40
0.0503734971
 40
0.0837716743
 40
0.1257348152
 40
0.1759575456
 40
0.2340021929
 40
0.299365219
 40
0.4495373656
 40
0.6208101939
 40
0.8067080507
 40
1.0
 40
1.0
 40
1.0
 40
1.0
 10
25.800222621
 20
93.315006338
 30
0.0
 10
25.7899398095
 20
93.3150045046
 30
0.0
 10
25.7735669852
 20
93.3018209081
 30
0.0
 10
25.7591485795
 20
93.2783912185
 30
0.0
 10
25.7463794313
 20
93.2507769587
 30
0.0
 10
25.7341292295
 20
93.2158333448
 30
0.0
 10
25.716678283
 20
93.1545839582
 30
0.0
 10
25.6966022831
 20
93.0593709798
 30
0.0
 10
25.6749599129
 20
92.9235513217
 30
0.0
 10
25.6547453861
 20
92.7602853994
 30
0.0
 10
25.6360492456
 20
92.5710855211
 30
0.0
 10
25.6122930513
 20
92.2724724657
 30
0.0
 10
25.588479176
 20
91.8495754557
 30
0.0
 10
25.5684618818
 20
91.2944226558
 30
0.0
 10
25.5563310672
 20
90.6918216293
 30
0.0
 10
25.5536348106
 20
90.2766417056
 30
0.0
 10
25.5536348106
 20
90.0650064339
 30
0.0
  0
SPLINE
  5
2B9
100
AcDbEntity
  8
0
100
AcDbSpline
 62
7
  6
BYLAYER
 70
0
 71
3
 72
21
 73
17
 74
0
 42
0.0000001
 43
0.0000001
 44
0.0000000001
 40
0.0
 40
0.0
 40
0.0
 40
0.0
 40
0.193293111
 40
0.3791864595
 40
0.5504572329
 40
0.7006274937
 40
0.7659907787
 40
0.8240362072
 40
0.8742614262
 40
0.916224965
 40
0.9496255091
 40
0.9630698942
 40
0.9743402887
 40
0.9834815172
 40
0.9906083395
 40
1.0
 40
1.0
 40
1.0
 40
1.0
 10
25.5536348106
 20
128.6650064339
 30
0.0
 10
25.5536348106
 20
128.4533699594
 30
0.0
 10
25.5563301683
 20
128.0381938217
 30
0.0
 10
25.5684624789
 20
127.4355989483
 30
0.0
 10
25.5884774219
 20
126.8804554946
 30
0.0
 10
25.612291916
 20
126.4575627054
 30
0.0
 10
25.6360473299
 20
126.1589506026
 30
0.0
 10
25.6547440876
 20
125.9697469935
 30
0.0
 10
25.6749569674
 20
125.8064768333
 30
0.0
 10
25.6966030814
 20
125.6706519908
 30
0.0
 10
25.7166772445
 20
125.5754352443
 30
0.0
 10
25.7341271254
 20
125.514182917
 30
0.0
 10
25.7463783272
 20
125.4792395486
 30
0.0
 10
25.7591472144
 20
125.4516243208
 30
0.0
 10
25.7735633543
 20
125.4281931207
 30
0.0
 10
25.7899376539
 20
125.4150050129
 30
0.0
 10
25.8002205755
 20
125.4150064947
 30
0.0
  0
SPLINE
  5
2BA
100
AcDbEntity
  8
0
100
AcDbSpline
 62
7
  6
BYLAYER
 70
0
 71
3
 72
23
 73
19
 74
0
 42
0.0000001
 43
0.0000001
 44
0.0000000001
 40
0.0
 40
0.0
 40
0.0
 40
0.0
 40
0.0018138508
 40
0.0056516044
 40
0.0117791627
 40
0.0202387277
 40
0.031036332
 40
0.0441554898
 40
0.0772236596
 40
0.1191548926
 40
0.1695588758
 40
0.2279440274
 40
0.2937682922
 40
0.3663864818
 40
0.4451197907
 40
0.6177796589
 40
0.8051717522
 40
1.0
 40
1.0
 40
1.0
 40
1.0
 10
25.203569032
 20
93.3150063786
 30
0.0
 10
25.201601384
 20
93.3150055613
 30
0.0
 10
25.1973547491
 20
93.3087827839
 30
0.0
 10
25.1942315591
 20
93.2972657521
 30
0.0
 10
25.1900332933
 20
93.2772519713
 30
0.0
 10
25.1863901314
 20
93.250135662
 30
0.0
 10
25.1826484069
 20
93.215140316
 30
0.0
 10
25.1775527606
 20
93.1535628365
 30
0.0
 10
25.1718954084
 20
93.0581092004
 30
0.0
 10
25.1661299588
 20
92.9222014248
 30
0.0
 10
25.1610228278
 20
92.7587752616
 30
0.0
 10
25.1565590195
 20
92.5694088245
 30
0.0
 10
25.1527315952
 20
92.3559251804
 30
0.0
 10
25.1495011268
 20
92.1203567061
 30
0.0
 10
25.1458389409
 20
91.7688907988
 30
0.0
 10
25.1427191619
 20
91.2929093818
 30
0.0
 10
25.1406864064
 20
90.6909834746
 30
0.0
 10
25.1402581419
 20
90.2763542744
 30
0.0
 10
25.1402581419
 20
90.0650064339
 30
0.0
  0
SPLINE
  5
2BB
100
AcDbEntity
  8
0
100
AcDbSpline
 62
7
  6
BYLAYER
 70
0
 71
3
 72
23
 73
19
 74
0
 42
0.0000001
 43
0.0000001
 44
0.0000000001
 40
0.0
 40
0.0
 40
0.0
 40
0.0
 40
0.0018138508
 40
0.0056516044
 40
0.0117791627
 40
0.0202387277
 40
0.031036332
 40
0.0441554898
 40
0.0772236596
 40
0.1191548926
 40
0.1695588758
 40
0.2279440274
 40
0.2937682922
 40
0.3663864818
 40
0.4451197907
 40
0.6177796589
 40
0.8051717522
 40
1.0
 40
1.0
 40
1.0
 40
1.0
 10
25.203569032
 20
131.9150063786
 30
0.0
 10
25.201601384
 20
131.9150055613
 30
0.0
 10
25.1973547491
 20
131.9087827839
 30
0.0
 10
25.1942315591
 20
131.8972657521
 30
0.0
 10
25.1900332933
 20
131.8772519713
 30
0.0
 10
25.1863901314
 20
131.850135662
 30
0.0
 10
25.1826484069
 20
131.815140316
 30
0.0
 10
25.1775527606
 20
131.7535628365
 30
0.0
 10
25.1718954084
 20
131.6581092004
 30
0.0
 10
25.1661299588
 20
131.5222014248
 30
0.0
 10
25.1610228278
 20
131.3587752616
 30
0.0
 10
25.1565590195
 20
131.1694088245
 30
0.0
 10
25.1527315952
 20
130.9559251804
 30
0.0
 10
25.1495011268
 20
130.7203567061
 30
0.0
 10
25.1458389409
 20
130.3688907988
 30
0.0
 10
25.1427191619
 20
129.8929093818
 30
0.0
 10
25.1406864064
 20
129.2909834746
 30
0.0
 10
25.1402581419
 20
128.8763542744
 30
0.0
 10
25.1402581419
 20
128.6650064339
 30
0.0
  0
SPLINE
  5
2BC
100
AcDbEntity
  8
0
100
AcDbSpline
 62
7
  6
BYLAYER
 70
0
 71
3
 72
12
 73
8
 74
0
 42
0.0000001
 43
0.0000001
 44
0.0000000001
 40
0.0
 40
0.0
 40
0.0
 40
0.0
 40
0.0940830326
 40
0.1732149845
 40
0.277798637
 40
0.572180025
 40
1.0
 40
1.0
 40
1.0
 40
1.0
 10
40.8321101538
 20
145.4650320277
 30
0.0
 10
40.8399580518
 20
145.4650274626
 30
0.0
 10
40.8518147812
 20
145.4777465718
 30
0.0
 10
40.8623118624
 20
145.4974290469
 30
0.0
 10
40.8775184846
 20
145.5348266959
 30
0.0
 10
40.8953080036
 20
145.6013120893
 30
0.0
 10
40.9067999145
 20
145.6605745562
 30
0.0
 10
40.9127457351
 20
145.6957621809
 30
0.0
  0
SPLINE
  5
2BD
100
AcDbEntity
  8
0
100
AcDbSpline
 62
7
  6
BYLAYER
 70
0
 71
3
 72
11
 73
7
 74
0
 42
0.0000001
 43
0.0000001
 44
0.0000000001
 40
0.0
 40
0.0
 40
0.0
 40
0.0
 40
0.1637402129
 40
0.4589524892
 40
0.8020592066
 40
1.0
 40
1.0
 40
1.0
 40
1.0
 10
40.9127457351
 20
145.6957621809
 30
0.0
 10
40.9296888508
 20
145.7960322751
 30
0.0
 10
40.9611187896
 20
146.0796790497
 30
0.0
 10
40.9828344113
 20
146.5776473302
 30
0.0
 10
40.971555312
 20
147.0973279063
 30
0.0
 10
40.9419766671
 20
147.4323828934
 30
0.0
 10
40.9250283552
 20
147.5541408809
 30
0.0
  0
SPLINE
  5
2BE
100
AcDbEntity
  8
0
100
AcDbSpline
 62
7
  6
BYLAYER
 70
0
 71
3
 72
11
 73
7
 74
0
 42
0.0000001
 43
0.0000001
 44
0.0000000001
 40
0.0
 40
0.0
 40
0.0
 40
0.0
 40
0.2097394203
 40
0.573868493
 40
0.8516467802
 40
1.0
 40
1.0
 40
1.0
 40
1.0
 10
40.9250305644
 20
71.1758898097
 30
0.0
 10
40.9435328166
 20
71.3088109278
 30
0.0
 10
40.9744612293
 20
71.6751081546
 30
0.0
 10
40.9826107349
 20
72.2205500733
 30
0.0
 10
40.9550354848
 20
72.7257114706
 30
0.0
 10
40.921138106
 20
72.9967439682
 30
0.0
 10
40.9025521263
 20
73.0898310882
 30
0.0
  0
SPLINE
  5
2BF
100
AcDbEntity
  8
0
100
AcDbSpline
 62
7
  6
BYLAYER
 70
0
 71
3
 72
12
 73
8
 74
0
 42
0.0000001
 43
0.0000001
 44
0.0000000001
 40
0.0
 40
0.0
 40
0.0
 40
0.0
 40
0.4167314835
 40
0.7101329177
 40
0.8162003179
 40
0.8976874147
 40
1.0
 40
1.0
 40
1.0
 40
1.0
 10
40.9025521263
 20
73.0898310882
 30
0.0
 10
40.8972768688
 20
73.1162520002
 30
0.0
 10
40.8871363499
 20
73.1611017036
 30
0.0
 10
40.8716643586
 20
73.2115281799
 30
0.0
 10
40.858521103
 20
73.2400448478
 30
0.0
 10
40.8490942073
 20
73.2556455069
 30
0.0
 10
40.8387248278
 20
73.2649795899
 30
0.0
 10
40.8321101449
 20
73.2649796113
 30
0.0
  0
SPLINE
  5
2C0
100
AcDbEntity
  8
0
100
AcDbSpline
 62
7
  6
BYLAYER
 70
0
 71
3
 72
10
 73
6
 74
0
 42
0.0000001
 43
0.0000001
 44
0.0000000001
 40
0.0
 40
0.0
 40
0.0
 40
0.0
 40
0.6029713208
 40
0.8379629646
 40
1.0
 40
1.0
 40
1.0
 40
1.0
 10
40.9077426687
 20
70.7120664516
 30
0.0
 10
40.9077426689
 20
70.8053864021
 30
0.0
 10
40.9093100898
 20
70.935128056
 30
0.0
 10
40.9167583404
 20
71.0896927567
 30
0.0
 10
40.921568976
 20
71.1510155631
 30
0.0
 10
40.9250264232
 20
71.1758540398
 30
0.0
  0
SPLINE
  5
2C1
100
AcDbEntity
  8
0
100
AcDbSpline
 62
7
  6
BYLAYER
 70
0
 71
3
 72
10
 73
6
 74
0
 42
0.0000001
 43
0.0000001
 44
0.0000000001
 40
0.0
 40
0.0
 40
0.0
 40
0.0
 40
0.1620372364
 40
0.397028847
 40
1.0
 40
1.0
 40
1.0
 40
1.0
 10
40.925009694
 20
147.5541588279
 30
0.0
 10
40.9215522539
 20
147.5789973468
 30
0.0
 10
40.9167389771
 20
147.6403199342
 30
0.0
 10
40.9092893668
 20
147.7948847483
 30
0.0
 10
40.9077261622
 20
147.9246264556
 30
0.0
 10
40.907726162
 20
148.0179464161
 30
0.0
  0
SPLINE
  5
2C2
100
AcDbEntity
  8
0
100
AcDbSpline
 62
7
  6
BYLAYER
 70
0
 71
3
 72
9
 73
5
 74
0
 42
0.0000001
 43
0.0000001
 44
0.0000000001
 40
0.0
 40
0.0
 40
0.0
 40
0.0
 40
0.3044291097
 40
1.0
 40
1.0
 40
1.0
 40
1.0
 10
40.7472375913
 20
145.8976943187
 30
0.0
 10
40.7489338381
 20
145.8720833696
 30
0.0
 10
40.7550589952
 20
145.7880015035
 30
0.0
 10
40.7631508648
 20
145.7040079211
 30
0.0
 10
40.7713345898
 20
145.6459366864
 30
0.0
  0
SPLINE
  5
2C3
100
AcDbEntity
  8
0
100
AcDbSpline
 62
7
  6
BYLAYER
 70
0
 71
3
 72
12
 73
8
 74
0
 42
0.0000001
 43
0.0000001
 44
0.0000000001
 40
0.0
 40
0.0
 40
0.0
 40
0.0
 40
0.420610955
 40
0.7143126084
 40
0.8196127053
 40
0.8999028318
 40
1.0
 40
1.0
 40
1.0
 40
1.0
 10
40.7713345898
 20
145.6459366864
 30
0.0
 10
40.7751775026
 20
145.6186676015
 30
0.0
 10
40.782799796
 20
145.5724578936
 30
0.0
 10
40.7953168426
 20
145.5202996256
 30
0.0
 10
40.8069025765
 20
145.4907912608
 30
0.0
 10
40.815369931
 20
145.4747160152
 30
0.0
 10
40.8255565227
 20
145.4650358399
 30
0.0
 10
40.8321101538
 20
145.4650320277
 30
0.0
  0
SPLINE
  5
2C4
100
AcDbEntity
  8
0
100
AcDbSpline
 62
7
  6
BYLAYER
 70
0
 71
3
 72
9
 73
5
 74
0
 42
0.0000001
 43
0.0000001
 44
0.0000000001
 40
0.0
 40
0.0
 40
0.0
 40
0.0
 40
0.2740457885
 40
1.0
 40
1.0
 40
1.0
 40
1.0
 10
40.7669673279
 20
147.825144084
 30
0.0
 10
40.766730377
 20
147.8102500586
 30
0.0
 10
40.7657482954
 20
147.755903656
 30
0.0
 10
40.7643266826
 20
147.701562713
 30
0.0
 10
40.7628206936
 20
147.6621318198
 30
0.0
  0
SPLINE
  5
2C5
100
AcDbEntity
  8
0
100
AcDbSpline
 62
7
  6
BYLAYER
 70
0
 71
3
 72
12
 73
8
 74
0
 42
0.0000001
 43
0.0000001
 44
0.0000000001
 40
0.0
 40
0.0
 40
0.0
 40
0.0
 40
0.0920918871
 40
0.1701504782
 40
0.2740290649
 40
0.5686367796
 40
1.0
 40
1.0
 40
1.0
 40
1.0
 10
40.8321101449
 20
73.2649796113
 30
0.0
 10
40.8244054968
 20
73.2649796363
 30
0.0
 10
40.812911907
 20
73.2519596604
 30
0.0
 10
40.8037163626
 20
73.2319429479
 30
0.0
 10
40.7906443796
 20
73.1937373488
 30
0.0
 10
40.7768012317
 20
73.1258582221
 30
0.0
 10
40.7685464492
 20
73.0655660322
 30
0.0
 10
40.7644212585
 20
73.0297135999
 30
0.0
  0
SPLINE
  5
2C6
100
AcDbEntity
  8
0
100
AcDbSpline
 62
7
  6
BYLAYER
 70
0
 71
3
 72
9
 73
5
 74
0
 42
0.0000001
 43
0.0000001
 44
0.0000000001
 40
0.0
 40
0.0
 40
0.0
 40
0.0
 40
0.214159537
 40
1.0
 40
1.0
 40
1.0
 40
1.0
 10
40.7644212585
 20
73.0297135999
 30
0.0
 10
40.762852995
 20
73.0160836697
 30
0.0
 10
40.756038364
 20
72.9523813697
 30
0.0
 10
40.751010234
 20
72.8884977983
 30
0.0
 10
40.7476344463
 20
72.8382672462
 30
0.0
  0
ELLIPSE
  5
2C7
100
AcDbEntity
  8
0
100
AcDbEllipse
 62
7
  6
BYLAYER
 10
241.5310325716
 20
179.6309255536
 30
0.0
 11
-0.0
 21
2003.0571145304
 31
0.0
 40
0.098544126
 41
-4.6488603389
 42
-4.6481099519
  0
ELLIPSE
  5
2C8
100
AcDbEntity
  8
0
100
AcDbEllipse
 62
7
  6
BYLAYER
 10
241.5310325716
 20
-11.7404352974
 30
0.0
 11
0.0
 21
2003.0514571519
 31
0.0
 40
0.0985444043
 41
1.5387370199
 42
1.5394862534
  0
ELLIPSE
  5
2C9
100
AcDbEntity
  8
0
100
AcDbEllipse
 62
7
  6
BYLAYER
 10
241.5310325716
 20
52.885552759
 30
0.0
 11
0.0
 21
2003.0510459744
 31
0.0
 40
0.0985444245
 41
1.5134126042
 42
1.5141626804
  0
ELLIPSE
  5
2CA
100
AcDbEntity
  8
0
100
AcDbEllipse
 62
7
  6
BYLAYER
 10
241.5310325716
 20
216.6845519541
 30
0.0
 11
-0.0
 21
2003.058849946
 31
0.0
 40
0.0985440406
 41
-4.6879641314
 42
-4.6872150464
  0
ENDSEC
  0
SECTION
  2
OBJECTS
  0
DICTIONARY
  5
C
100
AcDbDictionary
280
0
281
1
  3
ACAD_GROUP
350
D
  3
ACAD_MLINESTYLE
350
17
  3
ACAD_LAYOUT
350
1A
  3
ACAD_PLOTSETTINGS
350
19
  3
ACAD_PLOTSTYLENAME
350
E
  0
DICTIONARY
  5
D
102
{ACAD_REACTORS
330
C
102
}
100
AcDbDictionary
280
0
281
1
  0
ACDBDICTIONARYWDFLT
  5
E
102
{ACAD_REACTORS
330
C
102
}
100
AcDbDictionary
281
1
  3
Normal
350
F
100
AcDbDictionaryWithDefault
340
F
  0
DICTIONARY
  5
17
102
{ACAD_REACTORS
330
C
102
}
100
AcDbDictionary
280
0
281
1
  3
Standard
350
18
  0
DICTIONARY
  5
19
102
{ACAD_REACTORS
330
C
102
}
100
AcDbDictionary
281
1
  0
DICTIONARY
  5
1A
102
{ACAD_REACTORS
330
C
102
}
100
AcDbDictionary
281
1
  3
Model
350
2CB
  3
Layout1
350
2CC
  0
ACDBPLACEHOLDER
  5
F
102
{ACAD_REACTORS
330
E
102
}
  0
MLINESTYLE
  5
18
102
{ACAD_REACTORS
330
17
102
}
100
AcDbMlineStyle
  2
STANDARD
 70
0
  3

 62
256
 51
90.0
 52
90.0
 71
2
 49
0.5
 62
256
  6
BYLAYER
 49
-0.5
 62
256
  6
BYLAYER
  0
LAYOUT
  5
2CB
102
{ACAD_REACTORS
330
1A
102
}
100
AcDbPlotSettings
  1

  2
none_device
  4

  6

 40
0.0
 41
0.0
 42
0.0
 43
0.0
 44
210.0
 45
297.0
 46
0.0
 47
0.0
 48
0.0
 49
0.0
140
0.0
141
0.0
142
1.0
143
1.0
 70
1024
 72
1
 73
0
 74
0
  7

 75
0
147
1.0
148
0.0
149
0.0
100
AcDbLayout
  1
Model
 70
0
 71
0
 10
0.0
 20
0.0
 11
210.0
 21
297.0
 12
0.0
 22
0.0
 32
0.0
 14
0.0
 24
0.0
 34
0.0
 15
0.0
 25
0.0
 35
0.0
146
0.0
 13
0.0
 23
0.0
 33
0.0
 16
1.0
 26
0.0
 36
0.0
 17
0.0
 27
1.0
 37
0.0
 76
0
330
210
345
0
346
0
  0
LAYOUT
  5
2CC
102
{ACAD_REACTORS
330
1A
102
}
100
AcDbPlotSettings
  1

  2
none_device
  4

  6

 40
0.0
 41
0.0
 42
0.0
 43
0.0
 44
210.0
 45
297.0
 46
0.0
 47
0.0
 48
0.0
 49
0.0
140
0.0
141
0.0
142
1.0
143
1.0
 70
0
 72
1
 73
0
 74
0
  7

 75
0
147
1.0
148
0.0
149
0.0
100
AcDbLayout
  1
Layout1
 70
0
 71
1
 10
0.0
 20
0.0
 11
210.0
 21
297.0
 12
0.0
 22
0.0
 32
0.0
 14
0.0
 24
0.0
 34
0.0
 15
0.0
 25
0.0
 35
0.0
146
0.0
 13
0.0
 23
0.0
 33
0.0
 16
1.0
 26
0.0
 36
0.0
 17
0.0
 27
1.0
 37
0.0
 76
0
330
211
345
0
346
0
  0
ENDSEC
  0
EOF
