999
DXF file: C:\Users\sesa63760\Dev\_Creo\CAD\MCADID0005580_3D-CAD\drw0001_1.dxf
999
Pro/ENGINEER 2019471 by Parametric Technology Corporation
  0
SECTION
  2
HEADER
  9
$ACADVER
  1
AC1024
  9
$DWGCODEPAGE
  3
ANSI_1252
  9
$EXTMAX
 10
57.7750546367
 20
81.7104344147
 30
0.0
  9
$EXTMIN
 10
0.0
 20
0.0
 30
0.0
  9
$LIMMIN
 10
0.0
 20
0.0
  9
$LIMMAX
 10
57.7750546367
 20
81.7104344147
  9
$VIEWCTR
 10
28.8875273183
 20
40.8552172074
  9
$VIEWSIZE
 40
81.7104344147
  9
$CLAYER
  8
0
  9
$LTSCALE
 40
5.3263097989
  9
$CELTYPE
  6
BYLAYER
  9
$DIMSCALE
 40
1.0
  9
$DIMASZ
 40
0.6877982695
  9
$DIMEXO
 40
1.0
  9
$DIMDLI
 40
3.679995861
  9
$DIMEXE
 40
1.0
  9
$DIMCEN
 40
0.8715779671
  9
$DIMLFAC
 40
1.0
  9
$DIMBLK
  1
_FILLED
  9
$DIMALT
 70
0
  9
$DIMALTF
 40
0.0393700787
  9
$DIMTXT
 40
0.9629175773
  9
$DIMTOL
 70
1
  9
$DIMLIM
 70
0
  9
$DIMTFAC
 40
1.0
  9
$DIMTP
 40
0.01
  9
$DIMTM
 40
0.01
  9
$DIMGAP
 40
0.625
  9
$DIMDSEP
 70
46
  9
$AUNITS
 70
0
  9
$PDMODE
 70
3
  9
$PDSIZE
 40
0.3125
  9
$HANDSEED
  5
57B
  9
$TILEMODE
 70
1
  9
$MEASUREMENT
 70
1
  9
$INSUNITS
 70
4
  0
ENDSEC
  0
SECTION
  2
CLASSES
  0
CLASS
  1
ACDBDICTIONARYWDFLT
  2
AcDbDictionaryWithDefault
  3
AutoCAD 2000
 90
0
 91
1
280
0
281
0
  0
CLASS
  1
ACDBPLACEHOLDER
  2
AcDbPlaceHolder
  3
AutoCAD 2000
 90
0
 91
1
280
0
281
0
  0
CLASS
  1
LAYOUT
  2
AcDbLayout
  3
AutoCAD 2000
 90
0
 91
0
280
0
281
0
  0
ENDSEC
  0
SECTION
  2
TABLES
  0
TABLE
  2
VPORT
  5
8
100
AcDbSymbolTable
 70
2
  0
VPORT
  5
1F4
100
AcDbSymbolTableRecord
100
AcDbViewportTableRecord
  2
*ACTIVE
 70
0
 10
0.0
 20
0.0
 11
1.0
 21
1.0
 12
28.8875273183
 22
40.8552172074
 13
0.0
 23
0.0
 14
1.0
 24
1.0
 15
0.0
 25
0.0
 16
0.0
 26
0.0
 36
1.0
 17
0.0
 27
0.0
 37
0.0
 40
81.7104344147
 41
0.7070707071
 42
50.0
 43
0.0
 44
0.0
 50
0.0
 51
0.0
 71
0
 72
100
 73
1
 74
1
 75
0
 76
0
 77
0
 78
0
  0
ENDTAB
  0
TABLE
  2
LTYPE
  5
5
100
AcDbSymbolTable
 70
6
  0
LTYPE
  5
14
100
AcDbSymbolTableRecord
100
AcDbLinetypeTableRecord
  2
BYBLOCK
 70
0
  3

 72
65
 73
0
 40
0.0
  0
LTYPE
  5
15
100
AcDbSymbolTableRecord
100
AcDbLinetypeTableRecord
  2
BYLAYER
 70
0
  3

 72
65
 73
0
 40
0.0
  0
LTYPE
  5
16
100
AcDbSymbolTableRecord
100
AcDbLinetypeTableRecord
  2
CONTINUOUS
 70
64
  3
Solid line
 72
65
 73
0
 40
0.0
  0
LTYPE
  5
1F5
100
AcDbSymbolTableRecord
100
AcDbLinetypeTableRecord
  2
CENTER
 70
64
  3
____ _ ____ _ ____ _ ____ _ ____ _ ____ _ ____
 72
65
 73
4
 40
0.6
 49
0.375
 74
0
 49
-0.075
 74
0
 49
0.075
 74
0
 49
-0.075
 74
0
  0
LTYPE
  5
1F6
100
AcDbSymbolTableRecord
100
AcDbLinetypeTableRecord
  2
HIDDEN
 70
64
  3
- - - - - - - - - - - - - - - - - - - -
 72
65
 73
2
 40
0.2
 49
0.1
 74
0
 49
-0.1
 74
0
  0
LTYPE
  5
1F7
100
AcDbSymbolTableRecord
100
AcDbLinetypeTableRecord
  2
PHANTOM
 70
64
  3
_____ _ _ _____ _ _ _____ _ _ _____
 72
65
 73
6
 40
0.8
 49
0.45
 74
0
 49
-0.05
 74
0
 49
0.1
 74
0
 49
-0.05
 74
0
 49
0.1
 74
0
 49
-0.05
 74
0
  0
LTYPE
  5
1F8
100
AcDbSymbolTableRecord
100
AcDbLinetypeTableRecord
  2
DOT
 70
64
  3
. . . . . . . . . . . . . . . . . . . .
 72
65
 73
2
 40
0.2
 49
0.1
 74
0
 49
-0.1
 74
0
  0
LTYPE
  5
1F9
100
AcDbSymbolTableRecord
100
AcDbLinetypeTableRecord
  2
DASHED
 70
64
  3
- - - - - - - - - - - - - - - - - - - -
 72
65
 73
2
 40
0.2
 49
0.1
 74
0
 49
-0.1
 74
0
  0
ENDTAB
  0
TABLE
  2
LAYER
  5
2
100
AcDbSymbolTable
 70
36
  0
LAYER
  5
10
100
AcDbSymbolTableRecord
100
AcDbLayerTableRecord
  2
0
 70
0
 62
7
  6
CONTINUOUS
370
-3
390
F
  0
LAYER
  5
1FA
100
AcDbSymbolTableRecord
100
AcDbLayerTableRecord
  2
DEFAULT_1
 70
0
 62
7
  6
CENTER
370
-3
390
F
  0
LAYER
  5
1FB
100
AcDbSymbolTableRecord
100
AcDbLayerTableRecord
  2
DEFAULT_2
 70
0
 62
7
  6
HIDDEN
370
-3
390
F
  0
LAYER
  5
1FC
100
AcDbSymbolTableRecord
100
AcDbLayerTableRecord
  2
DEFAULT_3
 70
0
 62
7
  6
PHANTOM
370
-3
390
F
  0
LAYER
  5
1FD
100
AcDbSymbolTableRecord
100
AcDbLayerTableRecord
  2
00_COMPONENTS
 70
0
 62
7
  6
CONTINUOUS
370
-3
390
F
  0
LAYER
  5
1FE
100
AcDbSymbolTableRecord
100
AcDbLayerTableRecord
  2
01_1_DEFAULT_DATUMS
 70
0
 62
7
  6
CONTINUOUS
370
-3
390
F
  0
LAYER
  5
1FF
100
AcDbSymbolTableRecord
100
AcDbLayerTableRecord
  2
01_PLANES
 70
0
 62
7
  6
CONTINUOUS
370
-3
390
F
  0
LAYER
  5
200
100
AcDbSymbolTableRecord
100
AcDbLayerTableRecord
  2
02_COORD_SYS
 70
0
 62
7
  6
CONTINUOUS
370
-3
390
F
  0
LAYER
  5
201
100
AcDbSymbolTableRecord
100
AcDbLayerTableRecord
  2
03_AXES
 70
0
 62
7
  6
CONTINUOUS
370
-3
390
F
  0
LAYER
  5
202
100
AcDbSymbolTableRecord
100
AcDbLayerTableRecord
  2
04_POINTS
 70
0
 62
7
  6
CONTINUOUS
370
-3
390
F
  0
LAYER
  5
203
100
AcDbSymbolTableRecord
100
AcDbLayerTableRecord
  2
05_CURVES
 70
0
 62
7
  6
CONTINUOUS
370
-3
390
F
  0
LAYER
  5
204
100
AcDbSymbolTableRecord
100
AcDbLayerTableRecord
  2
06_SURFS
 70
0
 62
7
  6
CONTINUOUS
370
-3
390
F
  0
LAYER
  5
205
100
AcDbSymbolTableRecord
100
AcDbLayerTableRecord
  2
07_COSMETICS
 70
0
 62
7
  6
CONTINUOUS
370
-3
390
F
  0
LAYER
  5
206
100
AcDbSymbolTableRecord
100
AcDbLayerTableRecord
  2
10_NOTES
 70
0
 62
7
  6
CONTINUOUS
370
-3
390
F
  0
LAYER
  5
207
100
AcDbSymbolTableRecord
100
AcDbLayerTableRecord
  2
11_NOTES_PUB
 70
0
 62
7
  6
CONTINUOUS
370
-3
390
F
  0
LAYER
  5
208
100
AcDbSymbolTableRecord
100
AcDbLayerTableRecord
  2
13_REF_GTOL
 70
0
 62
7
  6
CONTINUOUS
370
-3
390
F
  0
LAYER
  5
209
100
AcDbSymbolTableRecord
100
AcDbLayerTableRecord
  2
16_MISC
 70
0
 62
7
  6
CONTINUOUS
370
-3
390
F
  0
LAYER
  5
20A
100
AcDbSymbolTableRecord
100
AcDbLayerTableRecord
  2
17_NO_PRINT
 70
0
 62
7
  6
CONTINUOUS
370
-3
390
F
  0
LAYER
  5
20B
100
AcDbSymbolTableRecord
100
AcDbLayerTableRecord
  2
18_DATUM_CAMS_JOINTS
 70
0
 62
7
  6
CONTINUOUS
370
-3
390
F
  0
LAYER
  5
20C
100
AcDbSymbolTableRecord
100
AcDbLayerTableRecord
  2
19_DATUM_FUNCTIONAL
 70
0
 62
7
  6
CONTINUOUS
370
-3
390
F
  0
LAYER
  5
20D
100
AcDbSymbolTableRecord
100
AcDbLayerTableRecord
  2
20_DATUM_KINEMATIC_SCHEME
 70
0
 62
7
  6
CONTINUOUS
370
-3
390
F
  0
ENDTAB
  0
TABLE
  2
STYLE
  5
3
100
AcDbSymbolTable
 70
1
  0
STYLE
  5
11
100
AcDbSymbolTableRecord
100
AcDbTextStyleTableRecord
  2
STANDARD
 70
0
 40
0.0
 41
1.0
 50
0.0
 71
0
 42
0.2
  3
ARIAL.TTF
  4

  0
STYLE
  5
20E
100
AcDbSymbolTableRecord
100
AcDbTextStyleTableRecord
  2
TEXTSTYLE_1
 70
0
 40
0.0
 41
0.8
 50
0.0
 71
0
 42
0.2
  3
gdt
  4

  0
ENDTAB
  0
TABLE
  2
VIEW
  5
6
100
AcDbSymbolTable
 70
0
  0
ENDTAB
  0
TABLE
  2
UCS
  5
7
100
AcDbSymbolTable
 70
0
  0
ENDTAB
  0
TABLE
  2
APPID
  5
9
100
AcDbSymbolTable
 70
1
  0
APPID
  5
20F
100
AcDbSymbolTableRecord
100
AcDbRegAppTableRecord
  2
ACAD
 70
0
  0
ENDTAB
  0
TABLE
  2
BLOCK_RECORD
  5
1
100
AcDbSymbolTable
 70
0
  0
BLOCK_RECORD
  5
210
100
AcDbSymbolTableRecord
100
AcDbBlockTableRecord
  2
*Model_Space
  0
BLOCK_RECORD
  5
211
100
AcDbSymbolTableRecord
100
AcDbBlockTableRecord
  2
*Paper_Space
  0
BLOCK_RECORD
  5
212
100
AcDbSymbolTableRecord
100
AcDbBlockTableRecord
  2
_FILLED
  0
ENDTAB
  0
TABLE
  2
DIMSTYLE
  5
A
100
AcDbSymbolTable
 70
1
100
AcDbDimStyleTable
 71
0
  0
DIMSTYLE
105
213
100
AcDbSymbolTableRecord
100
AcDbDimStyleTableRecord
  2
STANDARD
 70
0
  3

  4

 40
1.0
 41
0.6877982695
 42
1.0
 43
0.38
 44
1.0
 45
0.0
 46
0.0
 47
0.01
 48
0.01
140
0.9629175773
141
0.09
142
0.0
143
25.4
144
1.0
145
0.0
146
1.0
147
0.625
 71
1
 72
0
 73
0
 74
0
 75
0
 76
0
 77
1
 78
8
 79
2
170
0
171
1
172
0
173
0
174
0
175
0
176
0
177
0
178
0
270
2
179
2
271
2
272
2
273
2
274
2
275
0
280
0
281
0
282
0
283
1
284
8
285
0
286
0
287
3
288
0
340
11
278
46
341
212
342
212
343
212
344
212
  0
ENDTAB
  0
ENDSEC
  0
SECTION
  2
BLOCKS
  0
BLOCK
  5
20
100
AcDbEntity
  8
0
100
AcDbBlockBegin
  2
*Model_Space
 70
0
 10
0.0
 20
0.0
 30
0.0
  3
*Model_Space
  1

  0
ENDBLK
  5
21
100
AcDbEntity
  8
0
100
AcDbBlockEnd
  0
BLOCK
  5
1C
100
AcDbEntity
  8
0
100
AcDbBlockBegin
  2
*Paper_Space
 70
0
 10
0.0
 20
0.0
 30
0.0
  3
*Paper_Space
  1

  0
ENDBLK
  5
1D
100
AcDbEntity
  8
0
100
AcDbBlockEnd
  0
BLOCK
  5
214
100
AcDbEntity
  8
0
100
AcDbBlockBegin
  2
_FILLED
 70
64
 10
0.0
 20
0.0
  3
_FILLED
  1

  0
SOLID
  5
215
100
AcDbEntity
  8
0
  6
BYBLOCK
 62
0
100
AcDbTrace
 10
0.0
 20
0.0
 11
-1.0
 21
0.25
 12
-1.0
 22
-0.25
 13
-1.0
 23
-0.25
  0
ENDBLK
  5
216
100
AcDbEntity
  8
0
  6
BYBLOCK
 62
0
100
AcDbBlockEnd
  0
ENDSEC
  0
SECTION
  2
ENTITIES
  0
LINE
  5
217
100
AcDbEntity
  8
0
100
AcDbLine
 62
7
  6
BYLAYER
 10
13.2871378269
 20
32.0345818637
 11
13.2495392413
 21
32.0996090585
  0
LINE
  5
218
100
AcDbEntity
  8
0
100
AcDbLine
 62
7
  6
BYLAYER
 10
13.2871378269
 20
32.0345818637
 11
13.2498506462
 21
32.0997888548
  0
LINE
  5
219
100
AcDbEntity
  8
0
100
AcDbLine
 62
7
  6
BYLAYER
 10
12.6592757851
 20
33.1464441759
 11
12.6351385545
 21
33.1897583426
  0
LINE
  5
21A
100
AcDbEntity
  8
0
100
AcDbLine
 62
7
  6
BYLAYER
 10
12.6590543116
 20
33.146324988
 11
12.6351385545
 21
33.1897583426
  0
LINE
  5
21B
100
AcDbEntity
  8
0
100
AcDbLine
 62
7
  6
BYLAYER
 10
17.3246702996
 20
50.884708044
 11
17.3197012304
 21
50.8814661598
  0
LINE
  5
21C
100
AcDbEntity
  8
0
100
AcDbLine
 62
7
  6
BYLAYER
 10
8.4330455991
 20
45.3636964556
 11
8.3656561468
 21
45.3210459034
  0
LINE
  5
21D
100
AcDbEntity
  8
0
100
AcDbLine
 62
7
  6
BYLAYER
 10
17.3246703036
 20
50.8847080373
 11
17.3196353667
 21
50.8815773683
  0
LINE
  5
21E
100
AcDbEntity
  8
0
100
AcDbLine
 62
7
  6
BYLAYER
 10
9.2320909084
 20
45.7699347668
 11
9.1860167473
 21
45.7413189664
  0
LINE
  5
21F
100
AcDbEntity
  8
0
100
AcDbLine
 62
7
  6
BYLAYER
 10
15.7339497434
 20
49.8080980723
 11
16.9350789563
 21
50.5540901579
  0
LINE
  5
220
100
AcDbEntity
  8
0
100
AcDbLine
 62
7
  6
BYLAYER
 10
16.9622440084
 20
50.5647741698
 11
15.7367308966
 21
49.8036209813
  0
LINE
  5
221
100
AcDbEntity
  8
0
100
AcDbLine
 62
7
  6
BYLAYER
 10
8.4330455991
 20
45.3636964556
 11
17.2899817684
 21
50.863169177
  0
LINE
  5
222
100
AcDbEntity
  8
0
100
AcDbLine
 62
7
  6
BYLAYER
 10
17.3197012304
 20
50.8814661598
 11
17.32475738
 21
50.8845555378
  0
LINE
  5
223
100
AcDbEntity
  8
0
100
AcDbLine
 62
7
  6
BYLAYER
 10
33.5308463338
 20
60.5202355144
 11
32.6512010719
 21
60.0123751172
  0
LINE
  5
224
100
AcDbEntity
  8
0
100
AcDbLine
 62
7
  6
BYLAYER
 10
18.3332154114
 20
51.4889917288
 11
25.3236974153
 21
55.5249243042
  0
LINE
  5
225
100
AcDbEntity
  8
0
100
AcDbLine
 62
7
  6
BYLAYER
 10
17.5306491382
 20
51.004659831
 11
17.511563545
 21
50.9936382516
  0
LINE
  5
226
100
AcDbEntity
  8
0
100
AcDbLine
 62
7
  6
BYLAYER
 10
17.3207872986
 20
50.8821348062
 11
17.3248135894
 21
50.8844599152
  0
LINE
  5
227
100
AcDbEntity
  8
0
100
AcDbLine
 62
7
  6
BYLAYER
 10
19.0130467069
 20
51.556004661
 11
19.0354580415
 21
51.5689437738
  0
LINE
  5
228
100
AcDbEntity
  8
0
100
AcDbLine
 62
7
  6
BYLAYER
 10
17.530270924
 20
51.0053241823
 11
17.51100992
 21
50.9946072272
  0
LINE
  5
229
100
AcDbEntity
  8
0
100
AcDbLine
 62
7
  6
BYLAYER
 10
17.5120257483
 20
50.9928413694
 11
17.5311578605
 21
51.0032726931
  0
LINE
  5
22A
100
AcDbEntity
  8
0
100
AcDbLine
 62
7
  6
BYLAYER
 10
31.6059538533
 20
59.6773990027
 11
30.524685534
 21
59.1016983069
  0
LINE
  5
22B
100
AcDbEntity
  8
0
100
AcDbLine
 62
7
  6
BYLAYER
 10
17.5208312077
 20
50.997656489
 11
17.5312915487
 21
51.003036298
  0
LINE
  5
22C
100
AcDbEntity
  8
0
100
AcDbLine
 62
7
  6
BYLAYER
 10
17.7723583516
 20
51.1293309058
 11
17.7777839428
 21
51.1320696186
  0
LINE
  5
22D
100
AcDbEntity
  8
0
100
AcDbLine
 62
7
  6
BYLAYER
 10
17.7687965206
 20
51.1357772147
 11
17.774244742
 21
51.1384814907
  0
LINE
  5
22E
100
AcDbEntity
  8
0
100
AcDbLine
 62
7
  6
BYLAYER
 10
31.6112337248
 20
57.2662523234
 11
31.6154014206
 21
57.2677285138
  0
LINE
  5
22F
100
AcDbEntity
  8
0
100
AcDbLine
 62
7
  6
BYLAYER
 10
32.2221468052
 20
57.4826366599
 11
32.226134218
 21
57.4840489945
  0
LINE
  5
230
100
AcDbEntity
  8
0
100
AcDbLine
 62
7
  6
BYLAYER
 10
32.1907310598
 20
57.5464765964
 11
32.1947673846
 21
57.5478435233
  0
LINE
  5
231
100
AcDbEntity
  8
0
100
AcDbLine
 62
7
  6
BYLAYER
 10
31.0392485078
 20
56.9769665338
 11
31.0433607609
 21
56.9794877783
  0
LINE
  5
232
100
AcDbEntity
  8
0
100
AcDbLine
 62
7
  6
BYLAYER
 10
30.9854026946
 20
56.9460272776
 11
30.9592466065
 21
56.9307797156
  0
LINE
  5
233
100
AcDbEntity
  8
0
100
AcDbLine
 62
7
  6
BYLAYER
 10
31.0274590837
 20
56.9704547941
 11
31.0391208357
 21
56.9771876696
  0
LINE
  5
234
100
AcDbEntity
  8
0
100
AcDbLine
 62
7
  6
BYLAYER
 10
31.0432967624
 20
56.9795986277
 11
31.4269727939
 21
57.2011127655
  0
LINE
  5
235
100
AcDbEntity
  8
0
100
AcDbLine
 62
7
  6
BYLAYER
 10
11.1356665257
 20
44.6534954825
 11
20.7707020558
 21
50.2162526342
  0
LINE
  5
236
100
AcDbEntity
  8
0
100
AcDbLine
 62
7
  6
BYLAYER
 10
40.5303900786
 20
61.1455149045
 11
37.6164662524
 21
59.4631702412
  0
LINE
  5
237
100
AcDbEntity
  8
0
100
AcDbLine
 62
7
  6
BYLAYER
 10
21.3593708048
 20
50.3654711401
 11
20.8401347745
 21
50.0666744246
  0
LINE
  5
238
100
AcDbEntity
  8
0
100
AcDbLine
 62
7
  6
BYLAYER
 10
31.5959946645
 20
57.293600229
 11
31.5998780036
 21
57.2956093675
  0
LINE
  5
239
100
AcDbEntity
  8
0
100
AcDbLine
 62
7
  6
BYLAYER
 10
41.2003365456
 20
61.1139513429
 11
38.0254403257
 21
59.2809350973
  0
LINE
  5
23A
100
AcDbEntity
  8
0
100
AcDbLine
 62
7
  6
BYLAYER
 10
31.5669404379
 20
55.4921395556
 11
31.7323205503
 21
55.587621238
  0
LINE
  5
23B
100
AcDbEntity
  8
0
100
AcDbLine
 62
7
  6
BYLAYER
 10
32.4455656412
 20
55.1883230779
 11
33.9909979234
 21
56.0805734961
  0
LINE
  5
23C
100
AcDbEntity
  8
0
100
AcDbLine
 62
7
  6
BYLAYER
 10
42.774656311
 20
60.2050379649
 11
39.5997600911
 21
58.3720217193
  0
LINE
  5
23D
100
AcDbEntity
  8
0
100
AcDbLine
 62
7
  6
BYLAYER
 10
31.6179018942
 20
57.2474274424
 11
31.6210983313
 21
57.2516445526
  0
LINE
  5
23E
100
AcDbEntity
  8
0
100
AcDbLine
 62
7
  6
BYLAYER
 10
43.7552707412
 20
58.4176322075
 11
41.547553909
 21
57.1430139086
  0
LINE
  5
23F
100
AcDbEntity
  8
0
100
AcDbLine
 62
7
  6
BYLAYER
 10
44.217841932
 20
35.4335660603
 11
44.212591371
 21
35.4329067762
  0
LINE
  5
240
100
AcDbEntity
  8
0
100
AcDbLine
 62
7
  6
BYLAYER
 10
37.7311300792
 20
52.1367700622
 11
37.6604196955
 21
52.0959456468
  0
LINE
  5
241
100
AcDbEntity
  8
0
100
AcDbLine
 62
7
  6
BYLAYER
 10
40.5826292322
 20
52.3674419122
 11
38.9571209897
 21
51.4289598928
  0
LINE
  5
242
100
AcDbEntity
  8
0
100
AcDbLine
 62
7
  6
BYLAYER
 10
48.7120780539
 20
56.6732716874
 11
48.4999472631
 21
56.5507986492
  0
LINE
  5
243
100
AcDbEntity
  8
0
100
AcDbLine
 62
7
  6
BYLAYER
 10
32.2399832486
 20
57.4322801693
 11
32.2423890098
 21
57.4381572029
  0
LINE
  5
244
100
AcDbEntity
  8
0
100
AcDbLine
 62
7
  6
BYLAYER
 10
43.6763305538
 20
48.9406406318
 11
42.8360551316
 21
48.6116102207
  0
LINE
  5
245
100
AcDbEntity
  8
0
100
AcDbLine
 62
7
  6
BYLAYER
 10
43.3002487304
 20
48.4242459344
 11
44.1398679153
 21
48.7530193797
  0
LINE
  5
246
100
AcDbEntity
  8
0
100
AcDbLine
 62
7
  6
BYLAYER
 10
44.6900036338
 20
35.8783765527
 11
44.6837108808
 21
35.8792319496
  0
LINE
  5
247
100
AcDbEntity
  8
0
100
AcDbLine
 62
7
  6
BYLAYER
 10
32.9007581561
 20
57.5301178736
 11
32.9025274116
 21
57.5375302014
  0
LINE
  5
248
100
AcDbEntity
  8
0
100
AcDbLine
 62
7
  6
BYLAYER
 10
43.127905333
 20
49.8982771132
 11
42.3522787302
 21
49.4504560818
  0
LINE
  5
249
100
AcDbEntity
  8
0
100
AcDbLine
 62
7
  6
BYLAYER
 10
42.8340254155
 20
49.2724850666
 11
43.6090462705
 21
49.7199563593
  0
LINE
  5
24A
100
AcDbEntity
  8
0
100
AcDbLine
 62
7
  6
BYLAYER
 10
14.4996111966
 20
32.8212263659
 11
14.4737008274
 21
32.8062670965
  0
LINE
  5
24B
100
AcDbEntity
  8
0
100
AcDbLine
 62
7
  6
BYLAYER
 10
13.3112172758
 20
32.048484057
 11
13.2871378269
 21
32.0345818637
  0
LINE
  5
24C
100
AcDbEntity
  8
0
100
AcDbLine
 62
7
  6
BYLAYER
 10
43.6890466036
 20
49.581392487
 11
42.9140257486
 21
49.1339211943
  0
LINE
  5
24D
100
AcDbEntity
  8
0
100
AcDbLine
 62
7
  6
BYLAYER
 10
42.8272807025
 20
48.6277330596
 11
43.6029073053
 21
49.075554091
  0
LINE
  5
24E
100
AcDbEntity
  8
0
100
AcDbLine
 62
7
  6
BYLAYER
 10
44.2125913345
 20
48.6109571016
 11
43.3729721496
 21
48.2821836563
  0
LINE
  5
24F
100
AcDbEntity
  8
0
100
AcDbLine
 62
7
  6
BYLAYER
 10
43.2678504828
 20
47.7681153911
 11
44.1081259049
 21
48.0971458021
  0
LINE
  5
250
100
AcDbEntity
  8
0
100
AcDbLine
 62
7
  6
BYLAYER
 10
45.1061237493
 20
36.4003995759
 11
45.0988196628
 21
36.4025738114
  0
LINE
  5
251
100
AcDbEntity
  8
0
100
AcDbLine
 62
7
  6
BYLAYER
 10
33.5951977208
 20
57.5401959512
 11
33.5965016182
 21
57.5489238234
  0
LINE
  5
252
100
AcDbEntity
  8
0
100
AcDbLine
 62
7
  6
BYLAYER
 10
41.8966935172
 20
51.7137852377
 11
41.2675365714
 21
51.0394856608
  0
LINE
  5
253
100
AcDbEntity
  8
0
100
AcDbLine
 62
7
  6
BYLAYER
 10
42.5331842606
 20
50.8250096481
 11
41.8281094638
 21
50.2618061847
  0
LINE
  5
254
100
AcDbEntity
  8
0
100
AcDbLine
 62
7
  6
BYLAYER
 10
42.3258685961
 20
50.095810144
 11
43.0303927444
 21
50.6585737574
  0
LINE
  5
255
100
AcDbEntity
  8
0
100
AcDbLine
 62
7
  6
BYLAYER
 10
43.1170611405
 20
50.5245628456
 11
42.4125369922
 21
49.9617992322
  0
LINE
  5
256
100
AcDbEntity
  8
0
100
AcDbLine
 62
7
  6
BYLAYER
 10
42.3427030614
 20
49.4661163663
 11
43.0477778581
 21
50.0293198297
  0
LINE
  5
257
100
AcDbEntity
  8
0
100
AcDbLine
 62
7
  6
BYLAYER
 10
49.1638175863
 20
51.6893682139
 11
46.9561007551
 21
50.4147499156
  0
LINE
  5
258
100
AcDbEntity
  8
0
100
AcDbLine
 62
7
  6
BYLAYER
 10
14.4737170397
 20
31.4206259062
 11
14.7140308525
 21
31.5593703226
  0
LINE
  5
259
100
AcDbEntity
  8
0
100
AcDbLine
 62
7
  6
BYLAYER
 10
51.7147540581
 20
52.6743666708
 11
51.4698060635
 21
52.5329467243
  0
LINE
  5
25A
100
AcDbEntity
  8
0
100
AcDbLine
 62
7
  6
BYLAYER
 10
45.4629691596
 20
36.9957144447
 11
45.4547584885
 21
36.998949414
  0
LINE
  5
25B
100
AcDbEntity
  8
0
100
AcDbLine
 62
7
  6
BYLAYER
 10
35.0637144184
 20
57.2974349132
 11
35.0645979409
 21
57.3077203654
  0
LINE
  5
25C
100
AcDbEntity
  8
0
100
AcDbLine
 62
7
  6
BYLAYER
 10
34.3180168382
 20
57.462437702
 11
34.3190298065
 21
57.4721595288
  0
LINE
  5
25D
100
AcDbEntity
  8
0
100
AcDbLine
 62
7
  6
BYLAYER
 10
37.1155627658
 20
52.6146353389
 11
37.9375903834
 21
54.6712357722
  0
LINE
  5
25E
100
AcDbEntity
  8
0
100
AcDbLine
 62
7
  6
BYLAYER
 10
37.9640755945
 20
54.6150227778
 11
37.1174209715
 21
52.4968089524
  0
LINE
  5
25F
100
AcDbEntity
  8
0
100
AcDbLine
 62
7
  6
BYLAYER
 10
40.518060663
 20
53.3507493662
 11
40.0544899897
 21
52.4704594952
  0
LINE
  5
260
100
AcDbEntity
  8
0
100
AcDbLine
 62
7
  6
BYLAYER
 10
41.2232773666
 20
52.5578397092
 11
40.6748265361
 21
51.7775758458
  0
LINE
  5
261
100
AcDbEntity
  8
0
100
AcDbLine
 62
7
  6
BYLAYER
 10
41.1995136706
 20
51.6428914292
 11
41.7475361727
 21
52.4225459232
  0
LINE
  5
262
100
AcDbEntity
  8
0
100
AcDbLine
 62
7
  6
BYLAYER
 10
41.8455161703
 20
52.3006582315
 11
41.2974936682
 21
51.5210037376
  0
LINE
  5
263
100
AcDbEntity
  8
0
100
AcDbLine
 62
7
  6
BYLAYER
 10
41.2565827696
 20
51.0538676485
 11
41.8050336001
 21
51.8341315119
  0
LINE
  5
264
100
AcDbEntity
  8
0
100
AcDbLine
 62
7
  6
BYLAYER
 10
41.7796456523
 20
50.8879551655
 11
42.4083112399
 21
51.5617281287
  0
LINE
  5
265
100
AcDbEntity
  8
0
100
AcDbLine
 62
7
  6
BYLAYER
 10
42.5009881002
 20
51.4332900815
 11
41.8723225126
 21
50.7595171182
  0
LINE
  5
266
100
AcDbEntity
  8
0
100
AcDbLine
 62
7
  6
BYLAYER
 10
41.8178054879
 20
50.2768847082
 11
42.4469624337
 21
50.951184285
  0
LINE
  5
267
100
AcDbEntity
  8
0
100
AcDbLine
 62
7
  6
BYLAYER
 10
50.5700674882
 20
50.5075007452
 11
47.3951712683
 21
48.6744844996
  0
LINE
  5
268
100
AcDbEntity
  8
0
100
AcDbLine
 62
7
  6
BYLAYER
 10
50.4449629045
 20
45.2841334203
 11
51.1659710286
 21
45.5234394428
  0
LINE
  5
269
100
AcDbEntity
  8
0
100
AcDbLine
 62
7
  6
BYLAYER
 10
43.6610594003
 20
46.8938055704
 11
44.5595886383
 21
47.1015412409
  0
LINE
  5
26A
100
AcDbEntity
  8
0
100
AcDbLine
 62
7
  6
BYLAYER
 10
44.6837108418
 20
47.6206422886
 11
43.785883336
 21
47.4130688552
  0
LINE
  5
26B
100
AcDbEntity
  8
0
100
AcDbLine
 62
7
  6
BYLAYER
 10
43.7209902998
 20
47.5575483594
 11
44.6188178056
 21
47.7651217928
  0
LINE
  5
26C
100
AcDbEntity
  8
0
100
AcDbLine
 62
7
  6
BYLAYER
 10
44.1742861897
 20
47.9593883517
 11
43.2757569516
 21
47.7516526811
  0
LINE
  5
26D
100
AcDbEntity
  8
0
100
AcDbLine
 62
7
  6
BYLAYER
 10
44.0039148976
 20
46.0114576231
 11
44.9538596015
 21
46.0963175593
  0
LINE
  5
26E
100
AcDbEntity
  8
0
100
AcDbLine
 62
7
  6
BYLAYER
 10
45.0988196216
 20
46.6179849416
 11
44.1496168042
 21
46.5331912793
  0
LINE
  5
26F
100
AcDbEntity
  8
0
100
AcDbLine
 62
7
  6
BYLAYER
 10
45.7577443973
 20
37.6598361415
 11
45.7488184485
 21
37.6638199791
  0
LINE
  5
270
100
AcDbEntity
  8
0
100
AcDbLine
 62
7
  6
BYLAYER
 10
42.4918263933
 20
36.4426932972
 11
41.6734098858
 21
36.9151955987
  0
LINE
  5
271
100
AcDbEntity
  8
0
100
AcDbLine
 62
7
  6
BYLAYER
 10
35.8266152526
 20
57.0464433555
 11
35.8274979951
 21
57.0567466991
  0
LINE
  5
272
100
AcDbEntity
  8
0
100
AcDbLine
 62
7
  6
BYLAYER
 10
36.6009132047
 20
56.7113732264
 11
36.6018661391
 21
56.7210278411
  0
LINE
  5
273
100
AcDbEntity
  8
0
100
AcDbLine
 62
7
  6
BYLAYER
 10
37.3807153999
 20
56.2947746119
 11
37.3817203916
 21
56.3029905614
  0
LINE
  5
274
100
AcDbEntity
  8
0
100
AcDbLine
 62
7
  6
BYLAYER
 10
39.0338957739
 20
54.7594311933
 11
38.7499967334
 21
53.6998981906
  0
LINE
  5
275
100
AcDbEntity
  8
0
100
AcDbLine
 62
7
  6
BYLAYER
 10
39.3009020656
 20
53.6286682447
 11
39.584579387
 21
54.6873737747
  0
LINE
  5
276
100
AcDbEntity
  8
0
100
AcDbLine
 62
7
  6
BYLAYER
 10
39.7864107861
 20
54.0864796283
 11
39.4112483228
 21
53.1128632875
  0
LINE
  5
277
100
AcDbEntity
  8
0
100
AcDbLine
 62
7
  6
BYLAYER
 10
39.9554076783
 20
53.0184825082
 11
40.3302771477
 21
53.9913384755
  0
LINE
  5
278
100
AcDbEntity
  8
0
100
AcDbLine
 62
7
  6
BYLAYER
 10
40.4365916743
 20
53.8852774997
 11
40.0617222048
 21
52.9124215325
  0
LINE
  5
279
100
AcDbEntity
  8
0
100
AcDbLine
 62
7
  6
BYLAYER
 10
40.0424908229
 20
52.4831262182
 11
40.4176532862
 21
53.456742559
  0
LINE
  5
27A
100
AcDbEntity
  8
0
100
AcDbLine
 62
7
  6
BYLAYER
 10
40.5898878056
 20
52.3548734144
 11
41.0530964401
 21
53.2344757976
  0
LINE
  5
27B
100
AcDbEntity
  8
0
100
AcDbLine
 62
7
  6
BYLAYER
 10
41.1556338881
 20
53.1200661005
 11
40.6924252536
 21
52.2404637173
  0
LINE
  5
27C
100
AcDbEntity
  8
0
100
AcDbLine
 62
7
  6
BYLAYER
 10
40.6633061501
 20
51.7911518779
 11
41.1268768234
 21
52.6714417487
  0
LINE
  5
27D
100
AcDbEntity
  8
0
100
AcDbLine
 62
7
  6
BYLAYER
 10
51.3572273709
 20
48.4787195923
 11
48.182331151
 21
46.6457033467
  0
LINE
  5
27E
100
AcDbEntity
  8
0
100
AcDbLine
 62
7
  6
BYLAYER
 10
41.7015816158
 20
42.3632345851
 11
42.2421279976
 21
42.6753173213
  0
LINE
  5
27F
100
AcDbEntity
  8
0
100
AcDbLine
 62
7
  6
BYLAYER
 10
51.1512562078
 20
47.2010153482
 11
48.46072204
 21
45.6476439945
  0
LINE
  5
280
100
AcDbEntity
  8
0
100
AcDbLine
 62
7
  6
BYLAYER
 10
50.2584495578
 20
46.6187141865
 11
50.5554327966
 21
46.7901765159
  0
LINE
  5
281
100
AcDbEntity
  8
0
100
AcDbLine
 62
7
  6
BYLAYER
 10
42.8474625402
 20
42.163418084
 11
43.0221490269
 21
42.2642727721
  0
LINE
  5
282
100
AcDbEntity
  8
0
100
AcDbLine
 62
7
  6
BYLAYER
 10
43.4521013572
 20
42.016045294
 11
45.0040520202
 21
42.9120590786
  0
LINE
  5
283
100
AcDbEntity
  8
0
100
AcDbLine
 62
7
  6
BYLAYER
 10
44.0930480262
 20
46.6789884333
 11
45.0422508435
 21
46.7637820957
  0
LINE
  5
284
100
AcDbEntity
  8
0
100
AcDbLine
 62
7
  6
BYLAYER
 10
44.6179824909
 20
46.9619881927
 11
43.668037787
 21
46.8771282566
  0
LINE
  5
285
100
AcDbEntity
  8
0
100
AcDbLine
 62
7
  6
BYLAYER
 10
44.2938076375
 20
45.12778675
 11
45.2879381545
 21
45.0891251164
  0
LINE
  5
286
100
AcDbEntity
  8
0
100
AcDbLine
 62
7
  6
BYLAYER
 10
45.4547584453
 20
45.6106158886
 11
44.4614043231
 21
45.6492473283
  0
LINE
  5
287
100
AcDbEntity
  8
0
100
AcDbLine
 62
7
  6
BYLAYER
 10
44.4135903258
 20
45.7952525278
 11
45.406944448
 21
45.7566210881
  0
LINE
  5
288
100
AcDbEntity
  8
0
100
AcDbLine
 62
7
  6
BYLAYER
 10
45.0040425559
 20
45.9560310197
 11
44.0099120389
 21
45.9946926533
  0
LINE
  5
289
100
AcDbEntity
  8
0
100
AcDbLine
 62
7
  6
BYLAYER
 10
44.5285313611
 20
44.2495182198
 11
45.5592817576
 21
44.0876292549
  0
LINE
  5
28A
100
AcDbEntity
  8
0
100
AcDbLine
 62
7
  6
BYLAYER
 10
45.7488184037
 20
44.6062018163
 11
44.7188730012
 21
44.7679643494
  0
LINE
  5
28B
100
AcDbEntity
  8
0
100
AcDbLine
 62
7
  6
BYLAYER
 10
44.6801776781
 20
44.9130664066
 11
45.7101230806
 21
44.7513038735
  0
LINE
  5
28C
100
AcDbEntity
  8
0
100
AcDbLine
 62
7
  6
BYLAYER
 10
44.7062996791
 20
43.3833361865
 11
45.7658253223
 21
43.099451963
  0
LINE
  5
28D
100
AcDbEntity
  8
0
100
AcDbLine
 62
7
  6
BYLAYER
 10
46.2486360017
 20
40.0124270878
 11
46.2397985536
 21
40.0164290794
  0
LINE
  5
28E
100
AcDbEntity
  8
0
100
AcDbLine
 62
7
  6
BYLAYER
 10
45.9881108416
 20
38.3877477571
 11
45.9787615689
 21
38.3921254401
  0
LINE
  5
28F
100
AcDbEntity
  8
0
100
AcDbLine
 62
7
  6
BYLAYER
 10
46.1522021301
 20
39.1739357266
 11
46.1428378438
 21
39.1783229528
  0
LINE
  5
290
100
AcDbEntity
  8
0
100
AcDbLine
 62
7
  6
BYLAYER
 10
43.0221490269
 20
39.4065143121
 11
43.4521013572
 21
39.1582868341
  0
LINE
  5
291
100
AcDbEntity
  8
0
100
AcDbLine
 62
7
  6
BYLAYER
 10
35.931188685
 20
56.728976372
 11
36.0267899639
 21
55.4120052608
  0
LINE
  5
292
100
AcDbEntity
  8
0
100
AcDbLine
 62
7
  6
BYLAYER
 10
36.5837325986
 20
55.4491171512
 11
36.4882059821
 21
56.7650597361
  0
LINE
  5
293
100
AcDbEntity
  8
0
100
AcDbLine
 62
7
  6
BYLAYER
 10
36.6959879751
 20
55.093257062
 11
36.6003866961
 21
56.4102281731
  0
LINE
  5
294
100
AcDbEntity
  8
0
100
AcDbLine
 62
7
  6
BYLAYER
 10
36.7089634867
 20
56.3530167197
 11
36.7089634867
 21
55.0864200011
  0
LINE
  5
295
100
AcDbEntity
  8
0
100
AcDbLine
 62
7
  6
BYLAYER
 10
37.2675778439
 20
56.3600956385
 11
37.2675778439
 21
55.0944881049
  0
LINE
  5
296
100
AcDbEntity
  8
0
100
AcDbLine
 62
7
  6
BYLAYER
 10
37.3807177256
 20
54.6985912643
 11
37.3807153999
 21
56.2947771177
  0
LINE
  5
297
100
AcDbEntity
  8
0
100
AcDbLine
 62
7
  6
BYLAYER
 10
37.4892945162
 20
55.8970286324
 11
37.3936932372
 21
54.6904458722
  0
LINE
  5
298
100
AcDbEntity
  8
0
100
AcDbLine
 62
7
  6
BYLAYER
 10
37.9518536117
 20
54.6706360451
 11
38.0473802281
 21
55.8762764899
  0
LINE
  5
299
100
AcDbEntity
  8
0
100
AcDbLine
 62
7
  6
BYLAYER
 10
38.1600872616
 20
55.799820466
 11
38.0645606452
 21
54.5941800212
  0
LINE
  5
29A
100
AcDbEntity
  8
0
100
AcDbLine
 62
7
  6
BYLAYER
 10
38.0628912483
 20
54.2364882083
 11
38.1584925273
 21
55.4430709684
  0
LINE
  5
29B
100
AcDbEntity
  8
0
100
AcDbLine
 62
7
  6
BYLAYER
 10
38.1600870725
 20
55.7998180788
 11
38.1609975319
 21
55.8056860838
  0
LINE
  5
29C
100
AcDbEntity
  8
0
100
AcDbLine
 62
7
  6
BYLAYER
 10
38.2662429162
 20
55.3644824602
 11
38.0757679416
 21
54.2270964816
  0
LINE
  5
29D
100
AcDbEntity
  8
0
100
AcDbLine
 62
7
  6
BYLAYER
 10
38.6313521503
 20
54.1807867421
 11
38.821678368
 21
55.3172844463
  0
LINE
  5
29E
100
AcDbEntity
  8
0
100
AcDbLine
 62
7
  6
BYLAYER
 10
38.9330971103
 20
55.2302727956
 11
38.7427708927
 21
54.0937750914
  0
LINE
  5
29F
100
AcDbEntity
  8
0
100
AcDbLine
 62
7
  6
BYLAYER
 10
38.7373167907
 20
53.7104647772
 11
38.9277917652
 21
54.8478507556
  0
LINE
  5
2A0
100
AcDbEntity
  8
0
100
AcDbLine
 62
7
  6
BYLAYER
 10
39.6938618742
 20
54.5904687084
 11
39.4101845529
 21
53.5317631785
  0
LINE
  5
2A1
100
AcDbEntity
  8
0
100
AcDbLine
 62
7
  6
BYLAYER
 10
39.3988615673
 20
53.1245243269
 11
39.6827606078
 21
54.1840573295
  0
LINE
  5
2A2
100
AcDbEntity
  8
0
100
AcDbLine
 62
7
  6
BYLAYER
 10
50.4193809474
 20
45.4261170723
 11
50.9584082126
 21
45.7373227514
  0
LINE
  5
2A3
100
AcDbEntity
  8
0
100
AcDbLine
 62
7
  6
BYLAYER
 10
42.8622027673
 20
39.5208553876
 11
45.0600280219
 21
40.7897628157
  0
LINE
  5
2A4
100
AcDbEntity
  8
0
100
AcDbLine
 62
7
  6
BYLAYER
 10
45.3295282881
 20
44.9491727507
 11
44.2987778915
 21
45.1110617157
  0
LINE
  5
2A5
100
AcDbEntity
  8
0
100
AcDbLine
 62
7
  6
BYLAYER
 10
45.9787615229
 20
43.6123869222
 11
44.9200633465
 21
43.8960494382
  0
LINE
  5
2A6
100
AcDbEntity
  8
0
100
AcDbLine
 62
7
  6
BYLAYER
 10
44.8907811923
 20
44.0391440389
 11
45.9494793687
 21
43.7554815229
  0
LINE
  5
2A7
100
AcDbEntity
  8
0
100
AcDbLine
 62
7
  6
BYLAYER
 10
45.5919625013
 20
43.9490762086
 11
44.5324368579
 21
44.2329604322
  0
LINE
  5
2A8
100
AcDbEntity
  8
0
100
AcDbLine
 62
7
  6
BYLAYER
 10
44.8257596673
 20
42.5358328183
 11
45.9059969274
 21
42.1321138666
  0
LINE
  5
2A9
100
AcDbEntity
  8
0
100
AcDbLine
 62
7
  6
BYLAYER
 10
46.1428377968
 20
42.6367347378
 11
45.063444179
 21
43.0401383937
  0
LINE
  5
2AA
100
AcDbEntity
  8
0
100
AcDbLine
 62
7
  6
BYLAYER
 10
45.0437980486
 20
43.1801365015
 11
46.1231916664
 21
42.7767328456
  0
LINE
  5
2AB
100
AcDbEntity
  8
0
100
AcDbLine
 62
7
  6
BYLAYER
 10
45.7893480423
 20
42.963352662
 11
44.7091107823
 21
43.3670716137
  0
LINE
  5
2AC
100
AcDbEntity
  8
0
100
AcDbLine
 62
7
  6
BYLAYER
 10
46.2354745356
 20
41.8203613716
 11
46.2299379659
 21
41.8225066876
  0
LINE
  5
2AD
100
AcDbEntity
  8
0
100
AcDbLine
 62
7
  6
BYLAYER
 10
46.2765231736
 20
40.8968278317
 11
46.2689057688
 21
40.9000653261
  0
LINE
  5
2AE
100
AcDbEntity
  8
0
100
AcDbLine
 62
7
  6
BYLAYER
 10
44.8860021631
 20
41.7134581277
 11
45.9787297821
 21
41.1929769927
  0
LINE
  5
2AF
100
AcDbEntity
  8
0
100
AcDbLine
 62
7
  6
BYLAYER
 10
46.2397985061
 20
41.6866705654
 11
45.147924284
 21
42.2067452157
  0
LINE
  5
2B0
100
AcDbEntity
  8
0
100
AcDbLine
 62
7
  6
BYLAYER
 10
45.1380636963
 20
42.3425813605
 11
46.2299379184
 21
41.8225067102
  0
LINE
  5
2B1
100
AcDbEntity
  8
0
100
AcDbLine
 62
7
  6
BYLAYER
 10
45.9201825584
 20
41.9995041321
 11
44.8274549393
 21
42.5199852671
  0
LINE
  5
2B2
100
AcDbEntity
  8
0
100
AcDbLine
 62
7
  6
BYLAYER
 10
44.8865686847
 20
40.9224708824
 11
45.9834703457
 21
40.2891887399
  0
LINE
  5
2B3
100
AcDbEntity
  8
0
100
AcDbLine
 62
7
  6
BYLAYER
 10
43.4521013572
 20
42.016045294
 11
43.0221490269
 21
42.2642727721
  0
LINE
  5
2B4
100
AcDbEntity
  8
0
100
AcDbLine
 62
7
  6
BYLAYER
 10
45.1728607169
 20
41.4022125295
 11
46.2689057211
 21
40.7694249669
  0
LINE
  5
2B5
100
AcDbEntity
  8
0
100
AcDbLine
 62
7
  6
BYLAYER
 10
44.8274549206
 20
40.1688909732
 11
45.9201825396
 21
39.4276274827
  0
LINE
  5
2B6
100
AcDbEntity
  8
0
100
AcDbLine
 62
7
  6
BYLAYER
 10
44.7091107621
 20
39.4584535982
 11
45.7893480221
 21
38.6148502224
  0
LINE
  5
2B7
100
AcDbEntity
  8
0
100
AcDbLine
 62
7
  6
BYLAYER
 10
34.4069206038
 20
57.2299960927
 11
34.6908196443
 21
55.8426521313
  0
LINE
  5
2B8
100
AcDbEntity
  8
0
100
AcDbLine
 62
7
  6
BYLAYER
 10
35.1618894468
 20
57.0220463094
 11
35.3523644213
 21
55.664723751
  0
LINE
  5
2B9
100
AcDbEntity
  8
0
100
AcDbLine
 62
7
  6
BYLAYER
 10
37.9640755945
 20
54.6706333246
 11
37.9640755945
 21
54.6150227778
  0
LINE
  5
2BA
100
AcDbEntity
  8
0
100
AcDbLine
 62
7
  6
BYLAYER
 10
32.7300127252
 20
29.5117092168
 11
32.733324811
 21
29.5167484977
  0
LINE
  5
2BB
100
AcDbEntity
  8
0
100
AcDbLine
 62
7
  6
BYLAYER
 10
32.6826586798
 20
29.569159326
 11
32.6864238185
 21
29.5735940821
  0
LINE
  5
2BC
100
AcDbEntity
  8
0
100
AcDbLine
 62
7
  6
BYLAYER
 10
32.7303912565
 20
29.5286394109
 11
32.7196669722
 21
29.5160052384
  0
LINE
  5
2BD
100
AcDbEntity
  8
0
100
AcDbLine
 62
7
  6
BYLAYER
 10
33.3391064427
 20
29.6625525634
 11
32.9047471777
 21
29.1568901321
  0
LINE
  5
2BE
100
AcDbEntity
  8
0
100
AcDbLine
 62
7
  6
BYLAYER
 10
22.327669802
 20
21.2973577283
 11
24.0783230436
 21
22.9037827398
  0
LINE
  5
2BF
100
AcDbEntity
  8
0
100
AcDbLine
 62
7
  6
BYLAYER
 10
44.975681168
 20
40.0379207973
 11
43.4521013572
 21
39.1582868341
  0
LINE
  5
2C0
100
AcDbEntity
  8
0
100
AcDbLine
 62
7
  6
BYLAYER
 10
50.8129058128
 20
42.2395915168
 11
50.3510214054
 21
41.9729240217
  0
LINE
  5
2C1
100
AcDbEntity
  8
0
100
AcDbLine
 62
7
  6
BYLAYER
 10
48.3497194833
 20
51.616643651
 11
49.1638175863
 21
51.6893682139
  0
LINE
  5
2C2
100
AcDbEntity
  8
0
100
AcDbLine
 62
7
  6
BYLAYER
 10
46.2689057211
 20
40.9000653536
 11
44.8865686672
 21
41.6981482276
  0
LINE
  5
2C3
100
AcDbEntity
  8
0
100
AcDbLine
 62
7
  6
BYLAYER
 10
46.2299379184
 20
39.8919787351
 11
45.1380636963
 21
40.6326633147
  0
LINE
  5
2C4
100
AcDbEntity
  8
0
100
AcDbLine
 62
7
  6
BYLAYER
 10
45.978729798
 20
40.1665516206
 11
44.886002179
 21
40.9078151112
  0
LINE
  5
2C5
100
AcDbEntity
  8
0
100
AcDbLine
 62
7
  6
BYLAYER
 10
46.1231916664
 20
39.0610097659
 11
45.0437980486
 21
39.9039543054
  0
LINE
  5
2C6
100
AcDbEntity
  8
0
100
AcDbLine
 62
7
  6
BYLAYER
 10
45.9059969129
 20
39.3113975306
 11
44.8257596527
 21
40.1550009065
  0
LINE
  5
2C7
100
AcDbEntity
  8
0
100
AcDbLine
 62
7
  6
BYLAYER
 10
44.5324368797
 20
38.7965656146
 11
45.591962523
 21
37.8570426846
  0
LINE
  5
2C8
100
AcDbEntity
  8
0
100
AcDbLine
 62
7
  6
BYLAYER
 10
45.9494793687
 20
38.2828422346
 11
44.8907811923
 21
39.2216314173
  0
LINE
  5
2C9
100
AcDbEntity
  8
0
100
AcDbLine
 62
7
  6
BYLAYER
 10
45.7658253353
 20
38.5059119853
 11
44.706299692
 21
39.4454349153
  0
LINE
  5
2CA
100
AcDbEntity
  8
0
100
AcDbLine
 62
7
  6
BYLAYER
 10
44.2987778685
 20
38.1882643899
 11
45.3295282651
 21
37.1599722425
  0
LINE
  5
2CB
100
AcDbEntity
  8
0
100
AcDbLine
 62
7
  6
BYLAYER
 10
45.7101230806
 20
37.5633984662
 11
44.6801776781
 21
38.5908875394
  0
LINE
  5
2CC
100
AcDbEntity
  8
0
100
AcDbLine
 62
7
  6
BYLAYER
 10
45.5592817461
 20
37.7562252761
 11
44.5285313493
 21
38.7845174237
  0
LINE
  5
2CD
100
AcDbEntity
  8
0
100
AcDbLine
 62
7
  6
BYLAYER
 10
44.0099120145
 20
37.6381794635
 11
45.0040425315
 21
36.5289440228
  0
LINE
  5
2CE
100
AcDbEntity
  8
0
100
AcDbLine
 62
7
  6
BYLAYER
 10
45.406944448
 20
36.9081538621
 11
44.4135903258
 21
38.0165230136
  0
LINE
  5
2CF
100
AcDbEntity
  8
0
100
AcDbLine
 62
7
  6
BYLAYER
 10
45.2879381443
 20
37.0680429298
 11
44.2938076272
 21
38.1772783706
  0
LINE
  5
2D0
100
AcDbEntity
  8
0
100
AcDbLine
 62
7
  6
BYLAYER
 10
43.6680377614
 20
37.1504973139
 11
44.6179824653
 21
35.9687605314
  0
LINE
  5
2D1
100
AcDbEntity
  8
0
100
AcDbLine
 62
7
  6
BYLAYER
 10
45.0422508435
 20
36.3220952294
 11
44.0930480262
 21
37.5029091006
  0
LINE
  5
2D2
100
AcDbEntity
  8
0
100
AcDbLine
 62
7
  6
BYLAYER
 10
44.9538595926
 20
36.4466024435
 11
44.0039148886
 21
37.6283392261
  0
LINE
  5
2D3
100
AcDbEntity
  8
0
100
AcDbLine
 62
7
  6
BYLAYER
 10
43.2757569786
 20
36.7289294967
 11
44.1742862166
 21
35.483685103
  0
LINE
  5
2D4
100
AcDbEntity
  8
0
100
AcDbLine
 62
7
  6
BYLAYER
 10
44.6188178056
 20
35.8096828282
 11
43.7209902998
 21
37.0539547126
  0
LINE
  5
2D5
100
AcDbEntity
  8
0
100
AcDbLine
 62
7
  6
BYLAYER
 10
30.1031813704
 20
55.9264627044
 11
29.9645824019
 21
56.1185428073
  0
LINE
  5
2D6
100
AcDbEntity
  8
0
100
AcDbLine
 62
7
  6
BYLAYER
 10
44.5595886307
 20
35.8966333545
 11
43.6610593926
 21
37.1418777485
  0
LINE
  5
2D7
100
AcDbEntity
  8
0
100
AcDbLine
 62
7
  6
BYLAYER
 10
30.1067575573
 20
55.9263731959
 11
29.9153949622
 21
56.1915768071
  0
LINE
  5
2D8
100
AcDbEntity
  8
0
100
AcDbLine
 62
7
  6
BYLAYER
 10
29.9815552467
 20
56.2529406309
 11
30.1941699719
 21
55.9241853469
  0
LINE
  5
2D9
100
AcDbEntity
  8
0
100
AcDbLine
 62
7
  6
BYLAYER
 10
42.8360551597
 20
36.3766843977
 11
43.6763305818
 21
35.0774094543
  0
LINE
  5
2DA
100
AcDbEntity
  8
0
100
AcDbLine
 62
7
  6
BYLAYER
 10
30.9732162731
 20
55.7321607724
 11
30.413350597
 21
56.5978524558
  0
LINE
  5
2DB
100
AcDbEntity
  8
0
100
AcDbLine
 62
7
  6
BYLAYER
 10
44.1398679153
 20
35.3748164262
 11
43.2678504892
 21
36.721596204
  0
LINE
  5
2DC
100
AcDbEntity
  8
0
100
AcDbLine
 62
7
  6
BYLAYER
 10
30.4867738452
 20
56.64798593
 11
31.0284113968
 21
55.7098473791
  0
LINE
  5
2DD
100
AcDbEntity
  8
0
100
AcDbLine
 62
7
  6
BYLAYER
 10
42.3950920424
 20
36.022288344
 11
43.1279053039
 21
34.7530255885
  0
LINE
  5
2DE
100
AcDbEntity
  8
0
100
AcDbLine
 62
7
  6
BYLAYER
 10
43.6029073
 20
35.0272759607
 11
42.8272806971
 21
36.370693187
  0
LINE
  5
2DF
100
AcDbEntity
  8
0
100
AcDbLine
 62
7
  6
BYLAYER
 10
31.7374024776
 20
55.5788190955
 11
30.9617758748
 21
56.9222363216
  0
LINE
  5
2E0
100
AcDbEntity
  8
0
100
AcDbLine
 62
7
  6
BYLAYER
 10
43.6090462705
 20
35.0208056193
 11
43.6047097673
 21
35.0283166214
  0
LINE
  5
2E1
100
AcDbEntity
  8
0
100
AcDbLine
 62
7
  6
BYLAYER
 10
30.9635783372
 20
56.9232769795
 11
30.9592466402
 21
56.9307796573
  0
LINE
  5
2E2
100
AcDbEntity
  8
0
100
AcDbLine
 62
7
  6
BYLAYER
 10
31.0419033499
 20
56.9607579311
 11
31.7469781467
 21
55.5834226385
  0
LINE
  5
2E3
100
AcDbEntity
  8
0
100
AcDbLine
 62
7
  6
BYLAYER
 10
42.2421279976
 20
35.0815689218
 11
42.5331842305
 21
34.5130022626
  0
LINE
  5
2E4
100
AcDbEntity
  8
0
100
AcDbLine
 62
7
  6
BYLAYER
 10
43.0477778538
 20
34.7145039904
 11
42.3898870013
 21
35.9996673434
  0
LINE
  5
2E5
100
AcDbEntity
  8
0
100
AcDbLine
 62
7
  6
BYLAYER
 10
32.2615717449
 20
55.7849243549
 11
31.5312321032
 21
57.2134930353
  0
LINE
  5
2E6
100
AcDbEntity
  8
0
100
AcDbLine
 62
7
  6
BYLAYER
 10
31.6427187149
 20
57.188876158
 11
32.2718756607
 21
55.7881051519
  0
LINE
  5
2E7
100
AcDbEntity
  8
0
100
AcDbLine
 62
7
  6
BYLAYER
 10
42.4083112399
 20
34.5654918704
 11
42.2421279976
 21
34.9354864623
  0
LINE
  5
2E8
100
AcDbEntity
  8
0
100
AcDbLine
 62
7
  6
BYLAYER
 10
32.7759707311
 20
56.0111794594
 11
32.1473051436
 21
57.410856493
  0
LINE
  5
2E9
100
AcDbEntity
  8
0
100
AcDbLine
 62
7
  6
BYLAYER
 10
42.4469624303
 20
34.4863857327
 11
42.2421279976
 21
34.9424343168
  0
LINE
  5
2EA
100
AcDbEntity
  8
0
100
AcDbLine
 62
7
  6
BYLAYER
 10
32.8221445764
 20
55.9153247053
 11
32.1929876306
 21
57.3160957111
  0
LINE
  5
2EB
100
AcDbEntity
  8
0
100
AcDbLine
 62
7
  6
BYLAYER
 10
32.2846475476
 20
57.3306045856
 11
32.8330983782
 21
55.9170585795
  0
LINE
  5
2EC
100
AcDbEntity
  8
0
100
AcDbLine
 62
7
  6
BYLAYER
 10
33.3507995755
 20
56.1089259185
 11
32.8027770734
 21
57.5213679751
  0
LINE
  5
2ED
100
AcDbEntity
  8
0
100
AcDbLine
 62
7
  6
BYLAYER
 10
33.4148546742
 20
55.9690277211
 11
32.8664038437
 21
57.382573727
  0
LINE
  5
2EE
100
AcDbEntity
  8
0
100
AcDbLine
 62
7
  6
BYLAYER
 10
32.9628043871
 20
57.3848645638
 11
33.4263750604
 21
55.9693014964
  0
LINE
  5
2EF
100
AcDbEntity
  8
0
100
AcDbLine
 62
7
  6
BYLAYER
 10
33.9558679901
 20
56.1297288798
 11
33.4926593556
 21
57.5441864226
  0
LINE
  5
2F0
100
AcDbEntity
  8
0
100
AcDbLine
 62
7
  6
BYLAYER
 10
34.0351911567
 20
55.94562469
 11
33.5716204835
 21
57.3611877573
  0
LINE
  5
2F1
100
AcDbEntity
  8
0
100
AcDbLine
 62
7
  6
BYLAYER
 10
33.6720278602
 20
57.3512430826
 11
34.0471903235
 21
55.9444362433
  0
LINE
  5
2F2
100
AcDbEntity
  8
0
100
AcDbLine
 62
7
  6
BYLAYER
 10
34.5865710389
 20
56.0734300204
 11
34.2117015695
 21
57.4791381734
  0
LINE
  5
2F3
100
AcDbEntity
  8
0
100
AcDbLine
 62
7
  6
BYLAYER
 10
34.6784328887
 20
55.8452937232
 11
34.3032704254
 21
57.2521005623
  0
LINE
  5
2F4
100
AcDbEntity
  8
0
100
AcDbLine
 62
7
  6
BYLAYER
 10
35.2381086909
 20
55.9404578085
 11
34.9544313695
 21
57.3267182839
  0
LINE
  5
2F5
100
AcDbEntity
  8
0
100
AcDbLine
 62
7
  6
BYLAYER
 10
35.3396844121
 20
55.6687984
 11
35.0557853717
 21
57.0561423614
  0
LINE
  5
2F6
100
AcDbEntity
  8
0
100
AcDbLine
 62
7
  6
BYLAYER
 10
35.9055223511
 20
55.731824243
 11
35.7151961334
 21
57.0880867615
  0
LINE
  5
2F7
100
AcDbEntity
  8
0
100
AcDbLine
 62
7
  6
BYLAYER
 10
36.0139132037
 20
55.4174819563
 11
35.8234382292
 21
56.7748045147
  0
LINE
  5
2F8
100
AcDbEntity
  8
0
100
AcDbLine
 62
7
  6
BYLAYER
 10
42.4182135435
 20
36.1227739092
 11
42.8323667003
 21
36.3618839185
  0
LINE
  5
2F9
100
AcDbEntity
  8
0
100
AcDbLine
 62
7
  6
BYLAYER
 10
32.6041553303
 20
29.6906684862
 11
32.9603890655
 21
29.8963389015
  0
LINE
  5
2FA
100
AcDbEntity
  8
0
100
AcDbLine
 62
7
  6
BYLAYER
 10
23.0649624171
 20
23.9920322046
 11
32.6997517283
 21
29.5546472027
  0
LINE
  5
2FB
100
AcDbEntity
  8
0
100
AcDbLine
 62
7
  6
BYLAYER
 10
50.9315918995
 20
39.9217898342
 11
48.9312518307
 21
38.7668998508
  0
LINE
  5
2FC
100
AcDbEntity
  8
0
100
AcDbLine
 62
7
  6
BYLAYER
 10
43.6774023826
 20
35.0599795004
 11
43.6891734323
 21
35.0667754786
  0
LINE
  5
2FD
100
AcDbEntity
  8
0
100
AcDbLine
 62
7
  6
BYLAYER
 10
43.6933493601
 20
35.0691864372
 11
44.0769160928
 21
35.2906374717
  0
LINE
  5
2FE
100
AcDbEntity
  8
0
100
AcDbLine
 62
7
  6
BYLAYER
 10
43.609044736
 20
35.0208082772
 11
43.6353274437
 21
35.0358365486
  0
LINE
  5
2FF
100
AcDbEntity
  8
0
100
AcDbLine
 62
7
  6
BYLAYER
 10
43.6932864396
 20
35.0692954193
 11
43.6890466373
 21
35.0669950954
  0
LINE
  5
300
100
AcDbEntity
  8
0
100
AcDbLine
 62
7
  6
BYLAYER
 10
20.5229955425
 20
50.5916371158
 11
21.1831452392
 21
50.7172187928
  0
LINE
  5
301
100
AcDbEntity
  8
0
100
AcDbLine
 62
7
  6
BYLAYER
 10
20.7461485291
 20
50.2534620459
 11
20.7633474717
 21
50.2565973074
  0
LINE
  5
302
100
AcDbEntity
  8
0
100
AcDbLine
 62
7
  6
BYLAYER
 10
42.2421279976
 20
36.5868534718
 11
42.2421279976
 21
38.1561233981
  0
LINE
  5
303
100
AcDbEntity
  8
0
100
AcDbLine
 62
7
  6
BYLAYER
 10
42.2421279976
 20
39.7023174168
 11
42.2421279976
 21
42.6753173213
  0
LINE
  5
304
100
AcDbEntity
  8
0
100
AcDbLine
 62
7
  6
BYLAYER
 10
43.7552707412
 20
58.4176322075
 11
43.7552707409
 21
57.3374140487
  0
LWPOLYLINE
  5
305
100
AcDbEntity
  8
0
100
AcDbPolyline
 62
7
  6
BYLAYER
 90
3
 70
0
 10
42.9315440822
 20
40.356990167
 10
42.5551775875
 20
37.8303753373
 10
42.2421279976
 20
37.3016668359
  0
LINE
  5
306
100
AcDbEntity
  8
0
100
AcDbLine
 62
7
  6
BYLAYER
 10
42.2421279976
 20
34.4257139786
 11
41.9265833118
 21
33.9861591016
  0
LINE
  5
307
100
AcDbEntity
  8
0
100
AcDbLine
 62
7
  6
BYLAYER
 10
44.7686577221
 20
35.7888637512
 11
44.7662388379
 21
35.786729027
  0
LINE
  5
308
100
AcDbEntity
  8
0
100
AcDbLine
 62
7
  6
BYLAYER
 10
44.240539323
 20
35.3993630346
 11
44.2365903053
 21
35.396742436
  0
LINE
  5
309
100
AcDbEntity
  8
0
100
AcDbLine
 62
7
  6
BYLAYER
 10
44.2445280741
 20
35.3926951691
 11
44.2405367855
 21
35.3901396239
  0
LINE
  5
30A
100
AcDbEntity
  8
0
100
AcDbLine
 62
7
  6
BYLAYER
 10
51.3572273709
 20
38.0848070026
 11
48.182331151
 21
36.2517907571
  0
LINE
  5
30B
100
AcDbEntity
  8
0
100
AcDbLine
 62
7
  6
BYLAYER
 10
32.5831516196
 20
26.8072308822
 11
39.5736336235
 21
30.8431634576
  0
LINE
  5
30C
100
AcDbEntity
  8
0
100
AcDbLine
 62
7
  6
BYLAYER
 10
50.5700674882
 20
36.9649392277
 11
47.3951712683
 21
35.1319229822
  0
LINE
  5
30D
100
AcDbEntity
  8
0
100
AcDbLine
 62
7
  6
BYLAYER
 10
50.4441465228
 20
36.8622796862
 11
47.33353819
 21
35.066379848
  0
LINE
  5
30E
100
AcDbEntity
  8
0
100
AcDbLine
 62
7
  6
BYLAYER
 10
22.327669802
 20
21.2973577283
 11
31.6312134237
 21
26.2780618878
  0
LINE
  5
30F
100
AcDbEntity
  8
0
100
AcDbLine
 62
7
  6
BYLAYER
 10
22.2570384227
 20
21.2603223919
 11
22.327669802
 21
21.2973577283
  0
LINE
  5
310
100
AcDbEntity
  8
0
100
AcDbLine
 62
7
  6
BYLAYER
 10
37.5721614148
 20
54.6852813353
 11
34.2871238652
 21
54.247598357
  0
LINE
  5
311
100
AcDbEntity
  8
0
100
AcDbLine
 62
7
  6
BYLAYER
 10
34.2755220674
 20
54.2327529282
 11
34.2857387077
 21
54.2290362464
  0
LWPOLYLINE
  5
312
100
AcDbEntity
  8
0
100
AcDbPolyline
 62
7
  6
BYLAYER
 90
3
 70
0
 10
33.5800045779
 20
54.3852519541
 10
35.2995036691
 20
53.7269240056
 10
37.5922916541
 20
52.0052197543
  0
LINE
  5
313
100
AcDbEntity
  8
0
100
AcDbLine
 62
7
  6
BYLAYER
 10
34.3136029421
 20
54.0421702875
 11
35.2417258213
 21
53.6760721586
  0
LINE
  5
314
100
AcDbEntity
  8
0
100
AcDbLine
 62
7
  6
BYLAYER
 10
34.2871238652
 20
54.1538987495
 11
34.297336101
 21
54.1496460217
  0
LINE
  5
315
100
AcDbEntity
  8
0
100
AcDbLine
 62
7
  6
BYLAYER
 10
37.7311300792
 20
52.1367700622
 11
38.9571209897
 21
51.4289598928
  0
LWPOLYLINE
  5
316
100
AcDbEntity
  8
0
100
AcDbPolyline
 62
7
  6
BYLAYER
 90
5
 70
0
 10
35.2417258213
 20
53.6760721586
 10
37.6180103476
 20
51.8695627935
 10
39.7616875879
 20
49.3707033695
 10
41.4629194781
 20
46.4240996575
 10
42.5551775875
 20
43.3181857591
  0
LINE
  5
317
100
AcDbEntity
  8
0
100
AcDbLine
 62
7
  6
BYLAYER
 10
39.9124113311
 20
49.0236774539
 11
39.8180358933
 21
49.1619547347
  0
LINE
  5
318
100
AcDbEntity
  8
0
100
AcDbLine
 62
7
  6
BYLAYER
 10
40.0056512707
 20
48.8843795278
 11
39.9124113311
 21
49.0236774539
  0
LINE
  5
319
100
AcDbEntity
  8
0
100
AcDbLine
 62
7
  6
BYLAYER
 10
42.5551775875
 20
43.3181857591
 11
42.9315440822
 21
40.356990167
  0
LINE
  5
31A
100
AcDbEntity
  8
0
100
AcDbLine
 62
7
  6
BYLAYER
 10
51.7147540581
 20
52.6743666708
 11
51.9698525984
 21
53.2240290892
  0
LINE
  5
31B
100
AcDbEntity
  8
0
100
AcDbLine
 62
7
  6
BYLAYER
 10
51.969852537
 20
51.4277236488
 11
51.6112280555
 21
50.6549932384
  0
LINE
  5
31C
100
AcDbEntity
  8
0
100
AcDbLine
 62
7
  6
BYLAYER
 10
51.3745095678
 20
45.4030423848
 11
50.7427245753
 21
44.4086271276
  0
LINE
  5
31D
100
AcDbEntity
  8
0
100
AcDbLine
 62
7
  6
BYLAYER
 10
44.7312393147
 20
35.8446269968
 11
44.7291342301
 21
35.8420549749
  0
LINE
  5
31E
100
AcDbEntity
  8
0
100
AcDbLine
 62
7
  6
BYLAYER
 10
46.3109278118
 20
34.2074849487
 11
45.2717188719
 21
33.5589348359
  0
LWPOLYLINE
  5
31F
100
AcDbEntity
  8
0
100
AcDbPolyline
 62
7
  6
BYLAYER
 90
3
 70
0
 10
29.6798280791
 20
55.9370588316
 10
30.5182849525
 20
55.9160730596
 10
33.3325454608
 20
54.7783692711
  0
LINE
  5
320
100
AcDbEntity
  8
0
100
AcDbLine
 62
7
  6
BYLAYER
 10
51.1659710286
 20
45.5234394428
 11
51.3745095678
 21
45.4030423848
  0
LINE
  5
321
100
AcDbEntity
  8
0
100
AcDbLine
 62
7
  6
BYLAYER
 10
51.5236931762
 20
45.5031912049
 11
51.518947332
 21
45.5059311573
  0
LINE
  5
322
100
AcDbEntity
  8
0
100
AcDbLine
 62
7
  6
BYLAYER
 10
50.1982413452
 20
46.6534746278
 11
50.2584495735
 21
46.6187141774
  0
LINE
  5
323
100
AcDbEntity
  8
0
100
AcDbLine
 62
7
  6
BYLAYER
 10
51.5896164869
 20
45.3727273631
 11
51.5271673054
 21
45.4087989491
  0
LINE
  5
324
100
AcDbEntity
  8
0
100
AcDbLine
 62
7
  6
BYLAYER
 10
51.285345109
 20
45.5484790851
 11
50.9584082126
 21
45.7373227514
  0
LINE
  5
325
100
AcDbEntity
  8
0
100
AcDbLine
 62
7
  6
BYLAYER
 10
51.5271673054
 20
45.5010267926
 11
51.5237000757
 21
45.5032310998
  0
LINE
  5
326
100
AcDbEntity
  8
0
100
AcDbLine
 62
7
  6
BYLAYER
 10
50.1544843709
 20
40.8885160707
 11
50.9315918995
 21
39.9217898342
  0
LINE
  5
327
100
AcDbEntity
  8
0
100
AcDbLine
 62
7
  6
BYLAYER
 10
50.7427247032
 20
46.9532018123
 11
50.7482616278
 21
46.9683477078
  0
LINE
  5
328
100
AcDbEntity
  8
0
100
AcDbLine
 62
7
  6
BYLAYER
 10
51.3293146475
 20
48.5577802587
 11
51.3745095678
 21
48.6814080087
  0
LINE
  5
329
100
AcDbEntity
  8
0
100
AcDbLine
 62
7
  6
BYLAYER
 10
51.5271673054
 20
45.2381280383
 11
51.5896164869
 21
45.3727273631
  0
LINE
  5
32A
100
AcDbEntity
  8
0
100
AcDbLine
 62
7
  6
BYLAYER
 10
51.5896210131
 20
49.6387481465
 11
51.5271673054
 21
49.5041831892
  0
LINE
  5
32B
100
AcDbEntity
  8
0
100
AcDbLine
 62
7
  6
BYLAYER
 10
50.5700674882
 20
36.9649392277
 11
50.4441328043
 21
36.8623034233
  0
LINE
  5
32C
100
AcDbEntity
  8
0
100
AcDbLine
 62
7
  6
BYLAYER
 10
37.6175997873
 20
59.8034846469
 11
36.7296612441
 21
59.7422782864
  0
LINE
  5
32D
100
AcDbEntity
  8
0
100
AcDbLine
 62
7
  6
BYLAYER
 10
50.1174226654
 20
40.766368254
 11
50.0949678047
 21
40.7209495731
  0
LINE
  5
32E
100
AcDbEntity
  8
0
100
AcDbLine
 62
7
  6
BYLAYER
 10
47.3223434645
 20
48.8409965261
 11
48.6117240119
 21
45.2240568508
  0
LWPOLYLINE
  5
32F
100
AcDbEntity
  8
0
100
AcDbPolyline
 62
7
  6
BYLAYER
 90
7
 70
0
 10
48.1572810466
 20
41.063939857
 10
47.5789482633
 20
44.6075809561
 10
46.2750602232
 20
48.2667092603
 10
44.3404076208
 20
51.7783942046
 10
41.9171067509
 20
54.8825547365
 10
39.1756112388
 20
57.3546259983
 10
37.7519444434
 20
58.2892858443
  0
LWPOLYLINE
  5
330
100
AcDbEntity
  8
0
100
AcDbPolyline
 62
7
  6
BYLAYER
 90
5
 70
0
 10
48.6117240119
 20
45.2240568508
 10
49.1886487089
 20
41.6843045792
 10
49.1882638139
 20
40.0449469799
 10
48.6115715594
 20
37.1772212376
 10
47.33353819
 20
35.066379848
  0
LINE
  5
331
100
AcDbEntity
  8
0
100
AcDbLine
 62
7
  6
BYLAYER
 10
51.5271673054
 20
49.5041831892
 11
51.5271673054
 21
49.241288903
  0
LINE
  5
332
100
AcDbEntity
  8
0
100
AcDbLine
 62
7
  6
BYLAYER
 10
51.5271673054
 20
45.5010267926
 11
51.5271673054
 21
45.2381280383
  0
LINE
  5
333
100
AcDbEntity
  8
0
100
AcDbLine
 62
7
  6
BYLAYER
 10
51.6112280781
 20
42.8789224424
 11
51.6112280977
 21
45.1144416518
  0
LINE
  5
334
100
AcDbEntity
  8
0
100
AcDbLine
 62
7
  6
BYLAYER
 10
51.6112280977
 20
49.9901268127
 11
51.6112280555
 21
50.6549932384
  0
LINE
  5
335
100
AcDbEntity
  8
0
100
AcDbLine
 62
7
  6
BYLAYER
 10
50.7427247032
 20
46.9532018123
 11
50.7437454309
 21
46.9655661621
  0
LINE
  5
336
100
AcDbEntity
  8
0
100
AcDbLine
 62
7
  6
BYLAYER
 10
50.7427247032
 20
46.9532018123
 11
50.7440488646
 21
46.9659154823
  0
LINE
  5
337
100
AcDbEntity
  8
0
100
AcDbLine
 62
7
  6
BYLAYER
 10
50.7772229545
 20
53.9125785581
 11
51.9698525984
 21
53.2240290892
  0
LINE
  5
338
100
AcDbEntity
  8
0
100
AcDbLine
 62
7
  6
BYLAYER
 10
43.7725343426
 20
57.3297114676
 11
43.75651674
 21
57.3429586439
  0
LINE
  5
339
100
AcDbEntity
  8
0
100
AcDbLine
 62
7
  6
BYLAYER
 10
43.7708408372
 20
57.3222565145
 11
43.7552707409
 21
57.3374140487
  0
LINE
  5
33A
100
AcDbEntity
  8
0
100
AcDbLine
 62
7
  6
BYLAYER
 10
48.2987993194
 20
51.5949655596
 11
48.3272890503
 21
51.5499744618
  0
LINE
  5
33B
100
AcDbEntity
  8
0
100
AcDbLine
 62
7
  6
BYLAYER
 10
48.3591634354
 20
51.6016841495
 11
48.3449668628
 21
51.6241719434
  0
LINE
  5
33C
100
AcDbEntity
  8
0
100
AcDbLine
 62
7
  6
BYLAYER
 10
48.3591604923
 20
51.6016826718
 11
48.346666163
 21
51.6249604378
  0
LINE
  5
33D
100
AcDbEntity
  8
0
100
AcDbLine
 62
7
  6
BYLAYER
 10
48.3022993883
 20
51.5965843919
 11
48.3272890503
 21
51.5499744618
  0
LINE
  5
33E
100
AcDbEntity
  8
0
100
AcDbLine
 62
7
  6
BYLAYER
 10
51.9698525984
 20
53.2240290892
 11
51.9698525984
 21
51.4277237813
  0
ARC
  5
33F
100
AcDbEntity
  8
0
100
AcDbCircle
 62
7
  6
BYLAYER
 10
-41.2974178659
 20
-110.9957042634
 40
176.1091809525
100
AcDbArc
 50
60.1978709759
 51
60.3139395825
  0
ARC
  5
340
100
AcDbEntity
  8
0
100
AcDbCircle
 62
7
  6
BYLAYER
 10
-33.3353905017
 20
-94.6925468804
 40
157.9136136809
100
AcDbArc
 50
60.2022995877
 51
60.3320842007
  0
ARC
  5
341
100
AcDbEntity
  8
0
100
AcDbCircle
 62
7
  6
BYLAYER
 10
-5.0913238693
 20
-48.4488430081
 40
104.6185083597
100
AcDbArc
 50
60.6899178759
 51
60.8993795794
  0
ARC
  5
342
100
AcDbEntity
  8
0
100
AcDbCircle
 62
7
  6
BYLAYER
 10
-0.7467949485
 20
-38.4099300251
 40
93.5613026996
100
AcDbArc
 50
60.6976592562
 51
60.9324206583
  0
ARC
  5
343
100
AcDbEntity
  8
0
100
AcDbCircle
 62
7
  6
BYLAYER
 10
-140.3033474954
 20
56.4192057589
 40
178.4645095906
100
AcDbArc
 50
359.6866117374
 51
359.8011468246
  0
ARC
  5
344
100
AcDbEntity
  8
0
100
AcDbCircle
 62
7
  6
BYLAYER
 10
-117.5432970873
 20
55.1415734923
 40
155.6088205331
100
AcDbArc
 50
359.6667421609
 51
359.7984471561
  0
ARC
  5
345
100
AcDbEntity
  8
0
100
AcDbCircle
 62
7
  6
BYLAYER
 10
-66.8971197497
 20
56.5072087062
 40
105.8379202647
100
AcDbArc
 50
359.1016631612
 51
359.308708889
  0
ARC
  5
346
100
AcDbEntity
  8
0
100
AcDbCircle
 62
7
  6
BYLAYER
 10
-53.6051595518
 20
55.2160948902
 40
92.3547500625
100
AcDbArc
 50
359.0658837509
 51
359.3037091161
  0
ARC
  5
347
100
AcDbEntity
  8
0
100
AcDbCircle
 62
7
  6
BYLAYER
 10
-42.1951578405
 20
56.6239381124
 40
81.9142633957
100
AcDbArc
 50
358.2931476806
 51
358.5775226492
  0
ARC
  5
348
100
AcDbEntity
  8
0
100
AcDbCircle
 62
7
  6
BYLAYER
 10
-32.0952592413
 20
55.3161441574
 40
71.5277044765
100
AcDbArc
 50
358.2441737252
 51
358.5705104443
  0
ARC
  5
349
100
AcDbEntity
  8
0
100
AcDbCircle
 62
7
  6
BYLAYER
 10
-29.499370362
 20
56.7612949343
 40
69.9950731282
100
AcDbArc
 50
357.2939908207
 51
357.6451190646
  0
ARC
  5
34A
100
AcDbEntity
  8
0
100
AcDbCircle
 62
7
  6
BYLAYER
 10
-21.475524994
 20
56.9095235647
 40
62.7456934839
100
AcDbArc
 50
356.1270773847
 51
356.5375771237
  0
ARC
  5
34B
100
AcDbEntity
  8
0
100
AcDbCircle
 62
7
  6
BYLAYER
 10
-21.0433700708
 20
55.4347020614
 40
61.1571271487
100
AcDbArc
 50
357.233706582
 51
357.6363011741
  0
ARC
  5
34C
100
AcDbEntity
  8
0
100
AcDbCircle
 62
7
  6
BYLAYER
 10
-15.687864483
 20
57.0580622982
 40
57.7297391545
100
AcDbArc
 50
354.808236146
 51
355.2729971692
  0
ARC
  5
34D
100
AcDbEntity
  8
0
100
AcDbCircle
 62
7
  6
BYLAYER
 10
-14.0600038608
 20
55.5632720498
 40
54.853163529
100
AcDbArc
 50
356.0567949342
 51
356.5271005515
  0
ARC
  5
34E
100
AcDbEntity
  8
0
100
AcDbCircle
 62
7
  6
BYLAYER
 10
-11.103366465
 20
57.1962131128
 40
53.913246148
100
AcDbArc
 50
353.3482239801
 51
353.8637859722
  0
ARC
  5
34F
100
AcDbEntity
  8
0
100
AcDbCircle
 62
7
  6
BYLAYER
 10
-7.217341252
 20
57.3137544124
 40
50.7902075832
100
AcDbArc
 50
351.7540870019
 51
352.3182070892
  0
ARC
  5
350
100
AcDbEntity
  8
0
100
AcDbCircle
 62
7
  6
BYLAYER
 10
-9.0230849126
 20
55.6926257133
 40
50.4931981421
100
AcDbArc
 50
354.7288633377
 51
355.2609641027
  0
ARC
  5
351
100
AcDbEntity
  8
0
100
AcDbCircle
 62
7
  6
BYLAYER
 10
-3.7615048767
 20
57.4015006619
 40
48.0906324313
100
AcDbArc
 50
350.0301274005
 51
350.6414682507
  0
ARC
  5
352
100
AcDbEntity
  8
0
100
AcDbCircle
 62
7
  6
BYLAYER
 10
-5.0325933636
 20
55.8133911023
 40
47.1764006215
100
AcDbArc
 50
353.2603768037
 51
353.850264555
  0
ARC
  5
353
100
AcDbEntity
  8
0
100
AcDbCircle
 62
7
  6
BYLAYER
 10
-0.5867523137
 20
57.4518003175
 40
45.663351827
100
AcDbArc
 50
348.1786190438
 51
348.8365139304
  0
ARC
  5
354
100
AcDbEntity
  8
0
100
AcDbCircle
 62
7
  6
BYLAYER
 10
-1.6488191176
 20
55.9165916116
 40
44.4619236484
100
AcDbArc
 50
351.6581671383
 51
352.3032394345
  0
ARC
  5
355
100
AcDbEntity
  8
0
100
AcDbCircle
 62
7
  6
BYLAYER
 10
7.1594169396
 20
-27.4523253659
 40
81.087734616
100
AcDbArc
 50
61.4209030167
 51
61.7081799031
  0
ARC
  5
356
100
AcDbEntity
  8
0
100
AcDbCircle
 62
7
  6
BYLAYER
 10
10.2930873835
 20
-19.4998560524
 40
72.3478054227
100
AcDbArc
 50
61.4312153503
 51
61.7538565174
  0
ARC
  5
357
100
AcDbEntity
  8
0
100
AcDbCircle
 62
7
  6
BYLAYER
 10
13.5176505814
 20
-16.7049762379
 40
69.3774433857
100
AcDbArc
 50
62.3532289237
 51
62.7074865768
  0
ARC
  5
358
100
AcDbEntity
  8
0
100
AcDbCircle
 62
7
  6
BYLAYER
 10
17.5870682446
 20
-9.9458885366
 40
62.263272404
100
AcDbArc
 50
63.4607755507
 51
63.8744594495
  0
ARC
  5
359
100
AcDbEntity
  8
0
100
AcDbCircle
 62
7
  6
BYLAYER
 10
16.0293720774
 20
-9.8108420588
 40
61.7703393167
100
AcDbArc
 50
62.3656091276
 51
62.7642109436
  0
ARC
  5
35A
100
AcDbEntity
  8
0
100
AcDbCircle
 62
7
  6
BYLAYER
 10
20.558354125
 20
-5.0918269464
 40
57.3451426683
100
AcDbArc
 50
64.7254166171
 51
65.1932981609
  0
ARC
  5
35B
100
AcDbEntity
  8
0
100
AcDbCircle
 62
7
  6
BYLAYER
 10
19.7028639645
 20
-3.7124250195
 40
55.3319991815
100
AcDbArc
 50
63.4748783
 51
63.9411179257
  0
ARC
  5
35C
100
AcDbEntity
  8
0
100
AcDbCircle
 62
7
  6
BYLAYER
 10
22.9311536993
 20
-1.2560710312
 40
53.6044039261
100
AcDbArc
 50
66.1347286077
 51
66.6532644298
  0
ARC
  5
35D
100
AcDbEntity
  8
0
100
AcDbCircle
 62
7
  6
BYLAYER
 10
22.3843040288
 20
0.668591429
 40
50.8746125139
100
AcDbArc
 50
64.7410036355
 51
65.2691190568
  0
ARC
  5
35E
100
AcDbEntity
  8
0
100
AcDbCircle
 62
7
  6
BYLAYER
 10
24.9452251844
 20
1.9971234452
 40
50.5425376708
100
AcDbArc
 50
67.6804368779
 51
68.2473244798
  0
ARC
  5
35F
100
AcDbEntity
  8
0
100
AcDbCircle
 62
7
  6
BYLAYER
 10
26.7246921301
 20
4.9012442365
 40
47.8936151391
100
AcDbArc
 50
69.3573261226
 51
69.9711846698
  0
ARC
  5
360
100
AcDbEntity
  8
0
100
AcDbCircle
 62
7
  6
BYLAYER
 10
24.5230676697
 20
4.1293511726
 40
47.4822971665
100
AcDbArc
 50
66.1516361415
 51
66.7377274262
  0
ARC
  5
361
100
AcDbEntity
  8
0
100
AcDbCircle
 62
7
  6
BYLAYER
 10
28.3362173505
 20
7.5872743522
 40
45.5088521385
100
AcDbArc
 50
71.1624464351
 51
71.822577385
  0
ARC
  5
362
100
AcDbEntity
  8
0
100
AcDbCircle
 62
7
  6
BYLAYER
 10
26.3349347663
 20
7.0615094122
 40
44.7067987056
100
AcDbArc
 50
67.6985541018
 51
68.3400966439
  0
ARC
  5
363
100
AcDbEntity
  8
0
100
AcDbCircle
 62
7
  6
BYLAYER
 10
29.8158446476
 20
10.129320974
 40
43.303747846
100
AcDbArc
 50
73.0945071646
 51
73.8007049441
  0
ARC
  5
364
100
AcDbEntity
  8
0
100
AcDbCircle
 62
7
  6
BYLAYER
 10
27.9318032378
 20
9.6749171454
 40
42.308906995
100
AcDbArc
 50
69.3765805699
 51
70.0720733894
  0
ARC
  5
365
100
AcDbEntity
  8
0
100
AcDbCircle
 62
7
  6
BYLAYER
 10
31.1827424985
 20
12.5677201907
 40
41.231323039
100
AcDbArc
 50
75.1533874157
 51
75.9057803246
  0
ARC
  5
366
100
AcDbEntity
  8
0
100
AcDbCircle
 62
7
  6
BYLAYER
 10
29.3739925478
 20
12.0873423879
 40
40.1546350293
100
AcDbArc
 50
71.1827938557
 51
71.931494151
  0
ARC
  5
367
100
AcDbEntity
  8
0
100
AcDbCircle
 62
7
  6
BYLAYER
 10
30.6943694253
 20
14.3655244355
 40
38.1676734351
100
AcDbArc
 50
73.1159240815
 51
73.9176360092
  0
ARC
  5
368
100
AcDbEntity
  8
0
100
AcDbCircle
 62
7
  6
BYLAYER
 10
32.4468516318
 20
14.9217490087
 40
39.2674481435
100
AcDbArc
 50
77.3397149043
 51
78.1386230439
  0
ARC
  5
369
100
AcDbEntity
  8
0
100
AcDbCircle
 62
7
  6
BYLAYER
 10
31.9106848091
 20
16.5459524072
 40
36.3053366646
100
AcDbArc
 50
75.1758654412
 51
76.0307613636
  0
ARC
  5
36A
100
AcDbEntity
  8
0
100
AcDbCircle
 62
7
  6
BYLAYER
 10
33.0324199249
 20
18.6462617278
 40
34.5454168104
100
AcDbArc
 50
77.3632565616
 51
78.2717155104
  0
ARC
  5
36B
100
AcDbEntity
  8
0
100
AcDbCircle
 62
7
  6
BYLAYER
 10
24.4316964446
 20
38.5546667304
 40
21.868342321
100
AcDbArc
 50
28.354917724
 51
28.7573527443
  0
ARC
  5
36C
100
AcDbEntity
  8
0
100
AcDbCircle
 62
7
  6
BYLAYER
 10
24.4310212015
 20
38.5558887039
 40
21.8683161071
100
AcDbArc
 50
31.2429232703
 51
31.6453586952
  0
ARC
  5
36D
100
AcDbEntity
  8
0
100
AcDbCircle
 62
7
  6
BYLAYER
 10
28.2470483455
 20
32.4586801979
 40
5.3648647936
100
AcDbArc
 50
327.1435428974
 51
331.4708852555
  0
ARC
  5
36E
100
AcDbEntity
  8
0
100
AcDbCircle
 62
7
  6
BYLAYER
 10
28.3939421682
 20
32.3651778024
 40
5.1907409129
100
AcDbArc
 50
326.7185649996
 51
327.1308471867
  0
ARC
  5
36F
100
AcDbEntity
  8
0
100
AcDbCircle
 62
7
  6
BYLAYER
 10
28.6883012951
 20
32.3656662306
 40
5.0283458525
100
AcDbArc
 50
324.6374980272
 51
325.1284080615
  0
ARC
  5
370
100
AcDbEntity
  8
0
100
AcDbCircle
 62
7
  6
BYLAYER
 10
30.1871312143
 20
30.9522430206
 40
4.77210184
100
AcDbArc
 50
294.923120891
 51
296.6906067489
  0
ARC
  5
371
100
AcDbEntity
  8
0
100
AcDbCircle
 62
7
  6
BYLAYER
 10
30.1883080591
 20
30.9469926672
 40
4.766934537
100
AcDbArc
 50
300.0488530945
 51
308.7508929029
  0
ARC
  5
372
100
AcDbEntity
  8
0
100
AcDbCircle
 62
7
  6
BYLAYER
 10
30.2055282369
 20
30.9252026066
 40
4.7550696085
100
AcDbArc
 50
295.7713063095
 51
300.0011614043
  0
ARC
  5
373
100
AcDbEntity
  8
0
100
AcDbCircle
 62
7
  6
BYLAYER
 10
30.1957080016
 20
30.9351651209
 40
4.7529912179
100
AcDbArc
 50
296.6907036131
 51
300.0430321744
  0
ARC
  5
374
100
AcDbEntity
  8
0
100
AcDbCircle
 62
7
  6
BYLAYER
 10
21.7930646072
 20
23.8360151961
 40
3.688016475
100
AcDbArc
 50
221.2300160272
 51
229.8995760884
  0
ARC
  5
375
100
AcDbEntity
  8
0
100
AcDbCircle
 62
7
  6
BYLAYER
 10
30.6790060944
 20
28.0741019317
 40
3.0982752093
100
AcDbArc
 50
30.8430879981
 51
35.0330991044
  0
ARC
  5
376
100
AcDbEntity
  8
0
100
AcDbCircle
 62
7
  6
BYLAYER
 10
12.6854202441
 20
31.7738322111
 40
2.064910447
100
AcDbArc
 50
27.9800658159
 51
29.9992937432
  0
ARC
  5
377
100
AcDbEntity
  8
0
100
AcDbCircle
 62
7
  6
BYLAYER
 10
14.3300675974
 20
31.674839011
 40
0.4169420586
100
AcDbArc
 50
296.2210794134
 51
299.9877372054
  0
ARC
  5
378
100
AcDbEntity
  8
0
100
AcDbCircle
 62
7
  6
BYLAYER
 10
11.4463108564
 20
40.4331115277
 40
5.6120117106
100
AcDbArc
 50
143.9442671379
 51
147.7023022706
  0
ARC
  5
379
100
AcDbEntity
  8
0
100
AcDbCircle
 62
7
  6
BYLAYER
 10
11.1456332341
 20
41.0301457147
 40
5.1132003812
100
AcDbArc
 50
128.9011149345
 51
132.2435321212
  0
ARC
  5
37A
100
AcDbEntity
  8
0
100
AcDbCircle
 62
7
  6
BYLAYER
 10
11.0788863669
 20
41.1150187971
 40
5.005225494
100
AcDbArc
 50
122.8253131144
 51
128.5587530809
  0
ARC
  5
37B
100
AcDbEntity
  8
0
100
AcDbCircle
 62
7
  6
BYLAYER
 10
10.8877453384
 20
41.4086255742
 40
4.6549048551
100
AcDbArc
 50
111.4434860373
 51
121.8256493811
  0
ARC
  5
37C
100
AcDbEntity
  8
0
100
AcDbCircle
 62
7
  6
BYLAYER
 10
10.6795099479
 20
41.1227066714
 40
4.5758000701
100
AcDbArc
 50
111.2971283146
 51
128.7145873088
  0
ARC
  5
37D
100
AcDbEntity
  8
0
100
AcDbCircle
 62
7
  6
BYLAYER
 10
10.7068052776
 20
40.8824596479
 40
4.4656021896
100
AcDbArc
 50
111.0806080139
 51
128.9313720357
  0
ARC
  5
37E
100
AcDbEntity
  8
0
100
AcDbCircle
 62
7
  6
BYLAYER
 10
10.1943132644
 20
45.0943562482
 40
2.4366154697
100
AcDbArc
 50
197.8253511938
 51
198.0878687546
  0
ARC
  5
37F
100
AcDbEntity
  8
0
100
AcDbCircle
 62
7
  6
BYLAYER
 10
11.3923515802
 20
45.7977477509
 40
2.4107541727
100
AcDbArc
 50
195.2594220261
 51
198.0888280218
  0
ARC
  5
380
100
AcDbEntity
  8
0
100
AcDbCircle
 62
7
  6
BYLAYER
 10
10.168820953
 20
45.0863555045
 40
2.4098977883
100
AcDbArc
 50
195.2638068779
 51
197.8297961616
  0
ARC
  5
381
100
AcDbEntity
  8
0
100
AcDbCircle
 62
7
  6
BYLAYER
 10
10.1247182231
 20
45.0838936892
 40
2.3399272126
100
AcDbArc
 50
189.610979178
 51
198.1169705446
  0
ARC
  5
382
100
AcDbEntity
  8
0
100
AcDbCircle
 62
7
  6
BYLAYER
 10
11.3514993146
 20
45.7874973729
 40
2.3395425593
100
AcDbArc
 50
189.615339064
 51
198.1253188354
  0
ARC
  5
383
100
AcDbEntity
  8
0
100
AcDbCircle
 62
7
  6
BYLAYER
 10
10.0561863824
 20
45.0546575635
 40
2.2929683937
100
AcDbArc
 50
189.5346279503
 51
192.3526993626
  0
ARC
  5
384
100
AcDbEntity
  8
0
100
AcDbCircle
 62
7
  6
BYLAYER
 10
11.2778552395
 20
45.7655115049
 40
2.2918876099
100
AcDbArc
 50
189.5282057096
 51
192.3469496127
  0
ARC
  5
385
100
AcDbEntity
  8
0
100
AcDbCircle
 62
7
  6
BYLAYER
 10
10.0452238809
 20
45.0535231463
 40
2.2820173332
100
AcDbArc
 50
192.3837584115
 51
195.2855113463
  0
ARC
  5
386
100
AcDbEntity
  8
0
100
AcDbCircle
 62
7
  6
BYLAYER
 10
11.266767757
 20
45.7643584344
 40
2.2808103507
100
AcDbArc
 50
192.3782110901
 51
195.2805296501
  0
ARC
  5
387
100
AcDbEntity
  8
0
100
AcDbCircle
 62
7
  6
BYLAYER
 10
9.5313882187
 20
45.4002019797
 40
0.5139949536
100
AcDbArc
 50
180.0075335122
 51
181.5690206142
  0
ARC
  5
388
100
AcDbEntity
  8
0
100
AcDbCircle
 62
7
  6
BYLAYER
 10
8.3079285104
 20
44.6889810504
 40
0.5132295022
100
AcDbArc
 50
179.1944919262
 51
181.5786636739
  0
ARC
  5
389
100
AcDbEntity
  8
0
100
AcDbCircle
 62
7
  6
BYLAYER
 10
8.1702592695
 20
44.7641105129
 40
0.3387334666
100
AcDbArc
 50
128.5729222067
 51
129.9224688187
  0
ARC
  5
38A
100
AcDbEntity
  8
0
100
AcDbCircle
 62
7
  6
BYLAYER
 10
8.1439405907
 20
44.7505859633
 40
0.3328186387
100
AcDbArc
 50
124.9488916099
 51
128.9607646298
  0
ARC
  5
38B
100
AcDbEntity
  8
0
100
AcDbCircle
 62
7
  6
BYLAYER
 10
2.3905688783
 20
57.458961604
 40
43.4223719308
100
AcDbArc
 50
346.2003643401
 51
346.9046305841
  0
ARC
  5
38C
100
AcDbEntity
  8
0
100
AcDbCircle
 62
7
  6
BYLAYER
 10
1.3619547641
 20
55.9941387871
 40
42.1145721635
100
AcDbArc
 50
349.9263776763
 51
350.6250766341
  0
ARC
  5
38D
100
AcDbEntity
  8
0
100
AcDbCircle
 62
7
  6
BYLAYER
 10
5.2159372002
 20
57.4195962609
 40
41.3197182629
100
AcDbArc
 50
344.0951540732
 51
344.845935523
  0
ARC
  5
38E
100
AcDbEntity
  8
0
100
AcDbCircle
 62
7
  6
BYLAYER
 10
4.1295770528
 20
56.0392715741
 40
40.0027058046
100
AcDbArc
 50
348.067164788
 51
348.818705811
  0
ARC
  5
38F
100
AcDbEntity
  8
0
100
AcDbCircle
 62
7
  6
BYLAYER
 10
7.9117253567
 20
57.3328729388
 40
39.3305306835
100
AcDbArc
 50
341.862172511
 51
342.6597976713
  0
ARC
  5
390
100
AcDbEntity
  8
0
100
AcDbCircle
 62
7
  6
BYLAYER
 10
6.7268361983
 20
56.0469325609
 40
38.0514990144
100
AcDbArc
 50
346.0812458386
 51
346.8854029234
  0
ARC
  5
391
100
AcDbEntity
  8
0
100
AcDbCircle
 62
7
  6
BYLAYER
 10
10.4861464638
 20
57.2006740965
 40
37.4443155146
100
AcDbArc
 50
339.5003770991
 51
340.3452236136
  0
ARC
  5
392
100
AcDbEntity
  8
0
100
AcDbCircle
 62
7
  6
BYLAYER
 10
9.1932279814
 20
56.0140727845
 40
36.219279861
100
AcDbArc
 50
343.9683536255
 51
344.825278729
  0
ARC
  5
393
100
AcDbEntity
  8
0
100
AcDbCircle
 62
7
  6
BYLAYER
 10
12.9389078786
 20
57.0276527919
 40
35.6595188861
100
AcDbArc
 50
337.0088725056
 51
337.9012318477
  0
ARC
  5
394
100
AcDbEntity
  8
0
100
AcDbCircle
 62
7
  6
BYLAYER
 10
11.5480872589
 20
55.9398774959
 40
34.4845401508
100
AcDbArc
 50
341.7276384902
 51
342.6376994152
  0
ARC
  5
395
100
AcDbEntity
  8
0
100
AcDbCircle
 62
7
  6
BYLAYER
 10
15.2649771583
 20
56.8211885696
 40
33.9800089482
100
AcDbArc
 50
334.3872907624
 51
335.3272297716
  0
ARC
  5
396
100
AcDbEntity
  8
0
100
AcDbCircle
 62
7
  6
BYLAYER
 10
13.7983871744
 20
55.825907487
 40
32.838309186
100
AcDbArc
 50
339.3580466889
 51
340.3216726868
  0
ARC
  5
397
100
AcDbEntity
  8
0
100
AcDbCircle
 62
7
  6
BYLAYER
 10
17.4583501982
 20
56.5906338322
 40
32.4114160098
100
AcDbArc
 50
331.6361616192
 51
332.6234201154
  0
ARC
  5
398
100
AcDbEntity
  8
0
100
AcDbCircle
 62
7
  6
BYLAYER
 10
15.9436708329
 20
55.6761526839
 40
31.2794206401
100
AcDbArc
 50
336.8586942323
 51
337.8762221587
  0
ARC
  5
399
100
AcDbEntity
  8
0
100
AcDbCircle
 62
7
  6
BYLAYER
 10
28.625709631
 20
40.8260696295
 40
23.9850985032
100
AcDbArc
 50
18.6059975547
 51
23.8061550086
  0
ARC
  5
39A
100
AcDbEntity
  8
0
100
AcDbCircle
 62
7
  6
BYLAYER
 10
24.7264975596
 20
38.7040305045
 40
21.5378302406
100
AcDbArc
 50
25.4501497205
 51
25.856691393
  0
ARC
  5
39B
100
AcDbEntity
  8
0
100
AcDbCircle
 62
7
  6
BYLAYER
 10
24.7078280974
 20
38.7365481802
 40
21.5377394667
100
AcDbArc
 50
34.1435900525
 51
34.5501329511
  0
ARC
  5
39C
100
AcDbEntity
  8
0
100
AcDbCircle
 62
7
  6
BYLAYER
 10
25.3163384102
 20
38.967504892
 40
20.8917501866
100
AcDbArc
 50
22.4986838222
 51
22.9135645833
  0
ARC
  5
39D
100
AcDbEntity
  8
0
100
AcDbCircle
 62
7
  6
BYLAYER
 10
25.2309814807
 20
39.1156735694
 40
20.8915862318
100
AcDbArc
 50
37.0867282943
 51
37.5016111404
  0
ARC
  5
39E
100
AcDbEntity
  8
0
100
AcDbCircle
 62
7
  6
BYLAYER
 10
26.1861814515
 20
39.3036738603
 40
19.9591019537
100
AcDbArc
 50
19.4691597954
 51
19.89686637
  0
ARC
  5
39F
100
AcDbEntity
  8
0
100
AcDbCircle
 62
7
  6
BYLAYER
 10
25.9570669781
 20
39.7009283626
 40
19.9588914391
100
AcDbArc
 50
40.1034442457
 51
40.5311538277
  0
ARC
  5
3A0
100
AcDbEntity
  8
0
100
AcDbCircle
 62
7
  6
BYLAYER
 10
26.8226139959
 20
40.4776007157
 40
18.7958297391
100
AcDbArc
 50
43.2272615345
 51
43.6723201144
  0
ARC
  5
3A1
100
AcDbEntity
  8
0
100
AcDbCircle
 62
7
  6
BYLAYER
 10
27.3200899251
 20
39.6734034426
 40
18.7662892052
100
AcDbArc
 50
16.3276658617
 51
16.7734271742
  0
ARC
  5
3A2
100
AcDbEntity
  8
0
100
AcDbCircle
 62
7
  6
BYLAYER
 10
27.7902902358
 20
41.4476562911
 40
17.4254630444
100
AcDbArc
 50
46.4944546649
 51
46.9625241969
  0
ARC
  5
3A3
100
AcDbEntity
  8
0
100
AcDbCircle
 62
7
  6
BYLAYER
 10
28.6481950491
 20
40.0256492732
 40
17.3920825201
100
AcDbArc
 50
13.0373956145
 51
13.5063659492
  0
ARC
  5
3A4
100
AcDbEntity
  8
0
100
AcDbCircle
 62
7
  6
BYLAYER
 10
28.790723481
 20
42.5754318433
 40
15.9176762995
100
AcDbArc
 50
49.946002368
 51
50.4431541243
  0
ARC
  5
3A5
100
AcDbEntity
  8
0
100
AcDbCircle
 62
7
  6
BYLAYER
 10
30.1279034836
 20
40.3265917292
 40
15.8818560858
100
AcDbArc
 50
9.556695279
 51
10.0549717025
  0
ARC
  5
3A6
100
AcDbEntity
  8
0
100
AcDbCircle
 62
7
  6
BYLAYER
 10
32.8915435428
 20
40.1858154048
 40
15.2909726338
100
AcDbArc
 50
3.0990320012
 51
3.2921725811
  0
ARC
  5
3A7
100
AcDbEntity
  8
0
100
AcDbCircle
 62
7
  6
BYLAYER
 10
29.7662595129
 20
43.8235633276
 40
14.3332666295
100
AcDbArc
 50
53.6280436029
 51
54.1611598497
  0
ARC
  5
3A8
100
AcDbEntity
  8
0
100
AcDbCircle
 62
7
  6
BYLAYER
 10
31.6979442605
 20
40.5451773602
 40
14.2964026087
100
AcDbArc
 50
5.8386138252
 51
6.3731088653
  0
ARC
  5
3A9
100
AcDbEntity
  8
0
100
AcDbCircle
 62
7
  6
BYLAYER
 10
30.6654256563
 20
45.1472745941
 40
12.7327293706
100
AcDbArc
 50
57.5929047334
 51
58.1697811458
  0
ARC
  5
3AA
100
AcDbEntity
  8
0
100
AcDbCircle
 62
7
  6
BYLAYER
 10
33.2937712477
 20
40.6594448459
 40
12.696173799
100
AcDbArc
 50
1.8299115801
 51
2.4084535763
  0
ARC
  5
3AB
100
AcDbEntity
  8
0
100
AcDbCircle
 62
7
  6
BYLAYER
 10
31.4463133503
 20
46.4971153468
 40
11.1729260982
100
AcDbArc
 50
61.8995979346
 51
62.5289595451
  0
ARC
  5
3AC
100
AcDbEntity
  8
0
100
AcDbCircle
 62
7
  6
BYLAYER
 10
32.0792751448
 20
47.8220018642
 40
9.7041966282
100
AcDbArc
 50
66.6134302958
 51
67.3047683117
  0
ARC
  5
3AD
100
AcDbEntity
  8
0
100
AcDbCircle
 62
7
  6
BYLAYER
 10
31.7717327008
 20
47.3344228708
 40
7.3386591945
100
AcDbArc
 50
70.0513370604
 51
70.3271784001
  0
ARC
  5
3AE
100
AcDbEntity
  8
0
100
AcDbCircle
 62
7
  6
BYLAYER
 10
20.7860400032
 20
47.269033681
 40
4.8818570683
100
AcDbArc
 50
128.5942142615
 51
131.0474361958
  0
ARC
  5
3AF
100
AcDbEntity
  8
0
100
AcDbCircle
 62
7
  6
BYLAYER
 10
20.7654454753
 20
47.294687699
 40
4.8489594325
100
AcDbArc
 50
127.8976608517
 51
128.5931112435
  0
ARC
  5
3B0
100
AcDbEntity
  8
0
100
AcDbCircle
 62
7
  6
BYLAYER
 10
20.7240341324
 20
47.345379674
 40
4.7838726298
100
AcDbArc
 50
111.8243575693
 51
119.9844746539
  0
ARC
  5
3B1
100
AcDbEntity
  8
0
100
AcDbCircle
 62
7
  6
BYLAYER
 10
19.8381157556
 20
46.8334096811
 40
4.7677180397
100
AcDbArc
 50
115.6084267651
 51
116.3155019733
  0
ARC
  5
3B2
100
AcDbEntity
  8
0
100
AcDbCircle
 62
7
  6
BYLAYER
 10
20.7147536702
 20
47.3646871026
 40
4.7625115102
100
AcDbArc
 50
120.0038536346
 51
125.2831938141
  0
ARC
  5
3B3
100
AcDbEntity
  8
0
100
AcDbCircle
 62
7
  6
BYLAYER
 10
19.7987523215
 20
46.82125983
 40
4.7572277879
100
AcDbArc
 50
115.8246056766
 51
118.4676830131
  0
ARC
  5
3B4
100
AcDbEntity
  8
0
100
AcDbCircle
 62
7
  6
BYLAYER
 10
19.9067420535
 20
46.8882989335
 40
4.7565531491
100
AcDbArc
 50
116.6449527323
 51
117.3532497545
  0
ARC
  5
3B5
100
AcDbEntity
  8
0
100
AcDbCircle
 62
7
  6
BYLAYER
 10
19.8325111904
 20
46.8446560483
 40
4.7551525921
100
AcDbArc
 50
116.3150431926
 51
118.5374259391
  0
ARC
  5
3B6
100
AcDbEntity
  8
0
100
AcDbCircle
 62
7
  6
BYLAYER
 10
20.7136707716
 20
47.3581399672
 40
4.7518981887
100
AcDbArc
 50
119.9523792351
 51
124.7670174107
  0
ARC
  5
3B7
100
AcDbEntity
  8
0
100
AcDbCircle
 62
7
  6
BYLAYER
 10
19.8293607057
 20
46.8508984071
 40
4.7481674511
100
AcDbArc
 50
121.4731080651
 51
121.837150545
  0
ARC
  5
3B8
100
AcDbEntity
  8
0
100
AcDbCircle
 62
7
  6
BYLAYER
 10
19.7944067755
 20
46.8297862425
 40
4.747664921
100
AcDbArc
 50
121.4159608374
 51
121.8371459477
  0
ARC
  5
3B9
100
AcDbEntity
  8
0
100
AcDbCircle
 62
7
  6
BYLAYER
 10
19.828446313
 20
46.8523914413
 40
4.7464166612
100
AcDbArc
 50
121.0529247183
 51
121.4731037023
  0
ARC
  5
3BA
100
AcDbEntity
  8
0
100
AcDbCircle
 62
7
  6
BYLAYER
 10
19.8283722401
 20
46.8523980104
 40
4.7463739264
100
AcDbArc
 50
118.5381803943
 51
118.9587896352
  0
ARC
  5
3BB
100
AcDbEntity
  8
0
100
AcDbCircle
 62
7
  6
BYLAYER
 10
19.8277087093
 20
46.8536087954
 40
4.7449932869
100
AcDbArc
 50
119.2250125863
 51
121.0528770071
  0
ARC
  5
3BC
100
AcDbEntity
  8
0
100
AcDbCircle
 62
7
  6
BYLAYER
 10
19.7928569884
 20
46.8323179736
 40
4.7446966261
100
AcDbArc
 50
118.7318953956
 51
121.3444386754
  0
ARC
  5
3BD
100
AcDbEntity
  8
0
100
AcDbCircle
 62
7
  6
BYLAYER
 10
19.8764011816
 20
46.8964756985
 40
4.7343082655
100
AcDbArc
 50
116.4346571102
 51
117.0727828321
  0
ARC
  5
3BE
100
AcDbEntity
  8
0
100
AcDbCircle
 62
7
  6
BYLAYER
 10
18.4882583541
 20
49.2116610793
 40
3.0869271699
100
AcDbArc
 50
24.9594160666
 51
29.1908675294
  0
ARC
  5
3BF
100
AcDbEntity
  8
0
100
AcDbCircle
 62
7
  6
BYLAYER
 10
19.5058437851
 20
56.3514950341
 40
30.9687324857
100
AcDbArc
 50
328.7574527856
 51
329.7910518447
  0
ARC
  5
3C0
100
AcDbEntity
  8
0
100
AcDbCircle
 62
7
  6
BYLAYER
 10
17.9677923027
 20
55.5024724005
 40
29.8242209121
100
AcDbArc
 50
334.2294192857
 51
335.0292665696
  0
ARC
  5
3C1
100
AcDbEntity
  8
0
100
AcDbCircle
 62
7
  6
BYLAYER
 10
18.0008324607
 20
55.4870504884
 40
29.7877587896
100
AcDbArc
 50
335.0293286008
 51
335.3008712253
  0
ARC
  5
3C2
100
AcDbEntity
  8
0
100
AcDbCircle
 62
7
  6
BYLAYER
 10
21.406945752
 20
56.1151935149
 40
29.6542347378
100
AcDbArc
 50
325.7546360209
 51
326.8331368292
  0
ARC
  5
3C3
100
AcDbEntity
  8
0
100
AcDbCircle
 62
7
  6
BYLAYER
 10
23.1571303273
 20
55.8976296793
 40
28.4765121379
100
AcDbArc
 50
322.6333385261
 51
323.7545318534
  0
ARC
  5
3C4
100
AcDbEntity
  8
0
100
AcDbCircle
 62
7
  6
BYLAYER
 10
19.8999016614
 20
55.2965829922
 40
28.4395235433
100
AcDbArc
 50
331.4702922533
 51
332.5955178201
  0
ARC
  5
3C5
100
AcDbEntity
  8
0
100
AcDbCircle
 62
7
  6
BYLAYER
 10
24.7606245443
 20
55.7107863567
 40
27.435393292
100
AcDbArc
 50
319.4013832842
 51
320.56252418
  0
ARC
  5
3C6
100
AcDbEntity
  8
0
100
AcDbCircle
 62
7
  6
BYLAYER
 10
21.6998355473
 20
55.0847488049
 40
27.1697388567
100
AcDbArc
 50
328.5837362005
 51
329.7618907433
  0
ARC
  5
3C7
100
AcDbEntity
  8
0
100
AcDbCircle
 62
7
  6
BYLAYER
 10
23.370067224
 20
54.8757495142
 40
26.0136728453
100
AcDbArc
 50
325.573324174
 51
326.8027489106
  0
ARC
  5
3C8
100
AcDbEntity
  8
0
100
AcDbCircle
 62
7
  6
BYLAYER
 10
24.8999422029
 20
54.6887775757
 40
24.9873153312
100
AcDbArc
 50
322.4450354391
 51
323.722748596
  0
ARC
  5
3C9
100
AcDbEntity
  8
0
100
AcDbCircle
 62
7
  6
BYLAYER
 10
32.5487770033
 20
49.0724030509
 40
8.3681051676
100
AcDbArc
 50
71.803885057
 51
72.5669654374
  0
ARC
  5
3CA
100
AcDbEntity
  8
0
100
AcDbCircle
 62
7
  6
BYLAYER
 10
32.8542438342
 20
50.2034015502
 40
7.1960986402
100
AcDbArc
 50
77.5395022434
 51
78.3833369196
  0
ARC
  5
3CB
100
AcDbEntity
  8
0
100
AcDbCircle
 62
7
  6
BYLAYER
 10
33.3699289189
 20
49.6792228161
 40
6.3033810695
100
AcDbArc
 50
77.9038578062
 51
78.0189814562
  0
ARC
  5
3CC
100
AcDbEntity
  8
0
100
AcDbCircle
 62
7
  6
BYLAYER
 10
33.0098597648
 20
51.1774503298
 40
6.2092015217
100
AcDbArc
 50
83.8781628933
 51
84.8092217852
  0
ARC
  5
3CD
100
AcDbEntity
  8
0
100
AcDbCircle
 62
7
  6
BYLAYER
 10
33.5050854039
 20
50.5321846777
 40
5.4393331165
100
AcDbArc
 50
84.2801857778
 51
84.4071990372
  0
ARC
  5
3CE
100
AcDbEntity
  8
0
100
AcDbCircle
 62
7
  6
BYLAYER
 10
33.0433340807
 20
51.966619684
 40
5.4188432717
100
AcDbArc
 50
90.8515070679
 51
91.871093004
  0
ARC
  5
3CF
100
AcDbEntity
  8
0
100
AcDbCircle
 62
7
  6
BYLAYER
 10
32.9937231117
 20
52.5542313796
 40
4.8287192045
100
AcDbArc
 50
98.4441611847
 51
99.5453219604
  0
ARC
  5
3D0
100
AcDbEntity
  8
0
100
AcDbCircle
 62
7
  6
BYLAYER
 10
33.5334088974
 20
51.2226669792
 40
4.7478411207
100
AcDbArc
 50
91.2917678721
 51
91.4308323197
  0
ARC
  5
3D1
100
AcDbEntity
  8
0
100
AcDbCircle
 62
7
  6
BYLAYER
 10
32.9638352725
 20
52.9712046741
 40
4.4343866588
100
AcDbArc
 50
132.2630165108
 51
133.4289693892
  0
ARC
  5
3D2
100
AcDbEntity
  8
0
100
AcDbCircle
 62
7
  6
BYLAYER
 10
32.9075068876
 20
52.93874843
 40
4.4343291289
100
AcDbArc
 50
106.5723879888
 51
107.7383509508
  0
ARC
  5
3D3
100
AcDbEntity
  8
0
100
AcDbCircle
 62
7
  6
BYLAYER
 10
32.841467394
 20
53.1205737817
 40
4.2411340665
100
AcDbArc
 50
123.7247498942
 51
124.9258563841
  0
ARC
  5
3D4
100
AcDbEntity
  8
0
100
AcDbCircle
 62
7
  6
BYLAYER
 10
32.8393435913
 20
53.1193680776
 40
4.2411162917
100
AcDbArc
 50
115.0755541223
 51
116.2766642156
  0
ARC
  5
3D5
100
AcDbEntity
  8
0
100
AcDbCircle
 62
7
  6
BYLAYER
 10
33.4892737504
 20
51.7362006881
 40
4.2320371958
100
AcDbArc
 50
98.91966876
 51
99.0698145464
  0
ARC
  5
3D6
100
AcDbEntity
  8
0
100
AcDbCircle
 62
7
  6
BYLAYER
 10
33.4143632079
 20
52.0688414639
 40
3.8907840054
100
AcDbArc
 50
107.0759687864
 51
107.2347703239
  0
ARC
  5
3D7
100
AcDbEntity
  8
0
100
AcDbCircle
 62
7
  6
BYLAYER
 10
33.3545391142
 20
52.2273293851
 40
3.7212382576
100
AcDbArc
 50
115.5943145309
 51
115.7579039481
  0
ARC
  5
3D8
100
AcDbEntity
  8
0
100
AcDbCircle
 62
7
  6
BYLAYER
 10
26.2062304609
 20
55.5822515292
 40
26.5533593548
100
AcDbArc
 50
316.069652916
 51
317.2664150581
  0
ARC
  5
3D9
100
AcDbEntity
  8
0
100
AcDbCircle
 62
7
  6
BYLAYER
 10
27.5043114032
 20
55.525656376
 40
25.8285824193
100
AcDbArc
 50
312.651205267
 51
313.8785974457
  0
ARC
  5
3DA
100
AcDbEntity
  8
0
100
AcDbCircle
 62
7
  6
BYLAYER
 10
28.6586365179
 20
55.5634122761
 40
25.2715472431
100
AcDbArc
 50
309.1619406689
 51
310.4137606295
  0
ARC
  5
3DB
100
AcDbEntity
  8
0
100
AcDbCircle
 62
7
  6
BYLAYER
 10
32.8335072175
 20
57.5704064572
 40
24.9179246169
100
AcDbArc
 50
292.174601506
 51
292.5974150976
  0
ARC
  5
3DC
100
AcDbEntity
  8
0
100
AcDbCircle
 62
7
  6
BYLAYER
 10
29.6895002579
 20
55.7012689524
 40
24.8708608813
100
AcDbArc
 50
305.6195138176
 51
306.8894848069
  0
ARC
  5
3DD
100
AcDbEntity
  8
0
100
AcDbCircle
 62
7
  6
BYLAYER
 10
32.1576495291
 20
56.8881803605
 40
24.663744956
100
AcDbArc
 50
294.8775017797
 51
296.1574315007
  0
ARC
  5
3DE
100
AcDbEntity
  8
0
100
AcDbCircle
 62
7
  6
BYLAYER
 10
30.6053670711
 20
55.9596988529
 40
24.6357483675
100
AcDbArc
 50
302.0439055569
 51
303.324804424
  0
ARC
  5
3DF
100
AcDbEntity
  8
0
100
AcDbCircle
 62
7
  6
BYLAYER
 10
31.4221608687
 20
56.3517779724
 40
24.5668589226
100
AcDbArc
 50
298.456094705
 51
299.7403420527
  0
ARC
  5
3E0
100
AcDbEntity
  8
0
100
AcDbCircle
 62
7
  6
BYLAYER
 10
26.3017072334
 20
54.5292451971
 40
24.0806293582
100
AcDbArc
 50
319.2065995985
 51
320.529441779
  0
ARC
  5
3E1
100
AcDbEntity
  8
0
100
AcDbCircle
 62
7
  6
BYLAYER
 10
27.5704597651
 20
54.4167474118
 40
23.3066575845
100
AcDbArc
 50
315.8689024465
 51
317.2323101003
  0
ARC
  5
3E2
100
AcDbEntity
  8
0
100
AcDbCircle
 62
7
  6
BYLAYER
 10
28.7101284508
 20
54.3669985487
 40
22.6701734683
100
AcDbArc
 50
312.4453010638
 51
313.843632905
  0
ARC
  5
3E3
100
AcDbEntity
  8
0
100
AcDbCircle
 62
7
  6
BYLAYER
 10
29.7274897083
 20
54.3953516115
 40
22.1748479086
100
AcDbArc
 50
308.9516881969
 51
310.3782824876
  0
ARC
  5
3E4
100
AcDbEntity
  8
0
100
AcDbCircle
 62
7
  6
BYLAYER
 10
30.6353699216
 20
54.5117299619
 40
21.8175932984
100
AcDbArc
 50
305.406012093
 51
306.8536974674
  0
ARC
  5
3E5
100
AcDbEntity
  8
0
100
AcDbCircle
 62
7
  6
BYLAYER
 10
31.4378112757
 20
54.7396924041
 40
21.6129596929
100
AcDbArc
 50
301.8286060539
 51
303.2886756597
  0
ARC
  5
3E6
100
AcDbEntity
  8
0
100
AcDbCircle
 62
7
  6
BYLAYER
 10
33.5589655637
 20
53.5027184975
 40
4.2689630146
100
AcDbArc
 50
108.6936168418
 51
117.3170621627
  0
ARC
  5
3E7
100
AcDbEntity
  8
0
100
AcDbCircle
 62
7
  6
BYLAYER
 10
33.5393262702
 20
53.5421937975
 40
4.2248772697
100
AcDbArc
 50
117.3853978382
 51
118.5414619762
  0
ARC
  5
3E8
100
AcDbEntity
  8
0
100
AcDbCircle
 62
7
  6
BYLAYER
 10
33.5375776459
 20
53.5454233739
 40
4.2212046954
100
AcDbArc
 50
118.541556411
 51
119.9999012079
  0
ARC
  5
3E9
100
AcDbEntity
  8
0
100
AcDbCircle
 62
7
  6
BYLAYER
 10
31.9260106666
 20
55.4169401669
 40
1.7946595216
100
AcDbArc
 50
119.6134197186
 51
120.0470661413
  0
ARC
  5
3EA
100
AcDbEntity
  8
0
100
AcDbCircle
 62
7
  6
BYLAYER
 10
32.1294914336
 20
56.0527351952
 40
1.305861082
100
AcDbArc
 50
115.9378740201
 51
117.2667633394
  0
ARC
  5
3EB
100
AcDbEntity
  8
0
100
AcDbCircle
 62
7
  6
BYLAYER
 10
31.4237132456
 20
56.3505859337
 40
0.7349627885
100
AcDbArc
 50
121.5410860713
 51
128.9408705966
  0
ARC
  5
3EC
100
AcDbEntity
  8
0
100
AcDbCircle
 62
7
  6
BYLAYER
 10
32.4191387783
 20
56.8088250631
 40
0.6605569285
100
AcDbArc
 50
111.6701631146
 51
114.300475984
  0
ARC
  5
3ED
100
AcDbEntity
  8
0
100
AcDbCircle
 62
7
  6
BYLAYER
 10
33.5250075574
 20
55.6623207712
 40
0.4793759494
100
AcDbArc
 50
110.2076506864
 51
111.3093447773
  0
ARC
  5
3EE
100
AcDbEntity
  8
0
100
AcDbCircle
 62
7
  6
BYLAYER
 10
32.965474117
 20
57.1053287517
 40
0.4467202953
100
AcDbArc
 50
107.4615349254
 51
111.3585691505
  0
ARC
  5
3EF
100
AcDbEntity
  8
0
100
AcDbCircle
 62
7
  6
BYLAYER
 10
33.6134500298
 20
17.1972174012
 40
37.4021805803
100
AcDbArc
 50
79.6544795402
 51
80.5002789555
  0
ARC
  5
3F0
100
AcDbEntity
  8
0
100
AcDbCircle
 62
7
  6
BYLAYER
 10
34.6859939696
 20
19.3912390071
 40
35.6344393617
100
AcDbArc
 50
82.0986590432
 51
82.9916473314
  0
ARC
  5
3F1
100
AcDbEntity
  8
0
100
AcDbCircle
 62
7
  6
BYLAYER
 10
35.6679564952
 20
21.4955045235
 40
33.9684965637
100
AcDbArc
 50
84.6728417783
 51
85.6130999162
  0
ARC
  5
3F2
100
AcDbEntity
  8
0
100
AcDbCircle
 62
7
  6
BYLAYER
 10
34.064880685
 20
20.6720998178
 40
32.8783634236
100
AcDbArc
 50
79.6790941926
 51
80.6415474928
  0
ARC
  5
3F3
100
AcDbEntity
  8
0
100
AcDbCircle
 62
7
  6
BYLAYER
 10
36.5640230171
 20
23.4991226932
 40
32.4111159418
100
AcDbArc
 50
87.3768318848
 51
88.3640996654
  0
ARC
  5
3F4
100
AcDbEntity
  8
0
100
AcDbCircle
 62
7
  6
BYLAYER
 10
35.0117181952
 20
22.6213574293
 40
31.3025625513
100
AcDbArc
 50
82.1243597796
 51
83.141136429
  0
ARC
  5
3F5
100
AcDbEntity
  8
0
100
AcDbCircle
 62
7
  6
BYLAYER
 10
37.3806642227
 20
25.3918450965
 40
30.9684570193
100
AcDbArc
 50
90.2092253619
 51
91.2428334892
  0
ARC
  5
3F6
100
AcDbEntity
  8
0
100
AcDbCircle
 62
7
  6
BYLAYER
 10
35.8765687322
 20
24.4871417659
 40
29.8211566451
100
AcDbArc
 50
84.6996417564
 51
85.770810365
  0
ARC
  5
3F7
100
AcDbEntity
  8
0
100
AcDbCircle
 62
7
  6
BYLAYER
 10
38.126568153
 20
27.156367895
 40
29.6539856198
100
AcDbArc
 50
93.1671648256
 51
94.2456743452
  0
ARC
  5
3F8
100
AcDbEntity
  8
0
100
AcDbCircle
 62
7
  6
BYLAYER
 10
38.8132424962
 20
28.7808216655
 40
28.4762909888
100
AcDbArc
 50
96.2457930736
 51
97.3669945917
  0
ARC
  5
3F9
100
AcDbEntity
  8
0
100
AcDbCircle
 62
7
  6
BYLAYER
 10
36.6641113372
 20
26.2605448546
 40
28.4392609191
100
AcDbArc
 50
87.4047344704
 51
88.5299705805
  0
ARC
  5
3FA
100
AcDbEntity
  8
0
100
AcDbCircle
 62
7
  6
BYLAYER
 10
39.4560974983
 20
30.2463528966
 40
27.4519796635
100
AcDbArc
 50
99.4381772134
 51
100.5986159075
  0
ARC
  5
3FB
100
AcDbEntity
  8
0
100
AcDbCircle
 62
7
  6
BYLAYER
 10
37.3806198467
 20
27.9252252508
 40
27.1694980176
100
AcDbArc
 50
90.238386751
 51
91.4165515843
  0
ARC
  5
3FC
100
AcDbEntity
  8
0
100
AcDbCircle
 62
7
  6
BYLAYER
 10
40.0685254006
 20
31.5627698906
 40
26.569917771
100
AcDbArc
 50
102.7343274772
 51
103.9303432533
  0
ARC
  5
3FD
100
AcDbEntity
  8
0
100
AcDbCircle
 62
7
  6
BYLAYER
 10
38.034733577
 20
29.4761609866
 40
26.0134552831
100
AcDbArc
 50
93.1975530254
 51
94.4269876389
  0
ARC
  5
3FE
100
AcDbEntity
  8
0
100
AcDbCircle
 62
7
  6
BYLAYER
 10
40.6691595146
 20
32.7166507369
 40
25.8439293212
100
AcDbArc
 50
106.122152851
 51
107.34881551
  0
ARC
  5
3FF
100
AcDbEntity
  8
0
100
AcDbCircle
 62
7
  6
BYLAYER
 10
41.2745723619
 20
33.7122307736
 40
25.2714528607
100
AcDbArc
 50
109.5866357769
 51
110.8384600243
  0
ARC
  5
400
100
AcDbEntity
  8
0
100
AcDbCircle
 62
7
  6
BYLAYER
 10
38.6357943078
 20
30.9106251927
 40
24.9709092195
100
AcDbArc
 50
96.2771617846
 51
97.555713851
  0
ARC
  5
401
100
AcDbEntity
  8
0
100
AcDbCircle
 62
7
  6
BYLAYER
 10
41.9094032746
 20
34.5360212077
 40
24.8707991277
100
AcDbArc
 50
113.1109215593
 51
114.380895457
  0
ARC
  5
402
100
AcDbEntity
  8
0
100
AcDbCircle
 62
7
  6
BYLAYER
 10
44.1714257109
 20
36.0799470328
 40
24.663781026
100
AcDbArc
 50
123.8429802291
 51
125.1229083925
  0
ARC
  5
403
100
AcDbEntity
  8
0
100
AcDbCircle
 62
7
  6
BYLAYER
 10
42.5911569159
 20
35.1999383028
 40
24.6357165275
100
AcDbArc
 50
116.6756078855
 51
117.9565081869
  0
ARC
  5
404
100
AcDbEntity
  8
0
100
AcDbCircle
 62
7
  6
BYLAYER
 10
43.3391229548
 20
35.7112277266
 40
24.5668622681
100
AcDbArc
 50
120.2600721059
 51
121.5443194049
  0
ARC
  5
405
100
AcDbEntity
  8
0
100
AcDbCircle
 62
7
  6
BYLAYER
 10
39.1973820984
 20
32.2055105258
 40
24.0629085614
100
AcDbArc
 50
99.4704224971
 51
100.7942381989
  0
ARC
  5
406
100
AcDbEntity
  8
0
100
AcDbCircle
 62
7
  6
BYLAYER
 10
39.7333682105
 20
33.3601745399
 40
23.2890853331
100
AcDbArc
 50
102.7675458207
 51
104.1319816645
  0
ARC
  5
407
100
AcDbEntity
  8
0
100
AcDbCircle
 62
7
  6
BYLAYER
 10
40.2594964345
 20
34.3704975578
 40
22.6539153192
100
AcDbArc
 50
106.1562517423
 51
107.555586466
  0
ARC
  5
408
100
AcDbEntity
  8
0
100
AcDbCircle
 62
7
  6
BYLAYER
 10
40.7925710899
 20
35.2349832907
 40
22.160808742
100
AcDbArc
 50
109.6216648117
 51
111.0491624774
  0
ARC
  5
409
100
AcDbEntity
  8
0
100
AcDbCircle
 62
7
  6
BYLAYER
 10
41.3521590347
 20
35.9499214342
 40
21.8175406353
100
AcDbArc
 50
113.1467090439
 51
114.59439764
  0
ARC
  5
40A
100
AcDbEntity
  8
0
100
AcDbCircle
 62
7
  6
BYLAYER
 10
41.9508128147
 20
36.5308468641
 40
21.612933294
100
AcDbArc
 50
116.7117367474
 51
118.1718078919
  0
ARC
  5
40B
100
AcDbEntity
  8
0
100
AcDbCircle
 62
7
  6
BYLAYER
 10
43.4433940001
 20
38.6795787105
 40
5.3181107457
100
AcDbArc
 50
316.3025219654
 51
316.6625567334
  0
ARC
  5
40C
100
AcDbEntity
  8
0
100
AcDbCircle
 62
7
  6
BYLAYER
 10
41.2482137511
 20
38.554688109
 40
4.2411340666
100
AcDbArc
 50
303.7247498942
 51
304.9258563841
  0
ARC
  5
40D
100
AcDbEntity
  8
0
100
AcDbCircle
 62
7
  6
BYLAYER
 10
41.2503381265
 20
38.5558926325
 40
4.2411149796
100
AcDbArc
 50
295.0755542462
 51
296.2766643394
  0
ARC
  5
40E
100
AcDbEntity
  8
0
100
AcDbCircle
 62
7
  6
BYLAYER
 10
42.6082001498
 20
36.9129185139
 40
2.139295733
100
AcDbArc
 50
299.9879462926
 51
300.3547075895
  0
ARC
  5
40F
100
AcDbEntity
  8
0
100
AcDbCircle
 62
7
  6
BYLAYER
 10
43.3405771911
 20
35.7094582443
 40
0.7308828594
100
AcDbArc
 50
291.0340214881
 51
298.4752272508
  0
ARC
  5
410
100
AcDbEntity
  8
0
100
AcDbCircle
 62
7
  6
BYLAYER
 10
43.7933799754
 20
37.8770773092
 40
0.4793775765
100
AcDbArc
 50
308.6909324577
 51
309.7928045869
  0
ARC
  5
411
100
AcDbEntity
  8
0
100
AcDbCircle
 62
7
  6
BYLAYER
 10
44.1767594484
 20
38.2833437891
 40
0.3567663708
100
AcDbArc
 50
311.592350951
 51
314.531680698
  0
ARC
  5
412
100
AcDbEntity
  8
0
100
AcDbCircle
 62
7
  6
BYLAYER
 10
33.9029815323
 20
45.5160975115
 40
15.3544505972
100
AcDbArc
 50
50.1495916937
 51
50.4442059826
  0
ARC
  5
413
100
AcDbEntity
  8
0
100
AcDbCircle
 62
7
  6
BYLAYER
 10
34.0635836227
 20
45.6067099327
 40
15.2214482303
100
AcDbArc
 50
50.4468002182
 51
50.6653807109
  0
ARC
  5
414
100
AcDbEntity
  8
0
100
AcDbCircle
 62
7
  6
BYLAYER
 10
33.9879922491
 20
45.6190143543
 40
15.2209638995
100
AcDbArc
 50
50.4442180616
 51
50.728674092
  0
ARC
  5
415
100
AcDbEntity
  8
0
100
AcDbCircle
 62
7
  6
BYLAYER
 10
38.7269923431
 20
45.2103765698
 40
11.6171390917
100
AcDbArc
 50
6.9630541141
 51
7.2591598213
  0
ARC
  5
416
100
AcDbEntity
  8
0
100
AcDbCircle
 62
7
  6
BYLAYER
 10
38.9223261643
 20
43.6056011662
 40
11.6088570079
100
AcDbArc
 50
0.0003182556
 51
0.3442801296
  0
ARC
  5
417
100
AcDbEntity
  8
0
100
AcDbCircle
 62
7
  6
BYLAYER
 10
39.159261903
 20
43.6052828427
 40
11.3719212754
100
AcDbArc
 50
358.7233185725
 51
0.0019287136
  0
ARC
  5
418
100
AcDbEntity
  8
0
100
AcDbCircle
 62
7
  6
BYLAYER
 10
34.8516462662
 20
40.6580815793
 40
11.1379346782
100
AcDbArc
 50
357.47064932
 51
358.101993862
  0
ARC
  5
419
100
AcDbEntity
  8
0
100
AcDbCircle
 62
7
  6
BYLAYER
 10
38.5972198309
 20
43.8768007323
 40
10.1756862237
100
AcDbArc
 50
299.8298767099
 51
299.9505610552
  0
ARC
  5
41A
100
AcDbEntity
  8
0
100
AcDbCircle
 62
7
  6
BYLAYER
 10
36.3126816375
 20
40.5412212894
 40
9.6718232225
100
AcDbArc
 50
352.6947602259
 51
353.3884187435
  0
ARC
  5
41B
100
AcDbEntity
  8
0
100
AcDbCircle
 62
7
  6
BYLAYER
 10
37.6264325545
 20
40.3204349418
 40
8.3391970791
100
AcDbArc
 50
347.4324991104
 51
348.1982323748
  0
ARC
  5
41C
100
AcDbEntity
  8
0
100
AcDbCircle
 62
7
  6
BYLAYER
 10
42.9395983308
 20
43.1404510888
 40
7.553838529
100
AcDbArc
 50
343.0239379225
 51
346.6943025098
  0
ARC
  5
41D
100
AcDbEntity
  8
0
100
AcDbCircle
 62
7
  6
BYLAYER
 10
38.7540189572
 20
40.0179108066
 40
7.1712497558
100
AcDbArc
 50
341.6161031399
 51
342.4628699572
  0
ARC
  5
41E
100
AcDbEntity
  8
0
100
AcDbCircle
 62
7
  6
BYLAYER
 10
43.4290939514
 20
43.0476947627
 40
7.0667765981
100
AcDbArc
 50
341.1660139024
 51
342.5994396506
  0
ARC
  5
41F
100
AcDbEntity
  8
0
100
AcDbCircle
 62
7
  6
BYLAYER
 10
43.4479446019
 20
42.9907762791
 40
7.023943622
100
AcDbArc
 50
341.5395457918
 51
342.9809498698
  0
ARC
  5
420
100
AcDbEntity
  8
0
100
AcDbCircle
 62
7
  6
BYLAYER
 10
43.6268208345
 20
42.9318747752
 40
6.8356208045
100
AcDbArc
 50
341.1300853828
 51
341.5330867423
  0
ARC
  5
421
100
AcDbEntity
  8
0
100
AcDbCircle
 62
7
  6
BYLAYER
 10
38.5341115179
 20
40.734313294
 40
6.3035524152
100
AcDbArc
 50
341.9819259277
 51
342.097047293
  0
ARC
  5
422
100
AcDbEntity
  8
0
100
AcDbCircle
 62
7
  6
BYLAYER
 10
47.7682476593
 20
42.8206058553
 40
6.2644964285
100
AcDbArc
 50
246.6759374474
 51
248.3274419071
  0
ARC
  5
423
100
AcDbEntity
  8
0
100
AcDbCircle
 62
7
  6
BYLAYER
 10
39.6703418672
 20
39.664894789
 40
6.188782393
100
AcDbArc
 50
335.1902682072
 51
336.1244079115
  0
ARC
  5
424
100
AcDbEntity
  8
0
100
AcDbCircle
 62
7
  6
BYLAYER
 10
39.3403972806
 20
40.4248878863
 40
5.4394873468
100
AcDbArc
 50
335.5938326982
 51
335.720843557
  0
ARC
  5
425
100
AcDbEntity
  8
0
100
AcDbCircle
 62
7
  6
BYLAYER
 10
40.3654323114
 20
39.2994739726
 40
5.4030122037
100
AcDbArc
 50
328.1285652699
 51
329.1511469852
  0
ARC
  5
426
100
AcDbEntity
  8
0
100
AcDbCircle
 62
7
  6
BYLAYER
 10
43.4277246534
 20
38.6943551356
 40
5.3396484132
100
AcDbArc
 50
316.6626267047
 51
317.0931807442
  0
ARC
  5
427
100
AcDbEntity
  8
0
100
AcDbCircle
 62
7
  6
BYLAYER
 10
40.8359165606
 20
38.9710021548
 40
4.828817371
100
AcDbArc
 50
320.4559575665
 51
321.5571033095
  0
ARC
  5
428
100
AcDbEntity
  8
0
100
AcDbCircle
 62
7
  6
BYLAYER
 10
39.9525814995
 20
40.1041646839
 40
4.7479483914
100
AcDbArc
 50
328.5703251456
 51
328.7093872588
  0
ARC
  5
429
100
AcDbEntity
  8
0
100
AcDbCircle
 62
7
  6
BYLAYER
 10
41.1258449375
 20
38.704058218
 40
4.4343880289
100
AcDbArc
 50
312.2630163906
 51
313.428969269
  0
ARC
  5
42A
100
AcDbEntity
  8
0
100
AcDbCircle
 62
7
  6
BYLAYER
 10
41.1821742575
 20
38.7365134608
 40
4.434329129
100
AcDbArc
 50
286.5723879888
 51
287.7383509508
  0
ARC
  5
42B
100
AcDbEntity
  8
0
100
AcDbCircle
 62
7
  6
BYLAYER
 10
41.9231694545
 20
39.0086285496
 40
4.2969384512
100
AcDbArc
 50
302.6996706323
 51
311.4258339142
  0
ARC
  5
42C
100
AcDbEntity
  8
0
100
AcDbCircle
 62
7
  6
BYLAYER
 10
40.3752713504
 20
39.8091710097
 40
4.2321219736
100
AcDbArc
 50
320.931458628
 51
321.0816024094
  0
ARC
  5
42D
100
AcDbEntity
  8
0
100
AcDbCircle
 62
7
  6
BYLAYER
 10
41.9644099381
 20
38.9494043463
 40
4.2248217465
100
AcDbArc
 50
301.3394556809
 51
302.5986529148
  0
ARC
  5
42E
100
AcDbEntity
  8
0
100
AcDbCircle
 62
7
  6
BYLAYER
 10
41.9663398186
 20
38.946252564
 40
4.2211260613
100
AcDbArc
 50
300.0000695272
 51
301.3393328773
  0
ARC
  5
42F
100
AcDbEntity
  8
0
100
AcDbCircle
 62
7
  6
BYLAYER
 10
40.625914953
 20
39.5779659441
 40
3.8908445619
100
AcDbArc
 50
312.7665928164
 51
312.9253929802
  0
ARC
  5
430
100
AcDbEntity
  8
0
100
AcDbCircle
 62
7
  6
BYLAYER
 10
40.7332939608
 20
39.4468737222
 40
3.7212453745
100
AcDbArc
 50
304.2435087639
 51
304.4070976903
  0
ARC
  5
431
100
AcDbEntity
  8
0
100
AcDbCircle
 62
7
  6
BYLAYER
 10
49.2446710005
 20
47.6474907615
 40
3.590974903
100
AcDbArc
 50
129.5890079538
 51
136.7215204349
  0
ARC
  5
432
100
AcDbEntity
  8
0
100
AcDbCircle
 62
7
  6
BYLAYER
 10
45.9908865808
 20
39.6002698305
 40
3.3197956206
100
AcDbArc
 50
251.7974766027
 51
254.4123974266
  0
ARC
  5
433
100
AcDbEntity
  8
0
100
AcDbCircle
 62
7
  6
BYLAYER
 10
46.2531135034
 20
56.5200555532
 40
11.9722445466
100
AcDbArc
 50
175.4853417116
 51
176.4944527311
  0
ARC
  5
434
100
AcDbEntity
  8
0
100
AcDbCircle
 62
7
  6
BYLAYER
 10
34.4635311293
 20
51.0236737621
 40
6.868102198
100
AcDbArc
 50
120.0200066761
 51
120.1988110223
  0
ARC
  5
435
100
AcDbEntity
  8
0
100
AcDbCircle
 62
7
  6
BYLAYER
 10
39.977243573
 20
56.6086047557
 40
6.4496812587
100
AcDbArc
 50
171.6951295478
 51
173.2991597879
  0
ARC
  5
436
100
AcDbEntity
  8
0
100
AcDbCircle
 62
7
  6
BYLAYER
 10
37.9916564882
 20
54.306280193
 40
5.5099237765
100
AcDbArc
 50
88.1505086173
 51
93.9111172832
  0
ARC
  5
437
100
AcDbEntity
  8
0
100
AcDbCircle
 62
7
  6
BYLAYER
 10
37.9758741058
 20
54.5756242483
 40
5.2401087386
100
AcDbArc
 50
88.0396677792
 51
93.9204031653
  0
ARC
  5
438
100
AcDbEntity
  8
0
100
AcDbCircle
 62
7
  6
BYLAYER
 10
36.2226289272
 20
56.6789194278
 40
3.4291946844
100
AcDbArc
 50
165.6276813139
 51
168.1590737222
  0
ARC
  5
439
100
AcDbEntity
  8
0
100
AcDbCircle
 62
7
  6
BYLAYER
 10
34.0685318654
 20
55.791204393
 40
0.3567766536
100
AcDbArc
 50
105.4689772934
 51
108.4078908916
  0
ARC
  5
43A
100
AcDbEntity
  8
0
100
AcDbCircle
 62
7
  6
BYLAYER
 10
50.7681499599
 20
48.1997878363
 40
11.6704887223
100
AcDbArc
 50
243.4916520838
 51
244.5268854673
  0
ARC
  5
43B
100
AcDbEntity
  8
0
100
AcDbCircle
 62
7
  6
BYLAYER
 10
65.8064777213
 20
62.4392222267
 40
60.6575981149
100
AcDbArc
 50
208.8618119945
 51
209.9967134761
  0
ARC
  5
43C
100
AcDbEntity
  8
0
100
AcDbCircle
 62
7
  6
BYLAYER
 10
65.4429336756
 20
62.2334355344
 40
60.2677187278
100
AcDbArc
 50
208.8574229334
 51
209.9999638969
  0
ARC
  5
43D
100
AcDbEntity
  8
0
100
AcDbCircle
 62
7
  6
BYLAYER
 10
57.5371383878
 20
56.4382275732
 40
22.4898433103
100
AcDbArc
 50
177.8105185374
 51
178.4255841699
  0
ARC
  5
43E
100
AcDbEntity
  8
0
100
AcDbCircle
 62
7
  6
BYLAYER
 10
56.2385283724
 20
57.8480376346
 40
21.9953479976
100
AcDbArc
 50
241.566878464
 51
242.1957877103
  0
ARC
  5
43F
100
AcDbEntity
  8
0
100
AcDbCircle
 62
7
  6
BYLAYER
 10
67.8290004405
 20
78.0518077556
 40
44.5133403382
100
AcDbArc
 50
240.4946965551
 51
240.844374688
  0
ARC
  5
440
100
AcDbEntity
  8
0
100
AcDbCircle
 62
7
  6
BYLAYER
 10
81.2050231552
 20
56.3799398035
 40
45.3833027505
100
AcDbArc
 50
179.1585150266
 51
179.5014825826
  0
ARC
  5
441
100
AcDbEntity
  8
0
100
AcDbCircle
 62
7
  6
BYLAYER
 10
142.3816426879
 20
106.6543066184
 40
134.0668345002
100
AcDbArc
 50
206.4767160382
 51
213.5235594112
  0
ARC
  5
442
100
AcDbEntity
  8
0
100
AcDbCircle
 62
7
  6
BYLAYER
 10
103.6550637036
 20
140.1658072797
 40
115.4400737402
100
AcDbArc
 50
240.0250432981
 51
240.174513483
  0
ARC
  5
443
100
AcDbEntity
  8
0
100
AcDbCircle
 62
7
  6
BYLAYER
 10
438.4686397999
 20
-775.1621700745
 40
899.2378125803
100
AcDbArc
 50
117.3060734283
 51
117.4403037315
  0
ARC
  5
444
100
AcDbEntity
  8
0
100
AcDbCircle
 62
7
  6
BYLAYER
 10
153.9979963041
 20
56.3556252183
 40
117.3976223062
100
AcDbArc
 50
179.8263760413
 51
179.9733510874
  0
SPLINE
  5
445
100
AcDbEntity
  8
0
100
AcDbSpline
 62
7
  6
BYLAYER
 70
0
 71
3
 72
15
 73
11
 74
0
 42
0.0000001
 43
0.0000001
 44
0.0000000001
 40
0.0
 40
0.0
 40
0.0
 40
0.0
 40
0.1109328624
 40
0.2277818002
 40
0.3497696617
 40
0.4759664736
 40
0.605287403
 40
0.736559209
 40
0.8685479102
 40
1.0
 40
1.0
 40
1.0
 40
1.0
 10
38.8126002084
 20
58.8673035868
 30
0.0
 10
39.2387932785
 20
58.6212464696
 30
0.0
 10
40.0875334546
 20
58.0693241874
 30
0.0
 10
41.3065584791
 20
57.1063477238
 30
0.0
 10
42.4901983672
 20
55.9985888421
 30
0.0
 10
43.6217150573
 20
54.7618472745
 30
0.0
 10
44.6852423839
 20
53.4134431222
 30
0.0
 10
45.6657958386
 20
51.9724167756
 30
0.0
 10
46.5494756704
 20
50.4592056707
 30
0.0
 10
47.0684925436
 20
49.4108524211
 30
0.0
 10
47.308637515
 20
48.87944413
 30
0.0
  0
LINE
  5
446
100
AcDbEntity
  8
0
100
AcDbLine
 62
7
  6
BYLAYER
 10
47.308637515
 20
48.87944413
 11
47.3256282864
 21
48.8417618592
  0
SPLINE
  5
447
100
AcDbEntity
  8
0
100
AcDbSpline
 62
7
  6
BYLAYER
 70
0
 71
3
 72
9
 73
5
 74
0
 42
0.0000001
 43
0.0000001
 44
0.0000000001
 40
0.0
 40
0.0
 40
0.0
 40
0.0
 40
0.503357307
 40
1.0
 40
1.0
 40
1.0
 40
1.0
 10
47.2883750691
 20
35.0055587755
 30
0.0
 10
47.1418171336
 20
34.8521816833
 30
0.0
 10
46.8320307113
 20
34.5646631019
 30
0.0
 10
46.4884963579
 20
34.3183026862
 30
0.0
 10
46.3109246799
 20
34.2074902375
 30
0.0
  0
LINE
  5
448
100
AcDbEntity
  8
0
100
AcDbLine
 62
7
  6
BYLAYER
 10
31.0088619088
 20
56.9596731202
 11
30.9854026946
 21
56.9460272776
  0
SPLINE
  5
449
100
AcDbEntity
  8
0
100
AcDbSpline
 62
7
  6
BYLAYER
 70
0
 71
3
 72
9
 73
5
 74
0
 42
0.0000001
 43
0.0000001
 44
0.0000000001
 40
0.0
 40
0.0
 40
0.0
 40
0.0
 40
0.4784482967
 40
1.0
 40
1.0
 40
1.0
 40
1.0
 10
45.143596517
 20
42.3404333767
 30
0.0
 10
45.1486057149
 20
42.3380423282
 30
0.0
 10
45.1580699289
 20
42.3307055931
 30
0.0
 10
45.1639677778
 20
42.3204188525
 30
0.0
 10
45.1662220114
 20
42.314803796
 30
0.0
  0
SPLINE
  5
44A
100
AcDbEntity
  8
0
100
AcDbSpline
 62
7
  6
BYLAYER
 70
0
 71
3
 72
9
 73
5
 74
0
 42
0.0000001
 43
0.0000001
 44
0.0000000001
 40
0.0
 40
0.0
 40
0.0
 40
0.0
 40
0.2373068903
 40
1.0
 40
1.0
 40
1.0
 40
1.0
 10
45.1662220114
 20
42.314803796
 30
0.0
 10
45.1669450738
 20
42.3130027245
 30
0.0
 10
45.1696446411
 20
42.3052746079
 30
0.0
 10
45.1710296047
 20
42.297117575
 30
0.0
 10
45.1714812161
 20
42.2908963281
 30
0.0
  0
SPLINE
  5
44B
100
AcDbEntity
  8
0
100
AcDbSpline
 62
7
  6
BYLAYER
 70
0
 71
3
 72
9
 73
5
 74
0
 42
0.0000001
 43
0.0000001
 44
0.0000000001
 40
0.0
 40
0.0
 40
0.0
 40
0.0
 40
0.4549876162
 40
1.0
 40
1.0
 40
1.0
 40
1.0
 10
45.186128851
 20
41.5255239726
 30
0.0
 10
45.1912811463
 20
41.5209443243
 30
0.0
 10
45.1994783612
 20
41.5073384737
 30
0.0
 10
45.2013487185
 20
41.4920021734
 30
0.0
 10
45.2013487185
 20
41.4837447999
 30
0.0
  0
SPLINE
  5
44C
100
AcDbEntity
  8
0
100
AcDbSpline
 62
7
  6
BYLAYER
 70
0
 71
3
 72
15
 73
11
 74
0
 42
0.0000001
 43
0.0000001
 44
0.0000000001
 40
0.0
 40
0.0
 40
0.0
 40
0.0
 40
0.1169929126
 40
0.2418179157
 40
0.3719468591
 40
0.5045245886
 40
0.6364798479
 40
0.7647861879
 40
0.8867224077
 40
1.0
 40
1.0
 40
1.0
 40
1.0
 10
42.774656311
 20
60.2050379649
 30
0.0
 10
42.8431635653
 20
60.1594988679
 30
0.0
 10
42.9775711603
 20
60.0542936679
 30
0.0
 10
43.1617055897
 20
59.8677543996
 30
0.0
 10
43.3299416141
 20
59.6526720712
 30
0.0
 10
43.4765500529
 20
59.4164370216
 30
0.0
 10
43.596529902
 20
59.1670408189
 30
0.0
 10
43.6858475416
 20
58.9129428128
 30
0.0
 10
43.741408019
 20
58.662815447
 30
0.0
 10
43.7552707412
 20
58.4972819274
 30
0.0
 10
43.7552707412
 20
58.4176322075
 30
0.0
  0
SPLINE
  5
44D
100
AcDbEntity
  8
0
100
AcDbSpline
 62
7
  6
BYLAYER
 70
0
 71
3
 72
9
 73
5
 74
0
 42
0.0000001
 43
0.0000001
 44
0.0000000001
 40
0.0
 40
0.0
 40
0.0
 40
0.0
 40
0.2429449279
 40
1.0
 40
1.0
 40
1.0
 40
1.0
 10
41.2003365456
 20
61.1139513429
 30
0.0
 10
41.3325897063
 20
61.0491551662
 30
0.0
 10
41.8721791567
 20
60.7727261846
 30
0.0
 10
42.3924651825
 20
60.4590933791
 30
0.0
 10
42.774656311
 20
60.2050379649
 30
0.0
  0
LINE
  5
44E
100
AcDbEntity
  8
0
100
AcDbLine
 62
7
  6
BYLAYER
 10
44.8860021449
 20
40.9078150921
 11
44.8865686687
 21
40.9224708917
  0
SPLINE
  5
44F
100
AcDbEntity
  8
0
100
AcDbSpline
 62
7
  6
BYLAYER
 70
0
 71
3
 72
12
 73
8
 74
0
 42
0.0000001
 43
0.0000001
 44
0.0000000001
 40
0.0
 40
0.0
 40
0.0
 40
0.0
 40
0.2395053651
 40
0.4312628316
 40
0.6354416607
 40
0.8199423902
 40
1.0
 40
1.0
 40
1.0
 40
1.0
 10
44.8257596527
 20
40.1550009065
 30
0.0
 10
44.8258964213
 20
40.1561138998
 30
0.0
 10
44.8265334252
 20
40.1580519945
 30
0.0
 10
44.8267113521
 20
40.161041119
 30
0.0
 10
44.8264556908
 20
40.1637595535
 30
0.0
 10
44.8269052006
 20
40.1664035329
 30
0.0
 10
44.8273534622
 20
40.1680540768
 30
0.0
 10
44.827454906
 20
40.1688909815
 30
0.0
  0
SPLINE
  5
450
100
AcDbEntity
  8
0
100
AcDbSpline
 62
7
  6
BYLAYER
 70
0
 71
3
 72
12
 73
8
 74
0
 42
0.0000001
 43
0.0000001
 44
0.0000000001
 40
0.0
 40
0.0
 40
0.0
 40
0.0
 40
0.2332170587
 40
0.4265570688
 40
0.6431770869
 40
0.8244179117
 40
1.0
 40
1.0
 40
1.0
 40
1.0
 10
44.7062996553
 20
39.4454348987
 30
0.0
 10
44.7065217709
 20
39.4464590468
 30
0.0
 10
44.7075888842
 20
39.4481315914
 30
0.0
 10
44.7078733111
 20
39.4510676931
 30
0.0
 10
44.707447733
 20
39.4537266346
 30
0.0
 10
44.7081985129
 20
39.4562478
 30
0.0
 10
44.708944926
 20
39.4576822525
 30
0.0
 10
44.7091107489
 20
39.4584536053
 30
0.0
  0
SPLINE
  5
451
100
AcDbEntity
  8
0
100
AcDbSpline
 62
7
  6
BYLAYER
 70
0
 71
3
 72
12
 73
8
 74
0
 42
0.0000001
 43
0.0000001
 44
0.0000000001
 40
0.0
 40
0.0
 40
0.0
 40
0.0
 40
0.2333639095
 40
0.426790421
 40
0.6433896984
 40
0.82453445
 40
1.0
 40
1.0
 40
1.0
 40
1.0
 10
35.352364387
 20
55.6647237362
 30
0.0
 10
35.3513663513
 20
55.6650454506
 30
0.0
 10
35.3493832625
 20
55.6649609981
 30
0.0
 10
35.3466983265
 20
55.6661839467
 30
0.0
 10
35.3446083281
 20
55.6678819101
 30
0.0
 10
35.3420498562
 20
55.6684901182
 30
0.0
 10
35.340435237
 20
55.6685578634
 30
0.0
 10
35.3396843789
 20
55.6687983955
 30
0.0
  0
SPLINE
  5
452
100
AcDbEntity
  8
0
100
AcDbSpline
 62
7
  6
BYLAYER
 70
0
 71
3
 72
12
 73
8
 74
0
 42
0.0000001
 43
0.0000001
 44
0.0000000001
 40
0.0
 40
0.0
 40
0.0
 40
0.0
 40
0.2396664879
 40
0.4314954274
 40
0.6356583064
 40
0.820071273
 40
1.0
 40
1.0
 40
1.0
 40
1.0
 10
36.0267899302
 20
55.4120052443
 30
0.0
 10
36.0257576963
 20
55.4124452746
 30
0.0
 10
36.0237603464
 20
55.4128657908
 30
0.0
 10
36.0210825516
 20
55.4142076423
 30
0.0
 10
36.018856131
 20
55.4157880813
 30
0.0
 10
36.0163418705
 20
55.4167186841
 30
0.0
 10
36.0146886587
 20
55.4171528786
 30
0.0
 10
36.0139131702
 20
55.4174819536
 30
0.0
  0
LINE
  5
453
100
AcDbEntity
  8
0
100
AcDbLine
 62
7
  6
BYLAYER
 10
36.7089634531
 20
55.0864199828
 11
36.6959879415
 21
55.0932570611
  0
LINE
  5
454
100
AcDbEntity
  8
0
100
AcDbLine
 62
7
  6
BYLAYER
 10
37.3936932036
 20
54.6904458522
 11
37.380717692
 21
54.6985912651
  0
SPLINE
  5
455
100
AcDbEntity
  8
0
100
AcDbSpline
 62
7
  6
BYLAYER
 70
0
 71
3
 72
11
 73
7
 74
0
 42
0.0000001
 43
0.0000001
 44
0.0000000001
 40
0.0
 40
0.0
 40
0.0
 40
0.0
 40
0.2592626359
 40
0.4420153124
 40
0.6170653997
 40
1.0
 40
1.0
 40
1.0
 40
1.0
 10
38.0757679416
 20
54.2270964816
 30
0.0
 10
38.0746530596
 20
54.2279107121
 30
0.0
 10
38.0729571976
 20
54.2295597776
 30
0.0
 10
38.0702221887
 20
54.231402721
 30
0.0
 10
38.0666259264
 20
54.2330807047
 30
0.0
 10
38.0645394361
 20
54.235287671
 30
0.0
 10
38.0628912148
 20
54.2364882107
 30
0.0
  0
SPLINE
  5
456
100
AcDbEntity
  8
0
100
AcDbSpline
 62
7
  6
BYLAYER
 70
0
 71
3
 72
11
 73
7
 74
0
 42
0.0000001
 43
0.0000001
 44
0.0000000001
 40
0.0
 40
0.0
 40
0.0
 40
0.0
 40
0.2640740171
 40
0.4439690725
 40
0.6132677077
 40
1.0
 40
1.0
 40
1.0
 40
1.0
 10
38.7499967334
 20
53.6998981906
 30
0.0
 10
38.7488749265
 20
53.7008341493
 30
0.0
 10
38.7473414406
 20
53.7027861947
 30
0.0
 10
38.7446022408
 20
53.7048391719
 30
0.0
 10
38.7407782814
 20
53.7064070723
 30
0.0
 10
38.7389612468
 20
53.7090960287
 30
0.0
 10
38.7373167575
 20
53.7104647811
 30
0.0
  0
SPLINE
  5
457
100
AcDbEntity
  8
0
100
AcDbSpline
 62
7
  6
BYLAYER
 70
0
 71
3
 72
11
 73
7
 74
0
 42
0.0000001
 43
0.0000001
 44
0.0000000001
 40
0.0
 40
0.0
 40
0.0
 40
0.0
 40
0.2639664402
 40
0.4438467492
 40
0.6131471452
 40
1.0
 40
1.0
 40
1.0
 40
1.0
 10
44.7091107523
 20
43.367071593
 30
0.0
 10
44.7088628839
 20
43.3685108016
 30
0.0
 10
44.707940818
 20
43.3708149614
 30
0.0
 10
44.707534336
 20
43.3742130265
 30
0.0
 10
44.7080878038
 20
43.3783093918
 30
0.0
 10
44.7066654144
 20
43.3812274141
 30
0.0
 10
44.7062996586
 20
43.3833361979
 30
0.0
  0
SPLINE
  5
458
100
AcDbEntity
  8
0
100
AcDbSpline
 62
7
  6
BYLAYER
 70
0
 71
3
 72
11
 73
7
 74
0
 42
0.0000001
 43
0.0000001
 44
0.0000000001
 40
0.0
 40
0.0
 40
0.0
 40
0.0
 40
0.2591335202
 40
0.441859221
 40
0.6169139885
 40
1.0
 40
1.0
 40
1.0
 40
1.0
 10
44.8274549081
 20
42.5199852466
 30
0.0
 10
44.827309007
 20
42.5213573908
 30
0.0
 10
44.826730782
 20
42.5236503043
 30
0.0
 10
44.826503927
 20
42.5269395529
 30
0.0
 10
44.8268483204
 20
42.5308938306
 30
0.0
 10
44.8259779127
 20
42.5338046164
 30
0.0
 10
44.8257596483
 20
42.5358328291
 30
0.0
  0
LINE
  5
459
100
AcDbEntity
  8
0
100
AcDbLine
 62
7
  6
BYLAYER
 10
44.8865686672
 20
41.6981482276
 11
44.8860021456
 21
41.7134581378
  0
SPLINE
  5
45A
100
AcDbEntity
  8
0
100
AcDbSpline
 62
7
  6
BYLAYER
 70
0
 71
3
 72
10
 73
6
 74
0
 42
0.0000001
 43
0.0000001
 44
0.0000000001
 40
0.0
 40
0.0
 40
0.0
 40
0.0
 40
0.4807345988
 40
0.7356317852
 40
1.0
 40
1.0
 40
1.0
 40
1.0
 10
50.1724765061
 20
40.9343743401
 30
0.0
 10
50.3057362422
 20
41.3594356167
 30
0.0
 10
50.4497917829
 20
42.0298102314
 30
0.0
 10
50.5432547187
 20
42.9520349786
 30
0.0
 10
50.5585129499
 20
43.4334561785
 30
0.0
 10
50.5585129499
 20
43.6784263836
 30
0.0
  0
SPLINE
  5
45B
100
AcDbEntity
  8
0
100
AcDbSpline
 62
7
  6
BYLAYER
 70
0
 71
3
 72
11
 73
7
 74
0
 42
0.0000001
 43
0.0000001
 44
0.0000000001
 40
0.0
 40
0.0
 40
0.0
 40
0.0
 40
0.2578283046
 40
0.5129750873
 40
0.7615404619
 40
1.0
 40
1.0
 40
1.0
 40
1.0
 10
48.346666163
 20
51.6249604378
 30
0.0
 10
48.0474321315
 20
52.1816130394
 30
0.0
 10
47.4019078316
 20
53.2629788379
 30
0.0
 10
46.30313313
 20
54.7751410685
 30
0.0
 10
45.0992389165
 20
56.1425476057
 30
0.0
 10
44.2227031397
 20
56.9568888923
 30
0.0
 10
43.7725343426
 20
57.3297114676
 30
0.0
  0
SPLINE
  5
45C
100
AcDbEntity
  8
0
100
AcDbSpline
 62
7
  6
BYLAYER
 70
0
 71
3
 72
10
 73
6
 74
0
 42
0.0000001
 43
0.0000001
 44
0.0000000001
 40
0.0
 40
0.0
 40
0.0
 40
0.0
 40
0.2392157321
 40
0.486027528
 40
1.0
 40
1.0
 40
1.0
 40
1.0
 10
50.5585129499
 20
43.6784263836
 30
0.0
 10
50.5585129499
 20
43.917002694
 30
0.0
 10
50.5435471948
 20
44.4018503313
 30
0.0
 10
50.4564284915
 20
45.3957170011
 30
0.0
 10
50.3290279244
 20
46.145465722
 30
0.0
 10
50.219713117
 20
46.646272697
 30
0.0
  0
SPLINE
  5
45D
100
AcDbEntity
  8
0
100
AcDbSpline
 62
7
  6
BYLAYER
 70
0
 71
3
 72
14
 73
10
 74
0
 42
0.0000001
 43
0.0000001
 44
0.0000000001
 40
0.0
 40
0.0
 40
0.0
 40
0.0
 40
0.101350338
 40
0.2058854365
 40
0.3164077821
 40
0.4348768019
 40
0.5624346765
 40
0.6994716067
 40
1.0
 40
1.0
 40
1.0
 40
1.0
 10
33.5308499877
 20
60.5202292057
 30
0.0
 10
33.5631053115
 20
60.5388647033
 30
0.0
 10
33.6331646612
 20
60.5693734995
 30
0.0
 10
33.7481041074
 20
60.5917723899
 30
0.0
 10
33.8714083921
 20
60.5910698622
 30
0.0
 10
34.0009132504
 20
60.5676354934
 30
0.0
 10
34.1346252581
 20
60.5220737838
 30
0.0
 10
34.3213612798
 20
60.4301631724
 30
0.0
 10
34.4526128683
 20
60.3346945882
 30
0.0
 10
34.5362080106
 20
60.2624912109
 30
0.0
  0
SPLINE
  5
45E
100
AcDbEntity
  8
0
100
AcDbSpline
 62
7
  6
BYLAYER
 70
0
 71
3
 72
13
 73
9
 74
0
 42
0.0000001
 43
0.0000001
 44
0.0000000001
 40
0.0
 40
0.0
 40
0.0
 40
0.0
 40
0.1103346534
 40
0.2223813596
 40
0.3377002118
 40
0.4576417792
 40
0.7150840181
 40
1.0
 40
1.0
 40
1.0
 40
1.0
 10
40.5303938097
 20
61.1455084676
 30
0.0
 10
40.5526116171
 20
61.1583385017
 30
0.0
 10
40.5994734564
 20
61.180766625
 30
0.0
 10
40.674900388
 20
61.2035800607
 30
0.0
 10
40.7550341069
 20
61.2156082331
 30
0.0
 10
40.8698965919
 20
61.2171474576
 30
0.0
 10
41.0229226009
 20
61.189888231
 30
0.0
 10
41.1408417316
 20
61.1431002623
 30
0.0
 10
41.2003365456
 20
61.1139513429
 30
0.0
  0
SPLINE
  5
45F
100
AcDbEntity
  8
0
100
AcDbSpline
 62
7
  6
BYLAYER
 70
0
 71
3
 72
14
 73
10
 74
0
 42
0.0000001
 43
0.0000001
 44
0.0000000001
 40
0.0
 40
0.0
 40
0.0
 40
0.0
 40
0.1185928649
 40
0.2376743461
 40
0.3579816351
 40
0.4802158653
 40
0.6050212658
 40
0.7329704536
 40
1.0
 40
1.0
 40
1.0
 40
1.0
 10
30.5246932514
 20
59.1016845652
 30
0.0
 10
30.3832757566
 20
59.0263926699
 30
0.0
 10
30.1070448586
 20
58.8615245807
 30
0.0
 10
29.7174093706
 20
58.5738358819
 30
0.0
 10
29.3535313296
 20
58.2467468866
 30
0.0
 10
29.0167106491
 20
57.8813476929
 30
0.0
 10
28.707952249
 20
57.4788534251
 30
0.0
 10
28.329739408
 20
56.8864548709
 30
0.0
 10
28.0994181733
 20
56.4019907188
 30
0.0
 10
27.9677115179
 20
56.0661528756
 30
0.0
  0
SPLINE
  5
460
100
AcDbEntity
  8
0
100
AcDbSpline
 62
7
  6
BYLAYER
 70
0
 71
3
 72
16
 73
12
 74
0
 42
0.0000001
 43
0.0000001
 44
0.0000000001
 40
0.0
 40
0.0
 40
0.0
 40
0.0
 40
0.053796622
 40
0.1079379477
 40
0.2180989266
 40
0.3322840132
 40
0.4518964431
 40
0.5779718801
 40
0.7111718262
 40
0.8518639669
 40
1.0
 40
1.0
 40
1.0
 40
1.0
 10
31.6059616758
 20
59.6773850801
 30
0.0
 10
31.7257259742
 20
59.7411487687
 30
0.0
 10
31.9714646575
 20
59.8591715478
 30
0.0
 10
32.485653583
 20
60.0559721052
 30
0.0
 10
33.1704873855
 20
60.2259221278
 30
0.0
 10
34.0374807979
 20
60.3042379819
 30
0.0
 10
34.946691883
 20
60.2585377723
 30
0.0
 10
35.8896043697
 20
60.0899032204
 30
0.0
 10
36.8579784707
 20
59.8004389996
 30
0.0
 10
37.8430599226
 20
59.3930996874
 30
0.0
 10
38.4890383117
 20
59.0541079089
 30
0.0
 10
38.8126002084
 20
58.8673035868
 30
0.0
  0
LINE
  5
461
100
AcDbEntity
  8
0
100
AcDbLine
 62
7
  6
BYLAYER
 10
43.6353274437
 20
35.0358365486
 11
43.6588746654
 21
35.0493299473
  0
SPLINE
  5
462
100
AcDbEntity
  8
0
100
AcDbSpline
 62
7
  6
BYLAYER
 70
0
 71
3
 72
15
 73
11
 74
0
 42
0.0000001
 43
0.0000001
 44
0.0000000001
 40
0.0
 40
0.0
 40
0.0
 40
0.0
 40
0.09301646
 40
0.1963594901
 40
0.3110321204
 40
0.4364628393
 40
0.5708762423
 40
0.7116830351
 40
0.8558503887
 40
1.0
 40
1.0
 40
1.0
 40
1.0
 10
49.1638175863
 20
51.6893682139
 30
0.0
 10
49.2236182101
 20
51.6947102903
 30
0.0
 10
49.3518570249
 20
51.6869842941
 30
0.0
 10
49.5452262447
 20
51.6282690177
 30
0.0
 10
49.7426355337
 20
51.525055348
 30
0.0
 10
49.9378062805
 20
51.3810785125
 30
0.0
 10
50.1244872431
 20
51.2011708846
 30
0.0
 10
50.2965002927
 20
50.9914011308
 30
0.0
 10
50.4479637727
 20
50.7588929153
 30
0.0
 10
50.5325337247
 20
50.5926375912
 30
0.0
 10
50.5700674882
 20
50.5075007452
 30
0.0
  0
SPLINE
  5
463
100
AcDbEntity
  8
0
100
AcDbSpline
 62
7
  6
BYLAYER
 70
0
 71
3
 72
9
 73
5
 74
0
 42
0.0000001
 43
0.0000001
 44
0.0000000001
 40
0.0
 40
0.0
 40
0.0
 40
0.0
 40
0.2451516809
 40
1.0
 40
1.0
 40
1.0
 40
1.0
 10
44.2125913345
 20
35.4329068327
 30
0.0
 10
44.2041110641
 20
35.4315857196
 30
0.0
 10
44.1694456664
 20
35.4266746055
 30
0.0
 10
44.1345192712
 20
35.4236467211
 30
0.0
 10
44.1081259113
 20
35.4223212606
 30
0.0
  0
SPLINE
  5
464
100
AcDbEntity
  8
0
100
AcDbSpline
 62
7
  6
BYLAYER
 70
0
 71
3
 72
9
 73
5
 74
0
 42
0.0000001
 43
0.0000001
 44
0.0000000001
 40
0.0
 40
0.0
 40
0.0
 40
0.0
 40
0.5207000026
 40
1.0
 40
1.0
 40
1.0
 40
1.0
 10
51.3572273709
 20
48.4787195923
 30
0.0
 10
51.3904801139
 20
48.3796372679
 30
0.0
 10
51.4417060482
 20
48.1847929097
 30
0.0
 10
51.4619241855
 20
47.9838980476
 30
0.0
 10
51.4619241855
 20
47.8876943319
 30
0.0
  0
SPLINE
  5
465
100
AcDbEntity
  8
0
100
AcDbSpline
 62
7
  6
BYLAYER
 70
0
 71
3
 72
14
 73
10
 74
0
 42
0.0000001
 43
0.0000001
 44
0.0000000001
 40
0.0
 40
0.0
 40
0.0
 40
0.0
 40
0.2892654733
 40
0.4225652398
 40
0.5485114123
 40
0.6678978323
 40
0.7818798305
 40
0.8919561332
 40
1.0
 40
1.0
 40
1.0
 40
1.0
 10
51.4619241855
 20
47.8876943319
 30
0.0
 10
51.4619241855
 20
47.8116674697
 30
0.0
 10
51.4530426329
 20
47.7000602739
 30
0.0
 10
51.4187358737
 20
47.5597851325
 30
0.0
 10
51.3838328326
 20
47.4663078128
 30
0.0
 10
51.3393244796
 20
47.3826780487
 30
0.0
 10
51.2856009327
 20
47.3096987658
 30
0.0
 10
51.223130814
 20
47.2482053849
 30
0.0
 10
51.1758485485
 20
47.2152138903
 30
0.0
 10
51.1512565964
 20
47.2010146461
 30
0.0
  0
SPLINE
  5
466
100
AcDbEntity
  8
0
100
AcDbSpline
 62
7
  6
BYLAYER
 70
0
 71
3
 72
9
 73
5
 74
0
 42
0.0000001
 43
0.0000001
 44
0.0000000001
 40
0.0
 40
0.0
 40
0.0
 40
0.0
 40
0.2437640353
 40
1.0
 40
1.0
 40
1.0
 40
1.0
 10
44.6837108418
 20
35.8792320037
 30
0.0
 10
44.6735793719
 20
35.8802782129
 30
0.0
 10
44.6320579468
 20
35.8849643613
 30
0.0
 10
44.5907134633
 20
35.8911839585
 30
0.0
 10
44.5595886307
 20
35.8966333545
 30
0.0
  0
SPLINE
  5
467
100
AcDbEntity
  8
0
100
AcDbSpline
 62
7
  6
BYLAYER
 70
0
 71
3
 72
12
 73
8
 74
0
 42
0.0000001
 43
0.0000001
 44
0.0000000001
 40
0.0
 40
0.0
 40
0.0
 40
0.0
 40
0.2611674465
 40
0.5223044609
 40
0.7717925131
 40
0.8891298073
 40
1.0
 40
1.0
 40
1.0
 40
1.0
 10
50.9315918995
 20
39.9217898342
 30
0.0
 10
51.0129084795
 20
39.8206315318
 30
0.0
 10
51.159678859
 20
39.6050812095
 30
0.0
 10
51.3268320462
 20
39.2584541316
 30
0.0
 10
51.4179607228
 20
38.9582542089
 30
0.0
 10
51.4553061265
 20
38.7235179672
 30
0.0
 10
51.4619241933
 20
38.6100395706
 30
0.0
 10
51.4619241933
 20
38.554941515
 30
0.0
  0
SPLINE
  5
468
100
AcDbEntity
  8
0
100
AcDbSpline
 62
7
  6
BYLAYER
 70
0
 71
3
 72
9
 73
5
 74
0
 42
0.0000001
 43
0.0000001
 44
0.0000000001
 40
0.0
 40
0.0
 40
0.0
 40
0.0
 40
0.2750880724
 40
1.0
 40
1.0
 40
1.0
 40
1.0
 10
51.4619241933
 20
38.554941515
 30
0.0
 10
51.4619241933
 20
38.5105358133
 30
0.0
 10
51.4544492784
 20
38.3495778021
 30
0.0
 10
51.4134585392
 20
38.1874288317
 30
0.0
 10
51.3572273709
 20
38.0848070026
 30
0.0
  0
SPLINE
  5
469
100
AcDbEntity
  8
0
100
AcDbSpline
 62
7
  6
BYLAYER
 70
0
 71
3
 72
9
 73
5
 74
0
 42
0.0000001
 43
0.0000001
 44
0.0000000001
 40
0.0
 40
0.0
 40
0.0
 40
0.0
 40
0.5083035566
 40
1.0
 40
1.0
 40
1.0
 40
1.0
 10
51.3572273709
 20
38.0848070026
 30
0.0
 10
51.2455919301
 20
37.8810724285
 30
0.0
 10
51.0046453426
 20
37.4914772737
 30
0.0
 10
50.7202146446
 20
37.1321429837
 30
0.0
 10
50.5700674882
 20
36.9649392277
 30
0.0
  0
SPLINE
  5
46A
100
AcDbEntity
  8
0
100
AcDbSpline
 62
7
  6
BYLAYER
 70
0
 71
3
 72
9
 73
5
 74
0
 42
0.0000001
 43
0.0000001
 44
0.0000000001
 40
0.0
 40
0.0
 40
0.0
 40
0.0
 40
0.2463434394
 40
1.0
 40
1.0
 40
1.0
 40
1.0
 10
44.7004810138
 20
38.6130096177
 30
0.0
 10
44.6989152104
 20
38.6111041261
 30
0.0
 10
44.6924462781
 20
38.6034621979
 30
0.0
 10
44.6855632343
 20
38.5961722217
 30
0.0
 10
44.6801777291
 20
38.5908874885
 30
0.0
  0
SPLINE
  5
46B
100
AcDbEntity
  8
0
100
AcDbSpline
 62
7
  6
BYLAYER
 70
0
 71
3
 72
9
 73
5
 74
0
 42
0.0000001
 43
0.0000001
 44
0.0000000001
 40
0.0
 40
0.0
 40
0.0
 40
0.0
 40
0.2415420996
 40
1.0
 40
1.0
 40
1.0
 40
1.0
 10
44.9184217282
 20
39.2579983784
 30
0.0
 10
44.9165139785
 20
39.2548499698
 30
0.0
 10
44.9082416705
 20
39.2420439558
 30
0.0
 10
44.8986287175
 20
39.2301190006
 30
0.0
 10
44.8907812447
 20
39.2216313708
 30
0.0
  0
SPLINE
  5
46C
100
AcDbEntity
  8
0
100
AcDbSpline
 62
7
  6
BYLAYER
 70
0
 71
3
 72
14
 73
10
 74
0
 42
0.0000001
 43
0.0000001
 44
0.0000000001
 40
0.0
 40
0.0
 40
0.0
 40
0.0
 40
0.2665343482
 40
0.3943869371
 40
0.5191866343
 40
0.6414966135
 40
0.7619432341
 40
0.8812057407
 40
1.0
 40
1.0
 40
1.0
 40
1.0
 10
41.4389879105
 20
32.8514378602
 30
0.0
 10
41.7889071618
 20
32.8021032028
 30
0.0
 10
42.3132159248
 20
32.7651042879
 30
0.0
 10
43.001235477
 20
32.8012050353
 30
0.0
 10
43.4943341708
 20
32.8694709294
 30
0.0
 10
43.9698299644
 20
32.9791248375
 30
0.0
 10
44.426279284
 20
33.1298500448
 30
0.0
 10
44.8621083858
 20
33.3212463497
 30
0.0
 10
45.138097714
 20
33.4755561397
 30
0.0
 10
45.2717159111
 20
33.5589398364
 30
0.0
  0
SPLINE
  5
46D
100
AcDbEntity
  8
0
100
AcDbSpline
 62
7
  6
BYLAYER
 70
0
 71
3
 72
9
 73
5
 74
0
 42
0.0000001
 43
0.0000001
 44
0.0000000001
 40
0.0
 40
0.0
 40
0.0
 40
0.0
 40
0.4818288763
 40
1.0
 40
1.0
 40
1.0
 40
1.0
 10
45.0768655819
 20
39.959441233
 30
0.0
 10
45.073305534
 20
39.9496565334
 30
0.0
 10
45.0636586834
 20
39.930155798
 30
0.0
 10
45.0510033505
 20
39.9125257214
 30
0.0
 10
45.0437981021
 20
39.9039542637
 30
0.0
  0
SPLINE
  5
46E
100
AcDbEntity
  8
0
100
AcDbSpline
 62
7
  6
BYLAYER
 70
0
 71
3
 72
9
 73
5
 74
0
 42
0.0000001
 43
0.0000001
 44
0.0000000001
 40
0.0
 40
0.0
 40
0.0
 40
0.0
 40
0.4693396834
 40
1.0
 40
1.0
 40
1.0
 40
1.0
 10
45.1714830783
 20
40.7110792495
 30
0.0
 10
45.1704198455
 20
40.6976601996
 30
0.0
 10
45.1621274919
 20
40.6695993603
 30
0.0
 10
45.1473153759
 20
40.6447484314
 30
0.0
 10
45.1380637504
 20
40.632663278
 30
0.0
  0
SPLINE
  5
46F
100
AcDbEntity
  8
0
100
AcDbSpline
 62
7
  6
BYLAYER
 70
0
 71
3
 72
9
 73
5
 74
0
 42
0.0000001
 43
0.0000001
 44
0.0000000001
 40
0.0
 40
0.0
 40
0.0
 40
0.0
 40
0.4751318083
 40
1.0
 40
1.0
 40
1.0
 40
1.0
 10
45.2013505878
 20
41.4837437207
 30
0.0
 10
45.2013505878
 20
41.4699179524
 30
0.0
 10
45.1951967376
 20
41.4408351153
 30
0.0
 10
45.1816030645
 20
41.4147359956
 30
0.0
 10
45.1728607712
 20
41.4022124982
 30
0.0
  0
SPLINE
  5
470
100
AcDbEntity
  8
0
100
AcDbSpline
 62
7
  6
BYLAYER
 70
0
 71
3
 72
9
 73
5
 74
0
 42
0.0000001
 43
0.0000001
 44
0.0000000001
 40
0.0
 40
0.0
 40
0.0
 40
0.0
 40
0.4807428066
 40
1.0
 40
1.0
 40
1.0
 40
1.0
 10
45.1714830783
 20
42.2908954411
 30
0.0
 10
45.1725091469
 20
42.2767606649
 30
0.0
 10
45.1684708545
 20
42.2468871327
 30
0.0
 10
45.1561500429
 20
42.2196545918
 30
0.0
 10
45.1479243381
 20
42.2067451899
 30
0.0
  0
SPLINE
  5
471
100
AcDbEntity
  8
0
100
AcDbSpline
 62
7
  6
BYLAYER
 70
0
 71
3
 72
9
 73
5
 74
0
 42
0.0000001
 43
0.0000001
 44
0.0000000001
 40
0.0
 40
0.0
 40
0.0
 40
0.0
 40
0.2377952124
 40
1.0
 40
1.0
 40
1.0
 40
1.0
 10
45.0821078594
 20
43.1263914987
 30
0.0
 10
45.0830899059
 20
43.1193934468
 30
0.0
 10
45.0841700324
 20
43.0895787294
 30
0.0
 10
45.0748386424
 20
43.0597143484
 30
0.0
 10
45.0634442325
 20
43.0401383737
 30
0.0
  0
SPLINE
  5
472
100
AcDbEntity
  8
0
100
AcDbSpline
 62
7
  6
BYLAYER
 70
0
 71
3
 72
11
 73
7
 74
0
 42
0.0000001
 43
0.0000001
 44
0.0000000001
 40
0.0
 40
0.0
 40
0.0
 40
0.0
 40
0.2246154426
 40
0.4607024096
 40
0.7179962761
 40
1.0
 40
1.0
 40
1.0
 40
1.0
 10
45.043795613
 20
43.1801374118
 30
0.0
 10
45.0487625623
 20
43.1785946488
 30
0.0
 10
45.0584591251
 20
43.1735768362
 30
0.0
 10
45.0700600303
 20
43.1613040111
 30
0.0
 10
45.0782659662
 20
43.1451103653
 30
0.0
 10
45.0811985645
 20
43.1328586945
 30
0.0
 10
45.0821060186
 20
43.1263921867
 30
0.0
  0
SPLINE
  5
473
100
AcDbEntity
  8
0
100
AcDbSpline
 62
7
  6
BYLAYER
 70
0
 71
3
 72
9
 73
5
 74
0
 42
0.0000001
 43
0.0000001
 44
0.0000000001
 40
0.0
 40
0.0
 40
0.0
 40
0.0
 40
0.2419618178
 40
1.0
 40
1.0
 40
1.0
 40
1.0
 10
44.9339051307
 20
43.9838732639
 30
0.0
 10
44.9353584833
 20
43.9767710914
 30
0.0
 10
44.9383791597
 20
43.9468585704
 30
0.0
 10
44.9307307716
 20
43.9160996999
 30
0.0
 10
44.9200633989
 20
43.8960494242
 30
0.0
  0
SPLINE
  5
474
100
AcDbEntity
  8
0
100
AcDbSpline
 62
7
  6
BYLAYER
 70
0
 71
3
 72
11
 73
7
 74
0
 42
0.0000001
 43
0.0000001
 44
0.0000000001
 40
0.0
 40
0.0
 40
0.0
 40
0.0
 40
0.2262420862
 40
0.4646320831
 40
0.721977399
 40
1.0
 40
1.0
 40
1.0
 40
1.0
 10
44.8907788034
 20
44.039144679
 30
0.0
 10
44.8960606076
 20
44.0375035599
 30
0.0
 10
44.9064020707
 20
44.0322693373
 30
0.0
 10
44.9191359296
 20
44.0197061813
 30
0.0
 10
44.9286735909
 20
44.0031522216
 30
0.0
 10
44.9325407091
 20
43.9905325129
 30
0.0
 10
44.9339033251
 20
43.9838737477
 30
0.0
  0
LINE
  5
475
100
AcDbEntity
  8
0
100
AcDbLine
 62
7
  6
BYLAYER
 10
44.5285313392
 20
44.2495182315
 11
44.5324368579
 21
44.2329604322
  0
SPLINE
  5
476
100
AcDbEntity
  8
0
100
AcDbSpline
 62
7
  6
BYLAYER
 70
0
 71
3
 72
9
 73
5
 74
0
 42
0.0000001
 43
0.0000001
 44
0.0000000001
 40
0.0
 40
0.0
 40
0.0
 40
0.0
 40
0.4959544905
 40
1.0
 40
1.0
 40
1.0
 40
1.0
 10
44.7280028043
 20
44.8568147828
 30
0.0
 10
44.7318660545
 20
44.8423281342
 30
0.0
 10
44.7338366955
 20
44.8114254393
 30
0.0
 10
44.7255398458
 20
44.7816660117
 30
0.0
 10
44.7188730522
 20
44.7679643414
 30
0.0
  0
SPLINE
  5
477
100
AcDbEntity
  8
0
100
AcDbSpline
 62
7
  6
BYLAYER
 70
0
 71
3
 72
11
 73
7
 74
0
 42
0.0000001
 43
0.0000001
 44
0.0000000001
 40
0.0
 40
0.0
 40
0.0
 40
0.0
 40
0.2278587113
 40
0.4681977026
 40
0.7254867878
 40
1.0
 40
1.0
 40
1.0
 40
1.0
 10
44.680175354
 20
44.9130667716
 30
0.0
 10
44.6857593232
 20
44.9113611477
 30
0.0
 10
44.6967285483
 20
44.9059928645
 30
0.0
 10
44.710571026
 20
44.893260129
 30
0.0
 10
44.72140178
 20
44.87648858
 30
0.0
 10
44.7261885527
 20
44.863611662
 30
0.0
 10
44.7280010477
 20
44.8568150587
 30
0.0
  0
LINE
  5
478
100
AcDbEntity
  8
0
100
AcDbLine
 62
7
  6
BYLAYER
 10
44.2938076143
 20
45.1277867619
 11
44.2987778582
 21
45.1110616963
  0
SPLINE
  5
479
100
AcDbEntity
  8
0
100
AcDbSpline
 62
7
  6
BYLAYER
 70
0
 71
3
 72
9
 73
5
 74
0
 42
0.0000001
 43
0.0000001
 44
0.0000000001
 40
0.0
 40
0.0
 40
0.0
 40
0.0
 40
0.5004324043
 40
1.0
 40
1.0
 40
1.0
 40
1.0
 10
44.4659679212
 20
45.7385724434
 30
0.0
 10
44.4706874939
 20
45.7241607192
 30
0.0
 10
44.4745005202
 20
45.6933434859
 30
0.0
 10
44.4675620529
 20
45.6630770399
 30
0.0
 10
44.4614043722
 20
45.6492473264
 30
0.0
  0
SPLINE
  5
47A
100
AcDbEntity
  8
0
100
AcDbSpline
 62
7
  6
BYLAYER
 70
0
 71
3
 72
10
 73
6
 74
0
 42
0.0000001
 43
0.0000001
 44
0.0000000001
 40
0.0
 40
0.0
 40
0.0
 40
0.0
 40
0.230194862
 40
0.4729573246
 40
1.0
 40
1.0
 40
1.0
 40
1.0
 10
44.4135880843
 20
45.795252615
 30
0.0
 10
44.4194599377
 20
45.7935169338
 30
0.0
 10
44.4310379817
 20
45.7880907009
 30
0.0
 10
44.451422615
 20
45.7706465552
 30
0.0
 10
44.4616032777
 20
45.7518952458
 30
0.0
 10
44.4659662271
 20
45.7385725093
 30
0.0
  0
LINE
  5
47B
100
AcDbEntity
  8
0
100
AcDbLine
 62
7
  6
BYLAYER
 10
44.0039148731
 20
46.0114576351
 11
44.0099120055
 21
45.9946926339
  0
SPLINE
  5
47C
100
AcDbEntity
  8
0
100
AcDbSpline
 62
7
  6
BYLAYER
 70
0
 71
3
 72
9
 73
5
 74
0
 42
0.0000001
 43
0.0000001
 44
0.0000000001
 40
0.0
 40
0.0
 40
0.0
 40
0.0
 40
0.504630555
 40
1.0
 40
1.0
 40
1.0
 40
1.0
 10
44.1497947252
 20
46.6224355374
 30
0.0
 10
44.1553198515
 20
46.608195391
 30
0.0
 10
44.160877359
 20
46.5776682914
 30
0.0
 10
44.1552781607
 20
46.5470755717
 30
0.0
 10
44.1496168512
 20
46.5331912835
 30
0.0
  0
SPLINE
  5
47D
100
AcDbEntity
  8
0
100
AcDbSpline
 62
7
  6
BYLAYER
 70
0
 71
3
 72
9
 73
5
 74
0
 42
0.0000001
 43
0.0000001
 44
0.0000000001
 40
0.0
 40
0.0
 40
0.0
 40
0.0
 40
0.4740801471
 40
1.0
 40
1.0
 40
1.0
 40
1.0
 10
44.0930458844
 20
46.678988242
 30
0.0
 10
44.105559586
 20
46.6754623182
 30
0.0
 10
44.1298915472
 20
46.6600355292
 30
0.0
 10
44.1445761194
 20
46.6358813587
 30
0.0
 10
44.1497931064
 20
46.6224353928
 30
0.0
  0
LINE
  5
47E
100
AcDbEntity
  8
0
100
AcDbLine
 62
7
  6
BYLAYER
 10
43.6610593745
 20
46.8938055823
 11
43.6680377536
 21
46.8771282372
  0
SPLINE
  5
47F
100
AcDbEntity
  8
0
100
AcDbSpline
 62
7
  6
BYLAYER
 70
0
 71
3
 72
9
 73
5
 74
0
 42
0.0000001
 43
0.0000001
 44
0.0000000001
 40
0.0
 40
0.0
 40
0.0
 40
0.0
 40
0.5085755308
 40
1.0
 40
1.0
 40
1.0
 40
1.0
 10
43.7818894852
 20
47.501677333
 30
0.0
 10
43.7881650621
 20
47.4877052292
 30
0.0
 10
43.7953610341
 20
47.4576674672
 30
0.0
 10
43.7910657271
 20
47.426932101
 30
0.0
 10
43.7858833804
 20
47.4130688655
 30
0.0
  0
SPLINE
  5
480
100
AcDbEntity
  8
0
100
AcDbSpline
 62
7
  6
BYLAYER
 70
0
 71
3
 72
9
 73
5
 74
0
 42
0.0000001
 43
0.0000001
 44
0.0000000001
 40
0.0
 40
0.0
 40
0.0
 40
0.0
 40
0.4774007548
 40
1.0
 40
1.0
 40
1.0
 40
1.0
 10
43.7209882738
 20
47.557547891
 30
0.0
 10
43.734016871
 20
47.5541022712
 30
0.0
 10
43.7594354999
 20
47.5391093002
 30
0.0
 10
43.7758435875
 20
47.51513431
 30
0.0
 10
43.781887954
 20
47.501676979
 30
0.0
  0
LINE
  5
481
100
AcDbEntity
  8
0
100
AcDbLine
 62
7
  6
BYLAYER
 10
43.2678504558
 20
47.7681154027
 11
43.2757569516
 21
47.7516526811
  0
SPLINE
  5
482
100
AcDbEntity
  8
0
100
AcDbSpline
 62
7
  6
BYLAYER
 70
0
 71
3
 72
9
 73
5
 74
0
 42
0.0000001
 43
0.0000001
 44
0.0000000001
 40
0.0
 40
0.0
 40
0.0
 40
0.0
 40
0.5123013447
 40
1.0
 40
1.0
 40
1.0
 40
1.0
 10
43.3650521822
 20
48.3696062693
 30
0.0
 10
43.3720184928
 20
48.3559978613
 30
0.0
 10
43.3807398369
 20
48.3266432677
 30
0.0
 10
43.3776976104
 20
48.2959488308
 30
0.0
 10
43.3729721912
 20
48.2821836726
 30
0.0
  0
SPLINE
  5
483
100
AcDbEntity
  8
0
100
AcDbSpline
 62
7
  6
BYLAYER
 70
0
 71
3
 72
9
 73
5
 74
0
 42
0.0000001
 43
0.0000001
 44
0.0000000001
 40
0.0
 40
0.0
 40
0.0
 40
0.0
 40
0.4807370397
 40
1.0
 40
1.0
 40
1.0
 40
1.0
 10
43.3002468358
 20
48.4242451926
 30
0.0
 10
43.3137439379
 20
48.4209506
 30
0.0
 10
43.3401621769
 20
48.4065577764
 30
0.0
 10
43.3582125107
 20
48.3829639346
 30
0.0
 10
43.3650507502
 20
48.3696057085
 30
0.0
  0
LINE
  5
484
100
AcDbEntity
  8
0
100
AcDbLine
 62
7
  6
BYLAYER
 10
42.8272806743
 20
48.6277330707
 11
42.8360551316
 21
48.6116102207
  0
SPLINE
  5
485
100
AcDbEntity
  8
0
100
AcDbSpline
 62
7
  6
BYLAYER
 70
0
 71
3
 72
9
 73
5
 74
0
 42
0.0000001
 43
0.0000001
 44
0.0000000001
 40
0.0
 40
0.0
 40
0.0
 40
0.0
 40
0.5158483107
 40
1.0
 40
1.0
 40
1.0
 40
1.0
 10
42.9024551997
 20
49.2196168828
 30
0.0
 10
42.9100477503
 20
49.2064662724
 30
0.0
 10
42.9201751058
 20
49.1779832794
 30
0.0
 10
42.9183207943
 20
49.1475106225
 30
0.0
 10
42.914025787
 20
49.1339212165
 30
0.0
  0
SPLINE
  5
486
100
AcDbEntity
  8
0
100
AcDbSpline
 62
7
  6
BYLAYER
 70
0
 71
3
 72
9
 73
5
 74
0
 42
0.0000001
 43
0.0000001
 44
0.0000000001
 40
0.0
 40
0.0
 40
0.0
 40
0.0
 40
0.4841519684
 40
1.0
 40
1.0
 40
1.0
 40
1.0
 10
42.8340236667
 20
49.2724840569
 30
0.0
 10
42.8479400096
 20
49.2694089161
 30
0.0
 10
42.8752572337
 20
49.2557783597
 30
0.0
 10
42.8948612976
 20
49.2327667816
 30
0.0
 10
42.902453878
 20
49.2196161197
 30
0.0
  0
LINE
  5
487
100
AcDbEntity
  8
0
100
AcDbLine
 62
7
  6
BYLAYER
 10
42.3427030322
 20
49.4661163769
 11
42.3522786967
 21
49.4504560625
  0
SPLINE
  5
488
100
AcDbEntity
  8
0
100
AcDbSpline
 62
7
  6
BYLAYER
 70
0
 71
3
 72
9
 73
5
 74
0
 42
0.0000001
 43
0.0000001
 44
0.0000000001
 40
0.0
 40
0.0
 40
0.0
 40
0.0
 40
0.5192629515
 40
1.0
 40
1.0
 40
1.0
 40
1.0
 10
42.3976191802
 20
50.0452400797
 30
0.0
 10
42.4057686351
 20
50.0326389941
 30
0.0
 10
42.4171770541
 20
50.0052105103
 30
0.0
 10
42.4164323683
 20
49.9751353044
 30
0.0
 10
42.4125370271
 20
49.9617992601
 30
0.0
  0
SPLINE
  5
489
100
AcDbEntity
  8
0
100
AcDbSpline
 62
7
  6
BYLAYER
 70
0
 71
3
 72
9
 73
5
 74
0
 42
0.0000001
 43
0.0000001
 44
0.0000000001
 40
0.0
 40
0.0
 40
0.0
 40
0.0
 40
0.4876992225
 40
1.0
 40
1.0
 40
1.0
 40
1.0
 10
42.3258670063
 20
50.0958088741
 30
0.0
 10
42.340150751
 20
50.0930186159
 30
0.0
 10
42.3682539672
 20
50.0803059593
 30
0.0
 10
42.3893158294
 20
50.058076309
 30
0.0
 10
42.3976179787
 20
50.0452391199
 30
0.0
  0
LINE
  5
48A
100
AcDbEntity
  8
0
100
AcDbLine
 62
7
  6
BYLAYER
 10
41.8178054578
 20
50.276884718
 11
41.8281094304
 21
50.2618061655
  0
SPLINE
  5
48B
100
AcDbEntity
  8
0
100
AcDbSpline
 62
7
  6
BYLAYER
 70
0
 71
3
 72
9
 73
5
 74
0
 42
0.0000001
 43
0.0000001
 44
0.0000000001
 40
0.0
 40
0.0
 40
0.0
 40
0.0
 40
0.52259895
 40
1.0
 40
1.0
 40
1.0
 40
1.0
 10
41.8543862305
 20
50.8401923688
 30
0.0
 10
41.8630184255
 20
50.828229272
 30
0.0
 10
41.8755779958
 20
50.8020325107
 30
0.0
 10
41.8758528443
 20
50.7725229581
 30
0.0
 10
41.8723225437
 20
50.7595171516
 30
0.0
  0
SPLINE
  5
48C
100
AcDbEntity
  8
0
100
AcDbSpline
 62
7
  6
BYLAYER
 70
0
 71
3
 72
9
 73
5
 74
0
 42
0.0000001
 43
0.0000001
 44
0.0000000001
 40
0.0
 40
0.0
 40
0.0
 40
0.0
 40
0.4914253236
 40
1.0
 40
1.0
 40
1.0
 40
1.0
 10
41.7796442337
 20
50.8879536451
 30
0.0
 10
41.7942413696
 20
50.8855100695
 30
0.0
 10
41.8230065376
 20
50.8738621691
 30
0.0
 10
41.8454226893
 20
50.8526120335
 30
0.0
 10
41.8543851584
 20
50.8401912198
 30
0.0
  0
LINE
  5
48D
100
AcDbEntity
  8
0
100
AcDbLine
 62
7
  6
BYLAYER
 10
41.2565827386
 20
51.0538676574
 11
41.2675365714
 21
51.0394856608
  0
SPLINE
  5
48E
100
AcDbEntity
  8
0
100
AcDbSpline
 62
7
  6
BYLAYER
 70
0
 71
3
 72
9
 73
5
 74
0
 42
0.0000001
 43
0.0000001
 44
0.0000000001
 40
0.0
 40
0.0
 40
0.0
 40
0.0
 40
0.525919274
 40
1.0
 40
1.0
 40
1.0
 40
1.0
 10
41.2768906815
 20
51.5984236834
 30
0.0
 10
41.2859266981
 20
51.5871828258
 30
0.0
 10
41.2995031454
 20
51.5623891504
 30
0.0
 10
41.3006970085
 20
51.5336038079
 30
0.0
 10
41.2974936953
 20
51.5210037762
 30
0.0
  0
SPLINE
  5
48F
100
AcDbEntity
  8
0
100
AcDbSpline
 62
7
  6
BYLAYER
 70
0
 71
3
 72
9
 73
5
 74
0
 42
0.0000001
 43
0.0000001
 44
0.0000000001
 40
0.0
 40
0.0
 40
0.0
 40
0.0
 40
0.4953705841
 40
1.0
 40
1.0
 40
1.0
 40
1.0
 10
41.199512434
 20
51.6428896699
 30
0.0
 10
41.2143672734
 20
51.6408503719
 30
0.0
 10
41.2436608165
 20
51.6304030137
 30
0.0
 10
41.2673199387
 20
51.6103272512
 30
0.0
 10
41.2768897469
 20
51.5984223537
 30
0.0
  0
LINE
  5
490
100
AcDbEntity
  8
0
100
AcDbLine
 62
7
  6
BYLAYER
 10
40.6633061184
 20
51.7911518857
 11
40.6748265026
 21
51.7775758266
  0
SPLINE
  5
491
100
AcDbEntity
  8
0
100
AcDbSpline
 62
7
  6
BYLAYER
 70
0
 71
3
 72
10
 73
6
 74
0
 42
0.0000001
 43
0.0000001
 44
0.0000000001
 40
0.0
 40
0.0
 40
0.0
 40
0.0
 40
0.5270417311
 40
0.7698043494
 40
1.0
 40
1.0
 40
1.0
 40
1.0
 10
40.669527623
 20
52.3141634251
 30
0.0
 10
40.6788839116
 20
52.3037238232
 30
0.0
 10
40.6900331253
 20
52.2855320207
 30
0.0
 10
40.6949478457
 20
52.2591565946
 30
0.0
 10
40.6938580656
 20
52.2464167235
 30
0.0
 10
40.6924252766
 20
52.2404637608
 30
0.0
  0
SPLINE
  5
492
100
AcDbEntity
  8
0
100
AcDbSpline
 62
7
  6
BYLAYER
 70
0
 71
3
 72
9
 73
5
 74
0
 42
0.0000001
 43
0.0000001
 44
0.0000000001
 40
0.0
 40
0.0
 40
0.0
 40
0.0
 40
0.4995690146
 40
1.0
 40
1.0
 40
1.0
 40
1.0
 10
40.5898867604
 20
52.3548714296
 30
0.0
 10
40.6049425125
 20
52.353289298
 30
0.0
 10
40.6346230938
 20
52.3441649279
 30
0.0
 10
40.6594056759
 20
52.3254549554
 30
0.0
 10
40.669526833
 20
52.314161925
 30
0.0
  0
LINE
  5
493
100
AcDbEntity
  8
0
100
AcDbLine
 62
7
  6
BYLAYER
 10
40.0424907906
 20
52.4831262249
 11
40.0544899897
 21
52.4704594952
  0
SPLINE
  5
494
100
AcDbEntity
  8
0
100
AcDbSpline
 62
7
  6
BYLAYER
 70
0
 71
3
 72
11
 73
7
 74
0
 42
0.0000001
 43
0.0000001
 44
0.0000000001
 40
0.0
 40
0.0
 40
0.0
 40
0.0
 40
0.2745133275
 40
0.5318011049
 40
0.7721403025
 40
1.0
 40
1.0
 40
1.0
 40
1.0
 10
40.0369194545
 20
52.9819643824
 30
0.0
 10
40.0418992036
 20
52.9769965097
 30
0.0
 10
40.0506576876
 20
52.9664129942
 30
0.0
 10
40.0597670682
 20
52.948647896
 30
0.0
 10
40.0638726705
 20
52.9302938311
 30
0.0
 10
40.0630371038
 20
52.9181101947
 30
0.0
 10
40.0617222234
 20
52.9124215807
 30
0.0
  0
SPLINE
  5
495
100
AcDbEntity
  8
0
100
AcDbSpline
 62
7
  6
BYLAYER
 70
0
 71
3
 72
9
 73
5
 74
0
 42
0.0000001
 43
0.0000001
 44
0.0000000001
 40
0.0
 40
0.0
 40
0.0
 40
0.0
 40
0.5040471999
 40
1.0
 40
1.0
 40
1.0
 40
1.0
 10
39.9554068324
 20
53.018480313
 30
0.0
 10
39.9706062428
 20
53.0174031162
 30
0.0
 10
40.0005268908
 20
53.0097086525
 30
0.0
 10
40.0263046292
 20
52.9925515953
 30
0.0
 10
40.0369188152
 20
52.9819627233
 30
0.0
  0
LINE
  5
496
100
AcDbEntity
  8
0
100
AcDbLine
 62
7
  6
BYLAYER
 10
39.3988615345
 20
53.1245243323
 11
39.4112482893
 21
53.1128632683
  0
SPLINE
  5
497
100
AcDbEntity
  8
0
100
AcDbSpline
 62
7
  6
BYLAYER
 70
0
 71
3
 72
11
 73
7
 74
0
 42
0.0000001
 43
0.0000001
 44
0.0000000001
 40
0.0
 40
0.0
 40
0.0
 40
0.0
 40
0.2780226851
 40
0.5353664592
 40
0.77375671
 40
1.0
 40
1.0
 40
1.0
 40
1.0
 10
39.3838807063
 20
53.5967441868
 30
0.0
 10
39.3889660103
 20
53.5922348484
 30
0.0
 10
39.3979615367
 20
53.5825764167
 30
0.0
 10
39.407528993
 20
53.5660400032
 30
0.0
 10
39.4120420232
 20
53.5487308418
 30
0.0
 10
39.4114042307
 20
53.5371579052
 30
0.0
 10
39.4101845669
 20
53.5317632309
 30
0.0
  0
SPLINE
  5
498
100
AcDbEntity
  8
0
100
AcDbSpline
 62
7
  6
BYLAYER
 70
0
 71
3
 72
9
 73
5
 74
0
 42
0.0000001
 43
0.0000001
 44
0.0000000001
 40
0.0
 40
0.0
 40
0.0
 40
0.0
 40
0.2550154898
 40
1.0
 40
1.0
 40
1.0
 40
1.0
 10
39.3009014255
 20
53.6286658558
 30
0.0
 10
39.3085342461
 20
53.6284012454
 30
0.0
 10
39.3382807583
 20
53.6248153675
 30
0.0
 10
39.3671866773
 20
53.6115452023
 30
0.0
 10
39.3838802225
 20
53.5967423813
 30
0.0
  0
SPLINE
  5
499
100
AcDbEntity
  8
0
100
AcDbSpline
 62
7
  6
BYLAYER
 70
0
 71
3
 72
11
 73
7
 74
0
 42
0.0000001
 43
0.0000001
 44
0.0000000001
 40
0.0
 40
0.0
 40
0.0
 40
0.0
 40
0.2820038212
 40
0.5392958868
 40
0.7753831307
 40
1.0
 40
1.0
 40
1.0
 40
1.0
 10
38.7153813974
 20
54.1538239928
 30
0.0
 10
38.7205277693
 20
54.1498049714
 30
0.0
 10
38.7296717885
 20
54.1411399096
 30
0.0
 10
38.7395930347
 20
54.1259369981
 30
0.0
 10
38.7444210863
 20
54.1097541873
 30
0.0
 10
38.7439183203
 20
54.0988479669
 30
0.0
 10
38.7427709021
 20
54.0937751477
 30
0.0
  0
SPLINE
  5
49A
100
AcDbEntity
  8
0
100
AcDbSpline
 62
7
  6
BYLAYER
 70
0
 71
3
 72
9
 73
5
 74
0
 42
0.0000001
 43
0.0000001
 44
0.0000000001
 40
0.0
 40
0.0
 40
0.0
 40
0.0
 40
0.2583727464
 40
1.0
 40
1.0
 40
1.0
 40
1.0
 10
38.6313517209
 20
54.1807841776
 30
0.0
 10
38.6390253794
 20
54.1808112533
 30
0.0
 10
38.6686255925
 20
54.1785574124
 30
0.0
 10
38.6980211194
 20
54.167379183
 30
0.0
 10
38.7153810728
 20
54.1538220546
 30
0.0
  0
SPLINE
  5
49B
100
AcDbEntity
  8
0
100
AcDbSpline
 62
7
  6
BYLAYER
 70
0
 71
3
 72
11
 73
7
 74
0
 42
0.0000001
 43
0.0000001
 44
0.0000000001
 40
0.0
 40
0.0
 40
0.0
 40
0.0
 40
0.2844619719
 40
0.5427027527
 40
0.7778937115
 40
1.0
 40
1.0
 40
1.0
 40
1.0
 10
38.0365092114
 20
54.6489640867
 30
0.0
 10
38.0411709014
 20
54.6458017793
 30
0.0
 10
38.049571974
 20
54.63897404
 30
0.0
 10
38.0592779253
 20
54.6268281141
 30
0.0
 10
38.0649834775
 20
54.6136444252
 30
0.0
 10
38.0658109058
 20
54.6044337281
 30
0.0
 10
38.0654671407
 20
54.6000489094
 30
0.0
  0
SPLINE
  5
49C
100
AcDbEntity
  8
0
100
AcDbSpline
 62
7
  6
BYLAYER
 70
0
 71
3
 72
9
 73
5
 74
0
 42
0.0000001
 43
0.0000001
 44
0.0000000001
 40
0.0
 40
0.0
 40
0.0
 40
0.0
 40
0.5192595884
 40
1.0
 40
1.0
 40
1.0
 40
1.0
 10
37.9518533961
 20
54.6706333246
 30
0.0
 10
37.9671461119
 20
54.6713023384
 30
0.0
 10
37.9968903136
 20
54.6683561376
 30
0.0
 10
38.0247810551
 20
54.6569178404
 30
0.0
 10
38.0365090485
 20
54.6489620306
 30
0.0
  0
SPLINE
  5
49D
100
AcDbEntity
  8
0
100
AcDbSpline
 62
7
  6
BYLAYER
 70
0
 71
3
 72
9
 73
5
 74
0
 42
0.0000001
 43
0.0000001
 44
0.0000000001
 40
0.0
 40
0.0
 40
0.0
 40
0.0
 40
0.544982423
 40
1.0
 40
1.0
 40
1.0
 40
1.0
 10
37.3524307754
 20
55.0783961533
 30
0.0
 10
37.3595758582
 20
55.0742710312
 30
0.0
 10
37.3719129642
 20
55.0649922889
 30
0.0
 10
37.3795994447
 20
55.0511079253
 30
0.0
 10
37.3809952439
 20
55.0443623989
 30
0.0
  0
SPLINE
  5
49E
100
AcDbEntity
  8
0
100
AcDbSpline
 62
7
  6
BYLAYER
 70
0
 71
3
 72
9
 73
5
 74
0
 42
0.0000001
 43
0.0000001
 44
0.0000000001
 40
0.0
 40
0.0
 40
0.0
 40
0.0
 40
0.5248707537
 40
1.0
 40
1.0
 40
1.0
 40
1.0
 10
37.2675778439
 20
55.0944852491
 30
0.0
 10
37.2827946437
 20
55.0957945988
 30
0.0
 10
37.3121936918
 20
55.0945174127
 30
0.0
 10
37.3404573714
 20
55.0853066865
 30
0.0
 10
37.3524307754
 20
55.0783939949
 30
0.0
  0
SPLINE
  5
49F
100
AcDbEntity
  8
0
100
AcDbSpline
 62
7
  6
BYLAYER
 70
0
 71
3
 72
9
 73
5
 74
0
 42
0.0000001
 43
0.0000001
 44
0.0000000001
 40
0.0
 40
0.0
 40
0.0
 40
0.0
 40
0.5306629891
 40
1.0
 40
1.0
 40
1.0
 40
1.0
 10
36.5837328141
 20
55.4491141818
 30
0.0
 10
36.5988246567
 20
55.4510838021
 30
0.0
 10
36.6277519591
 20
55.4514858816
 30
0.0
 10
36.6561997235
 20
55.4446382461
 30
0.0
 10
36.6683525023
 20
55.4388497112
 30
0.0
  0
SPLINE
  5
4A0
100
AcDbEntity
  8
0
100
AcDbSpline
 62
7
  6
BYLAYER
 70
0
 71
3
 72
9
 73
5
 74
0
 42
0.0000001
 43
0.0000001
 44
0.0000000001
 40
0.0
 40
0.0
 40
0.0
 40
0.0
 40
0.51816938
 40
1.0
 40
1.0
 40
1.0
 40
1.0
 10
35.9055227805
 20
55.7318211826
 30
0.0
 10
35.916547667
 20
55.7337752793
 30
0.0
 10
35.938141844
 20
55.7359200857
 30
0.0
 10
35.9598518166
 20
55.7345250656
 30
0.0
 10
35.9701050654
 20
55.7327166499
 30
0.0
  0
SPLINE
  5
4A1
100
AcDbEntity
  8
0
100
AcDbSpline
 62
7
  6
BYLAYER
 70
0
 71
3
 72
9
 73
5
 74
0
 42
0.0000001
 43
0.0000001
 44
0.0000000001
 40
0.0
 40
0.0
 40
0.0
 40
0.0
 40
0.2554695123
 40
1.0
 40
1.0
 40
1.0
 40
1.0
 10
35.238109331
 20
55.9404546805
 30
0.0
 10
35.2419063212
 20
55.9413142717
 30
0.0
 10
35.2568452176
 20
55.9443219708
 30
0.0
 10
35.2720775907
 20
55.9459681615
 30
0.0
 10
35.2834208649
 20
55.9462088398
 30
0.0
  0
SPLINE
  5
4A2
100
AcDbEntity
  8
0
100
AcDbSpline
 62
7
  6
BYLAYER
 70
0
 71
3
 72
9
 73
5
 74
0
 42
0.0000001
 43
0.0000001
 44
0.0000000001
 40
0.0
 40
0.0
 40
0.0
 40
0.0
 40
0.2521921562
 40
1.0
 40
1.0
 40
1.0
 40
1.0
 10
34.5865718848
 20
56.0734268485
 30
0.0
 10
34.5890041992
 20
56.0741032802
 30
0.0
 10
34.5986833644
 20
56.0766589914
 30
0.0
 10
34.6084939901
 20
56.0787244548
 30
0.0
 10
34.6158792922
 20
56.0799486961
 30
0.0
  0
SPLINE
  5
4A3
100
AcDbEntity
  8
0
100
AcDbSpline
 62
7
  6
BYLAYER
 70
0
 71
3
 72
9
 73
5
 74
0
 42
0.0000001
 43
0.0000001
 44
0.0000000001
 40
0.0
 40
0.0
 40
0.0
 40
0.0
 40
0.2563453538
 40
1.0
 40
1.0
 40
1.0
 40
1.0
 10
32.1929876306
 20
57.3160957111
 30
0.0
 10
32.1966634297
 20
57.3261557941
 30
0.0
 10
32.2113227252
 20
57.3652818333
 30
0.0
 10
32.2272911767
 20
57.4039215579
 30
0.0
 10
32.2399820039
 20
57.4322829406
 30
0.0
  0
SPLINE
  5
4A4
100
AcDbEntity
  8
0
100
AcDbSpline
 62
7
  6
BYLAYER
 70
0
 71
3
 72
9
 73
5
 74
0
 42
0.0000001
 43
0.0000001
 44
0.0000000001
 40
0.0
 40
0.0
 40
0.0
 40
0.0
 40
0.255096265
 40
1.0
 40
1.0
 40
1.0
 40
1.0
 10
31.5564969482
 20
57.1622596475
 30
0.0
 10
31.5613448671
 20
57.1697596081
 30
0.0
 10
31.580708663
 20
57.1989253167
 30
0.0
 10
31.6015394865
 20
57.2271236729
 30
0.0
 10
31.6179004993
 20
57.2474301674
 30
0.0
  0
SPLINE
  5
4A5
100
AcDbEntity
  8
0
100
AcDbSpline
 62
7
  6
BYLAYER
 70
0
 71
3
 72
11
 73
7
 74
0
 42
0.0000001
 43
0.0000001
 44
0.0000000001
 40
0.0
 40
0.0
 40
0.0
 40
0.0
 40
0.2382840461
 40
0.4868377622
 40
0.7420577113
 40
1.0
 40
1.0
 40
1.0
 40
1.0
 10
43.7418890011
 20
57.304017301
 30
0.0
 10
44.1898485949
 20
56.9301261261
 30
0.0
 10
45.0625468142
 20
56.1141871946
 30
0.0
 10
46.2621456595
 20
54.7458825612
 30
0.0
 10
47.3583478102
 20
53.2336990177
 30
0.0
 10
48.003148387
 20
52.1528793363
 30
0.0
 10
48.3022993883
 20
51.5965843919
 30
0.0
  0
SPLINE
  5
4A6
100
AcDbEntity
  8
0
100
AcDbSpline
 62
7
  6
BYLAYER
 70
0
 71
3
 72
9
 73
5
 74
0
 42
0.0000001
 43
0.0000001
 44
0.0000000001
 40
0.0
 40
0.0
 40
0.0
 40
0.0
 40
0.307779422
 40
1.0
 40
1.0
 40
1.0
 40
1.0
 10
31.6210983593
 20
57.2516445907
 30
0.0
 10
31.6208516832
 20
57.2521338892
 30
0.0
 10
31.6185781106
 20
57.2521803355
 30
0.0
 10
31.6170763513
 20
57.251797852
 30
0.0
 10
31.6158812412
 20
57.2514969432
 30
0.0
  0
SPLINE
  5
4A7
100
AcDbEntity
  8
0
100
AcDbSpline
 62
7
  6
BYLAYER
 70
0
 71
3
 72
9
 73
5
 74
0
 42
0.0000001
 43
0.0000001
 44
0.0000000001
 40
0.0
 40
0.0
 40
0.0
 40
0.0
 40
0.1933968168
 40
1.0
 40
1.0
 40
1.0
 40
1.0
 10
31.6158812412
 20
57.2514969432
 30
0.0
 10
31.6150126912
 20
57.2512782568
 30
0.0
 10
31.6105585917
 20
57.2500026547
 30
0.0
 10
31.6062138494
 20
57.2483780085
 30
0.0
 10
31.6027354792
 20
57.2470159676
 30
0.0
  0
SPLINE
  5
4A8
100
AcDbEntity
  8
0
100
AcDbSpline
 62
7
  6
BYLAYER
 70
0
 71
3
 72
9
 73
5
 74
0
 42
0.0000001
 43
0.0000001
 44
0.0000000001
 40
0.0
 40
0.0
 40
0.0
 40
0.0
 40
0.3765207242
 40
1.0
 40
1.0
 40
1.0
 40
1.0
 10
32.2423888531
 20
57.4381570133
 30
0.0
 10
32.2420399628
 20
57.4389410481
 30
0.0
 10
32.2397885728
 20
57.4402111321
 30
0.0
 10
32.2375322694
 20
57.4402362518
 30
0.0
 10
32.2361112643
 20
57.440229597
 30
0.0
  0
SPLINE
  5
4A9
100
AcDbEntity
  8
0
100
AcDbSpline
 62
7
  6
BYLAYER
 70
0
 71
3
 72
9
 73
5
 74
0
 42
0.0000001
 43
0.0000001
 44
0.0000000001
 40
0.0
 40
0.0
 40
0.0
 40
0.0
 40
0.1985218414
 40
1.0
 40
1.0
 40
1.0
 40
1.0
 10
32.2361112643
 20
57.440229597
 30
0.0
 10
32.2351546262
 20
57.4402251169
 30
0.0
 10
32.2303379683
 20
57.4399449228
 30
0.0
 10
32.2255880829
 20
57.438997881
 30
0.0
 10
32.2218251315
 20
57.4381279047
 30
0.0
  0
SPLINE
  5
4AA
100
AcDbEntity
  8
0
100
AcDbSpline
 62
7
  6
BYLAYER
 70
0
 71
3
 72
9
 73
5
 74
0
 42
0.0000001
 43
0.0000001
 44
0.0000000001
 40
0.0
 40
0.0
 40
0.0
 40
0.0
 40
0.5145861417
 40
1.0
 40
1.0
 40
1.0
 40
1.0
 10
50.5283602121
 20
43.3519113126
 30
0.0
 10
50.5208077897
 20
43.014584907
 30
0.0
 10
50.4764492527
 20
42.3592487003
 30
0.0
 10
50.3639922931
 20
41.7116816852
 30
0.0
 10
50.2906615566
 20
41.4019615224
 30
0.0
  0
SPLINE
  5
4AB
100
AcDbEntity
  8
0
100
AcDbSpline
 62
7
  6
BYLAYER
 70
0
 71
3
 72
18
 73
14
 74
0
 42
0.0000001
 43
0.0000001
 44
0.0000000001
 40
0.0
 40
0.0
 40
0.0
 40
0.0
 40
0.0528396841
 40
0.1060679991
 40
0.1599545262
 40
0.2147535606
 40
0.270695578
 40
0.3279868925
 40
0.4472252221
 40
0.5736254219
 40
0.7078049664
 40
0.8499753954
 40
1.0
 40
1.0
 40
1.0
 40
1.0
 10
45.2717159111
 20
33.5589398364
 30
0.0
 10
45.3968928884
 20
33.6370558366
 30
0.0
 10
45.6412296003
 20
33.8052974666
 30
0.0
 10
45.9855363942
 20
34.0906959559
 30
0.0
 10
46.3075565306
 20
34.4088827316
 30
0.0
 10
46.6063146122
 20
34.7589720759
 30
0.0
 10
46.8811100827
 20
35.1399377649
 30
0.0
 10
47.218941252
 20
35.6949206579
 30
0.0
 10
47.5760077826
 20
36.4652032911
 30
0.0
 10
47.891755126
 20
37.4804821732
 30
0.0
 10
48.0981763307
 20
38.5883997388
 30
0.0
 10
48.1935044844
 20
39.777044365
 30
0.0
 10
48.1828021331
 20
40.5941540048
 30
0.0
 10
48.160154411
 20
41.0124750948
 30
0.0
  0
SPLINE
  5
4AC
100
AcDbEntity
  8
0
100
AcDbSpline
 62
7
  6
BYLAYER
 70
0
 71
3
 72
9
 73
5
 74
0
 42
0.0000001
 43
0.0000001
 44
0.0000000001
 40
0.0
 40
0.0
 40
0.0
 40
0.0
 40
0.2009776002
 40
1.0
 40
1.0
 40
1.0
 40
1.0
 10
32.9025268724
 20
57.5375296255
 30
0.0
 10
32.9023158459
 20
57.5380777357
 30
0.0
 10
32.9006839492
 20
57.5405997024
 30
0.0
 10
32.8975437341
 20
57.5415382395
 30
0.0
 10
32.895254063
 20
57.5419962822
 30
0.0
  0
SPLINE
  5
4AD
100
AcDbEntity
  8
0
100
AcDbSpline
 62
7
  6
BYLAYER
 70
0
 71
3
 72
9
 73
5
 74
0
 42
0.0000001
 43
0.0000001
 44
0.0000000001
 40
0.0
 40
0.0
 40
0.0
 40
0.0
 40
0.2052060614
 40
1.0
 40
1.0
 40
1.0
 40
1.0
 10
32.895254063
 20
57.5419962822
 30
0.0
 10
32.8942261518
 20
57.5422019131
 30
0.0
 10
32.8891543475
 20
57.5428868915
 30
0.0
 10
32.884005823
 20
57.5426658529
 30
0.0
 10
32.8799617907
 20
57.5423045937
 30
0.0
  0
SPLINE
  5
4AE
100
AcDbEntity
  8
0
100
AcDbSpline
 62
7
  6
BYLAYER
 70
0
 71
3
 72
9
 73
5
 74
0
 42
0.0000001
 43
0.0000001
 44
0.0000000001
 40
0.0
 40
0.0
 40
0.0
 40
0.0
 40
0.2668961378
 40
1.0
 40
1.0
 40
1.0
 40
1.0
 10
44.1398662528
 20
35.3748189967
 30
0.0
 10
44.1441645888
 20
35.3775871553
 30
0.0
 10
44.1602158989
 20
35.3880407379
 30
0.0
 10
44.1760601427
 20
35.3988202345
 30
0.0
 10
44.1874502369
 20
35.4070344979
 30
0.0
  0
SPLINE
  5
4AF
100
AcDbEntity
  8
0
100
AcDbSpline
 62
7
  6
BYLAYER
 70
0
 71
3
 72
9
 73
5
 74
0
 42
0.0000001
 43
0.0000001
 44
0.0000000001
 40
0.0
 40
0.0
 40
0.0
 40
0.0
 40
0.2789511594
 40
1.0
 40
1.0
 40
1.0
 40
1.0
 10
44.1874502369
 20
35.4070344979
 30
0.0
 10
44.1890738635
 20
35.4082054186
 30
0.0
 10
44.1948753457
 20
35.4124288175
 30
0.0
 10
44.2006078974
 20
35.4167501124
 30
0.0
 10
44.2046508009
 20
35.4199795247
 30
0.0
  0
SPLINE
  5
4B0
100
AcDbEntity
  8
0
100
AcDbSpline
 62
7
  6
BYLAYER
 70
0
 71
3
 72
9
 73
5
 74
0
 42
0.0000001
 43
0.0000001
 44
0.0000000001
 40
0.0
 40
0.0
 40
0.0
 40
0.0
 40
0.6176158105
 40
1.0
 40
1.0
 40
1.0
 40
1.0
 10
44.2046520573
 20
35.4199775819
 30
0.0
 10
44.2073542543
 20
35.4221360574
 30
0.0
 10
44.2116308377
 20
35.42572774
 30
0.0
 10
44.2157414172
 20
35.4295962898
 30
0.0
 10
44.2170216298
 20
35.4313126576
 30
0.0
  0
SPLINE
  5
4B1
100
AcDbEntity
  8
0
100
AcDbSpline
 62
7
  6
BYLAYER
 70
0
 71
3
 72
9
 73
5
 74
0
 42
0.0000001
 43
0.0000001
 44
0.0000000001
 40
0.0
 40
0.0
 40
0.0
 40
0.0
 40
0.6477180649
 40
1.0
 40
1.0
 40
1.0
 40
1.0
 10
44.2170216298
 20
35.4313126576
 30
0.0
 10
44.2173412514
 20
35.4317411709
 30
0.0
 10
44.2178201278
 20
35.4323745743
 30
0.0
 10
44.2180013777
 20
35.4333229021
 30
0.0
 10
44.2178419791
 20
35.4335660653
 30
0.0
  0
SPLINE
  5
4B2
100
AcDbEntity
  8
0
100
AcDbSpline
 62
7
  6
BYLAYER
 70
0
 71
3
 72
9
 73
5
 74
0
 42
0.0000001
 43
0.0000001
 44
0.0000000001
 40
0.0
 40
0.0
 40
0.0
 40
0.0
 40
0.4427513566
 40
1.0
 40
1.0
 40
1.0
 40
1.0
 10
33.5965004262
 20
57.5489226994
 30
0.0
 10
33.5959925198
 20
57.5504849528
 30
0.0
 10
33.5936277439
 20
57.5536212557
 30
0.0
 10
33.5902273065
 20
57.5552918058
 30
0.0
 10
33.5882931625
 20
57.5560224929
 30
0.0
  0
SPLINE
  5
4B3
100
AcDbEntity
  8
0
100
AcDbSpline
 62
7
  6
BYLAYER
 70
0
 71
3
 72
9
 73
5
 74
0
 42
0.0000001
 43
0.0000001
 44
0.0000000001
 40
0.0
 40
0.0
 40
0.0
 40
0.0
 40
0.2120744396
 40
1.0
 40
1.0
 40
1.0
 40
1.0
 10
33.5882931625
 20
57.5560224929
 30
0.0
 10
33.5872068694
 20
57.5564328762
 30
0.0
 10
33.5819586713
 20
57.5580337468
 30
0.0
 10
33.5764477151
 20
57.5585855299
 30
0.0
 10
33.5721366393
 20
57.5587531872
 30
0.0
  0
SPLINE
  5
4B4
100
AcDbEntity
  8
0
100
AcDbSpline
 62
7
  6
BYLAYER
 70
0
 71
3
 72
9
 73
5
 74
0
 42
0.0000001
 43
0.0000001
 44
0.0000000001
 40
0.0
 40
0.0
 40
0.0
 40
0.0
 40
0.4568683334
 40
1.0
 40
1.0
 40
1.0
 40
1.0
 10
34.3190276422
 20
57.4721577184
 30
0.0
 10
34.3184885468
 20
57.4741936892
 30
0.0
 10
34.3160326239
 20
57.4783398261
 30
0.0
 10
34.3121588005
 20
57.4810147218
 30
0.0
 10
34.3099541168
 20
57.4822014812
 30
0.0
  0
SPLINE
  5
4B5
100
AcDbEntity
  8
0
100
AcDbSpline
 62
7
  6
BYLAYER
 70
0
 71
3
 72
9
 73
5
 74
0
 42
0.0000001
 43
0.0000001
 44
0.0000000001
 40
0.0
 40
0.0
 40
0.0
 40
0.0
 40
0.2183316306
 40
1.0
 40
1.0
 40
1.0
 40
1.0
 10
34.3099541168
 20
57.4822014812
 30
0.0
 10
34.3088205691
 20
57.4828116587
 30
0.0
 10
34.303451985
 20
57.4852783113
 30
0.0
 10
34.2976349174
 20
57.4866333933
 30
0.0
 10
34.293081809
 20
57.4873485015
 30
0.0
  0
SPLINE
  5
4B6
100
AcDbEntity
  8
0
100
AcDbSpline
 62
7
  6
BYLAYER
 70
0
 71
3
 72
10
 73
6
 74
0
 42
0.0000001
 43
0.0000001
 44
0.0000000001
 40
0.0
 40
0.0
 40
0.0
 40
0.0
 40
0.5603574936
 40
0.8017052385
 40
1.0
 40
1.0
 40
1.0
 40
1.0
 10
44.6188160279
 20
35.8096852918
 30
0.0
 10
44.630856445
 20
35.8183584532
 30
0.0
 10
44.6477495905
 20
35.8312610452
 30
0.0
 10
44.6677357636
 20
35.8486406616
 30
0.0
 10
44.676112655
 20
35.8567447411
 30
0.0
 10
44.679694999
 20
35.8605841219
 30
0.0
  0
SPLINE
  5
4B7
100
AcDbEntity
  8
0
100
AcDbSpline
 62
7
  6
BYLAYER
 70
0
 71
3
 72
9
 73
5
 74
0
 42
0.0000001
 43
0.0000001
 44
0.0000000001
 40
0.0
 40
0.0
 40
0.0
 40
0.0
 40
0.4655385952
 40
1.0
 40
1.0
 40
1.0
 40
1.0
 10
35.0645945151
 20
57.3077178012
 30
0.0
 10
35.0640712486
 20
57.3102925755
 30
0.0
 10
35.0615545276
 20
57.3155814317
 30
0.0
 10
35.0572293611
 20
57.3193848513
 30
0.0
 10
35.0547446503
 20
57.3210950695
 30
0.0
  0
SPLINE
  5
4B8
100
AcDbEntity
  8
0
100
AcDbSpline
 62
7
  6
BYLAYER
 70
0
 71
3
 72
9
 73
5
 74
0
 42
0.0000001
 43
0.0000001
 44
0.0000000001
 40
0.0
 40
0.0
 40
0.0
 40
0.0
 40
0.2236860284
 40
1.0
 40
1.0
 40
1.0
 40
1.0
 10
35.0547446503
 20
57.3210950695
 30
0.0
 10
35.0535747334
 20
57.3219003194
 30
0.0
 10
35.0481297654
 20
57.3251885112
 30
0.0
 10
35.0420716132
 20
57.3273582918
 30
0.0
 10
35.0373104716
 20
57.3286339692
 30
0.0
  0
SPLINE
  5
4B9
100
AcDbEntity
  8
0
100
AcDbSpline
 62
7
  6
BYLAYER
 70
0
 71
3
 72
11
 73
7
 74
0
 42
0.0000001
 43
0.0000001
 44
0.0000000001
 40
0.0
 40
0.0
 40
0.0
 40
0.0
 40
0.3881908008
 40
0.6824521075
 40
0.8801701481
 40
1.0
 40
1.0
 40
1.0
 40
1.0
 10
44.6796963426
 20
35.8605822598
 30
0.0
 10
44.681576445
 20
35.8625972613
 30
0.0
 10
44.6847993694
 20
35.8662167115
 30
0.0
 10
44.6884376289
 20
35.8713378484
 30
0.0
 10
44.6904838048
 20
35.8751395509
 30
0.0
 10
44.6905035672
 20
35.8776883709
 30
0.0
 10
44.6900033905
 20
35.8783765128
 30
0.0
  0
SPLINE
  5
4BA
100
AcDbEntity
  8
0
100
AcDbSpline
 62
7
  6
BYLAYER
 70
0
 71
3
 72
9
 73
5
 74
0
 42
0.0000001
 43
0.0000001
 44
0.0000000001
 40
0.0
 40
0.0
 40
0.0
 40
0.0
 40
0.4710650872
 40
1.0
 40
1.0
 40
1.0
 40
1.0
 10
35.8274932069
 20
57.0567434407
 30
0.0
 10
35.8270486515
 20
57.0599308306
 30
0.0
 10
35.8245379375
 20
57.0665309521
 30
0.0
 10
35.8197731696
 20
57.0716168066
 30
0.0
 10
35.8169964572
 20
57.073929375
 30
0.0
  0
SPLINE
  5
4BB
100
AcDbEntity
  8
0
100
AcDbSpline
 62
7
  6
BYLAYER
 70
0
 71
3
 72
9
 73
5
 74
0
 42
0.0000001
 43
0.0000001
 44
0.0000000001
 40
0.0
 40
0.0
 40
0.0
 40
0.0
 40
0.2281325177
 40
1.0
 40
1.0
 40
1.0
 40
1.0
 10
35.8169964572
 20
57.073929375
 30
0.0
 10
35.8158014305
 20
57.0749246459
 30
0.0
 10
35.8103200376
 20
57.078995526
 30
0.0
 10
35.8040875175
 20
57.0819754101
 30
0.0
 10
35.7991585976
 20
57.083817504
 30
0.0
  0
SPLINE
  5
4BC
100
AcDbEntity
  8
0
100
AcDbSpline
 62
7
  6
BYLAYER
 70
0
 71
3
 72
10
 73
6
 74
0
 42
0.0000001
 43
0.0000001
 44
0.0000000001
 40
0.0
 40
0.0
 40
0.0
 40
0.0
 40
0.5569599148
 40
0.7988750239
 40
1.0
 40
1.0
 40
1.0
 40
1.0
 10
45.0422489641
 20
36.3220975674
 30
0.0
 10
45.0538607065
 20
36.3314076237
 30
0.0
 10
45.0699751455
 20
36.3454970722
 30
0.0
 10
45.0883950475
 20
36.3648710209
 30
0.0
 10
45.0958836513
 20
36.37407465
 30
0.0
 10
45.0989742921
 20
36.3784716081
 30
0.0
  0
SPLINE
  5
4BD
100
AcDbEntity
  8
0
100
AcDbSpline
 62
7
  6
BYLAYER
 70
0
 71
3
 72
10
 73
6
 74
0
 42
0.0000001
 43
0.0000001
 44
0.0000000001
 40
0.0
 40
0.0
 40
0.0
 40
0.0
 40
0.3664431559
 40
0.6526617167
 40
1.0
 40
1.0
 40
1.0
 40
1.0
 10
45.0989757126
 20
36.378469841
 30
0.0
 10
45.1006531057
 20
36.3808562158
 30
0.0
 10
45.1034874309
 20
36.3853217575
 30
0.0
 10
45.1068827456
 20
36.3921768724
 30
0.0
 10
45.1078608229
 20
36.3982489892
 30
0.0
 10
45.1061229785
 20
36.4003993997
 30
0.0
  0
SPLINE
  5
4BE
100
AcDbEntity
  8
0
100
AcDbSpline
 62
7
  6
BYLAYER
 70
0
 71
3
 72
10
 73
6
 74
0
 42
0.0000001
 43
0.0000001
 44
0.0000000001
 40
0.0
 40
0.0
 40
0.0
 40
0.0
 40
0.5525421177
 40
0.7952188353
 40
1.0
 40
1.0
 40
1.0
 40
1.0
 10
45.4069424812
 20
36.9081560566
 30
0.0
 10
45.4181097962
 20
36.9180824838
 30
0.0
 10
45.4334065588
 20
36.9333346935
 30
0.0
 10
45.4501708159
 20
36.9545764566
 30
0.0
 10
45.4567175085
 20
36.9648009128
 30
0.0
 10
45.4592977116
 20
36.9697005469
 30
0.0
  0
SPLINE
  5
4BF
100
AcDbEntity
  8
0
100
AcDbSpline
 62
7
  6
BYLAYER
 70
0
 71
3
 72
11
 73
7
 74
0
 42
0.0000001
 43
0.0000001
 44
0.0000000001
 40
0.0
 40
0.0
 40
0.0
 40
0.0
 40
0.3412899982
 40
0.6163953012
 40
0.8288726969
 40
1.0
 40
1.0
 40
1.0
 40
1.0
 10
45.4592991981
 20
36.9696988882
 30
0.0
 10
45.4607607346
 20
36.9724742488
 30
0.0
 10
45.4631588861
 20
36.9776280744
 30
0.0
 10
45.4652771486
 20
36.9849844155
 30
0.0
 10
45.4655203328
 20
36.9911398103
 30
0.0
 10
45.4640197773
 20
36.9945450084
 30
0.0
 10
45.4629675851
 20
36.9957139797
 30
0.0
  0
SPLINE
  5
4C0
100
AcDbEntity
  8
0
100
AcDbSpline
 62
7
  6
BYLAYER
 70
0
 71
3
 72
10
 73
6
 74
0
 42
0.0000001
 43
0.0000001
 44
0.0000000001
 40
0.0
 40
0.0
 40
0.0
 40
0.0
 40
0.5473735033
 40
0.7909722196
 40
1.0
 40
1.0
 40
1.0
 40
1.0
 10
45.7101210413
 20
37.5634005006
 30
0.0
 10
45.7208287247
 20
37.5739182832
 30
0.0
 10
45.7352648737
 20
37.5902993218
 30
0.0
 10
45.7502986256
 20
37.6132664994
 30
0.0
 10
45.7558621115
 20
37.6244229959
 30
0.0
 10
45.7579229786
 20
37.629771329
 30
0.0
  0
SPLINE
  5
4C1
100
AcDbEntity
  8
0
100
AcDbSpline
 62
7
  6
BYLAYER
 70
0
 71
3
 72
11
 73
7
 74
0
 42
0.0000001
 43
0.0000001
 44
0.0000000001
 40
0.0
 40
0.0
 40
0.0
 40
0.0
 40
0.3253368634
 40
0.5331820885
 40
0.710967218
 40
1.0
 40
1.0
 40
1.0
 40
1.0
 10
45.7579245199
 20
37.6297697914
 30
0.0
 10
45.7591513861
 20
37.6329537372
 30
0.0
 10
45.7608711784
 20
37.6382990282
 30
0.0
 10
45.7620127993
 20
37.6457080849
 30
0.0
 10
45.7618973594
 20
37.6527800561
 30
0.0
 10
45.7598915873
 20
37.6576980239
 30
0.0
 10
45.7577417389
 20
37.6598351805
 30
0.0
  0
SPLINE
  5
4C2
100
AcDbEntity
  8
0
100
AcDbSpline
 62
7
  6
BYLAYER
 70
0
 71
3
 72
29
 73
25
 74
0
 42
0.0000001
 43
0.0000001
 44
0.0000000001
 40
0.0
 40
0.0
 40
0.0
 40
0.0
 40
0.0301406715
 40
0.0612893839
 40
0.1262815048
 40
0.1943893161
 40
0.2648553642
 40
0.3368195075
 40
0.4093600065
 40
0.4815322153
 40
0.5524062699
 40
0.6211050187
 40
0.6868439519
 40
0.748975851
 40
0.7785505989
 40
0.8070714826
 40
0.834520874
 40
0.8609017325
 40
0.8862392301
 40
0.9105837227
 40
0.9340124469
 40
0.9566310107
 40
0.9785734001
 40
1.0
 40
1.0
 40
1.0
 40
1.0
 10
37.7519444434
 20
56.5746306393
 30
0.0
 10
37.9641598557
 20
56.4521107856
 30
0.0
 10
38.3880978301
 20
56.1896039775
 30
0.0
 10
39.2294371983
 20
55.600476978
 30
0.0
 10
40.2599320681
 20
54.7472623078
 30
0.0
 10
41.4302750922
 20
53.5740064448
 30
0.0
 10
42.5295546792
 20
52.2592403756
 30
0.0
 10
43.5365178984
 20
50.8284000291
 30
0.0
 10
44.4317776389
 20
49.3090597283
 30
0.0
 10
45.1980364433
 20
47.7305618294
 30
0.0
 10
45.8205062618
 20
46.1233801257
 30
0.0
 10
46.2871917517
 20
44.5184028399
 30
0.0
 10
46.5890506186
 20
42.9465924019
 30
0.0
 10
46.7001616491
 20
41.6684900405
 30
0.0
 10
46.6977754497
 20
40.6905043112
 30
0.0
 10
46.6522802134
 20
39.9960052852
 30
0.0
 10
46.5632572567
 20
39.3318786994
 30
0.0
 10
46.4310876436
 20
38.7013217359
 30
0.0
 10
46.2563487694
 20
38.1073960352
 30
0.0
 10
46.0397925178
 20
37.5530014634
 30
0.0
 10
45.7823895153
 20
37.0408717156
 30
0.0
 10
45.4852393139
 20
36.5735768998
 30
0.0
 10
45.1498025991
 20
36.1535679167
 30
0.0
 10
44.8992248098
 20
35.9041777546
 30
0.0
 10
44.7686577221
 20
35.7888637512
 30
0.0
  0
SPLINE
  5
4C3
100
AcDbEntity
  8
0
100
AcDbSpline
 62
7
  6
BYLAYER
 70
0
 71
3
 72
10
 73
6
 74
0
 42
0.0000001
 43
0.0000001
 44
0.0000000001
 40
0.0
 40
0.0
 40
0.0
 40
0.0
 40
0.2696552255
 40
0.5262915463
 40
1.0
 40
1.0
 40
1.0
 40
1.0
 10
37.7519444434
 20
58.2892858443
 30
0.0
 10
37.4391970795
 20
58.4698465342
 30
0.0
 10
36.8145109708
 20
58.7987677034
 30
0.0
 10
35.5790586864
 20
59.317239959
 30
0.0
 10
34.6231247795
 20
59.5673116292
 30
0.0
 10
33.9941306955
 20
59.6499507708
 30
0.0
  0
SPLINE
  5
4C4
100
AcDbEntity
  8
0
100
AcDbSpline
 62
7
  6
BYLAYER
 70
0
 71
3
 72
12
 73
8
 74
0
 42
0.0000001
 43
0.0000001
 44
0.0000000001
 40
0.0
 40
0.0
 40
0.0
 40
0.0
 40
0.2655814593
 40
0.5184431267
 40
0.7618371176
 40
0.8813229875
 40
1.0
 40
1.0
 40
1.0
 40
1.0
 10
33.9941306955
 20
59.6499507708
 30
0.0
 10
33.6810036966
 20
59.6910903412
 30
0.0
 10
33.0636481248
 20
59.7329492304
 30
0.0
 10
32.1571322407
 20
59.6636686152
 30
0.0
 10
31.4413899743
 20
59.4928528275
 30
0.0
 10
30.9051323044
 20
59.29040785
 30
0.0
 10
30.6492635999
 20
59.1680068943
 30
0.0
 10
30.5246932514
 20
59.1016845652
 30
0.0
  0
SPLINE
  5
4C5
100
AcDbEntity
  8
0
100
AcDbSpline
 62
7
  6
BYLAYER
 70
0
 71
3
 72
10
 73
6
 74
0
 42
0.0000001
 43
0.0000001
 44
0.0000000001
 40
0.0
 40
0.0
 40
0.0
 40
0.0
 40
0.5417203839
 40
0.7863628056
 40
1.0
 40
1.0
 40
1.0
 40
1.0
 10
45.9494772724
 20
38.2828440934
 30
0.0
 10
45.9597108262
 20
38.2939231989
 30
0.0
 10
45.9732414276
 20
38.3113869357
 30
0.0
 10
45.9864856368
 20
38.3359225696
 30
0.0
 10
45.9910379469
 20
38.3479151554
 30
0.0
 10
45.9925773746
 20
38.3536604173
 30
0.0
  0
SPLINE
  5
4C6
100
AcDbEntity
  8
0
100
AcDbSpline
 62
7
  6
BYLAYER
 70
0
 71
3
 72
11
 73
7
 74
0
 42
0.0000001
 43
0.0000001
 44
0.0000000001
 40
0.0
 40
0.0
 40
0.0
 40
0.0
 40
0.3117599979
 40
0.5771956012
 40
0.8010539472
 40
1.0
 40
1.0
 40
1.0
 40
1.0
 10
45.9925789589
 20
38.3536590124
 30
0.0
 10
45.9935473696
 20
38.3572731953
 30
0.0
 10
45.9949086437
 20
38.3640992273
 30
0.0
 10
45.9950365425
 20
38.3737853088
 30
0.0
 10
45.9929674558
 20
38.3819191317
 30
0.0
 10
45.9898955342
 20
38.3861643377
 30
0.0
 10
45.9881068956
 20
38.3877460829
 30
0.0
  0
SPLINE
  5
4C7
100
AcDbEntity
  8
0
100
AcDbSpline
 62
7
  6
BYLAYER
 70
0
 71
3
 72
10
 73
6
 74
0
 42
0.0000001
 43
0.0000001
 44
0.0000000001
 40
0.0
 40
0.0
 40
0.0
 40
0.0
 40
0.5358198093
 40
0.7815877296
 40
1.0
 40
1.0
 40
1.0
 40
1.0
 10
46.1231895292
 20
39.0610114349
 30
0.0
 10
46.1329354987
 20
39.0726164049
 30
0.0
 10
46.145516122
 20
39.091103098
 30
0.0
 10
46.1569287757
 20
39.1170376694
 30
0.0
 10
46.1604547466
 20
39.1297660986
 30
0.0
 10
46.1614750378
 20
39.1358585786
 30
0.0
  0
SPLINE
  5
4C8
100
AcDbEntity
  8
0
100
AcDbSpline
 62
7
  6
BYLAYER
 70
0
 71
3
 72
11
 73
7
 74
0
 42
0.0000001
 43
0.0000001
 44
0.0000000001
 40
0.0
 40
0.0
 40
0.0
 40
0.0
 40
0.3020108108
 40
0.5646604531
 40
0.7924748791
 40
1.0
 40
1.0
 40
1.0
 40
1.0
 10
46.1614766531
 20
39.1358573172
 30
0.0
 10
46.1621580398
 20
39.1399260913
 30
0.0
 10
46.1628940441
 20
39.1476461211
 30
0.0
 10
46.1618326098
 20
39.1585074628
 30
0.0
 10
46.1584237004
 20
39.1675649681
 30
0.0
 10
46.1544325669
 20
39.1721903203
 30
0.0
 10
46.1521968974
 20
39.1739332218
 30
0.0
  0
SPLINE
  5
4C9
100
AcDbEntity
  8
0
100
AcDbSpline
 62
7
  6
BYLAYER
 70
0
 71
3
 72
9
 73
5
 74
0
 42
0.0000001
 43
0.0000001
 44
0.0000000001
 40
0.0
 40
0.0
 40
0.0
 40
0.0
 40
0.5306503229
 40
1.0
 40
1.0
 40
1.0
 40
1.0
 10
46.2299357565
 20
39.8919802017
 30
0.0
 10
46.2391822028
 20
39.9040699043
 30
0.0
 10
46.2539814157
 20
39.9289301257
 30
0.0
 10
46.2622672472
 20
39.956992814
 30
0.0
 10
46.2633305552
 20
39.9704128128
 30
0.0
  0
SPLINE
  5
4CA
100
AcDbEntity
  8
0
100
AcDbSpline
 62
7
  6
BYLAYER
 70
0
 71
3
 72
11
 73
7
 74
0
 42
0.0000001
 43
0.0000001
 44
0.0000000001
 40
0.0
 40
0.0
 40
0.0
 40
0.0
 40
0.2945798162
 40
0.5552520178
 40
0.7861362801
 40
1.0
 40
1.0
 40
1.0
 40
1.0
 10
46.2633321892
 20
39.9704117043
 30
0.0
 10
46.263692801
 20
39.9749629818
 30
0.0
 10
46.2637181628
 20
39.9836204835
 30
0.0
 10
46.2613159348
 20
39.9956707543
 30
0.0
 10
46.2564048544
 20
40.0056131636
 30
0.0
 10
46.2513732771
 20
40.0105638375
 30
0.0
 10
46.2486298417
 20
40.0124239173
 30
0.0
  0
SPLINE
  5
4CB
100
AcDbEntity
  8
0
100
AcDbSpline
 62
7
  6
BYLAYER
 70
0
 71
3
 72
9
 73
5
 74
0
 42
0.0000001
 43
0.0000001
 44
0.0000000001
 40
0.0
 40
0.0
 40
0.0
 40
0.0
 40
0.5248571397
 40
1.0
 40
1.0
 40
1.0
 40
1.0
 10
46.268903551
 20
40.7694262198
 30
0.0
 10
46.2776406042
 20
40.781953786
 30
0.0
 10
46.2912210887
 20
40.8080610763
 30
0.0
 10
46.2973687447
 20
40.8371449706
 30
0.0
 10
46.2973687448
 20
40.850971658
 30
0.0
  0
SPLINE
  5
4CC
100
AcDbEntity
  8
0
100
AcDbSpline
 62
7
  6
BYLAYER
 70
0
 71
3
 72
11
 73
7
 74
0
 42
0.0000001
 43
0.0000001
 44
0.0000000001
 40
0.0
 40
0.0
 40
0.0
 40
0.0
 40
0.2888948682
 40
0.5481560336
 40
0.7814326258
 40
1.0
 40
1.0
 40
1.0
 40
1.0
 10
46.297370385
 20
40.850970711
 30
0.0
 10
46.297370385
 20
40.8560367586
 30
0.0
 10
46.2965860664
 20
40.8656813405
 30
0.0
 10
46.2926629502
 20
40.8789373743
 30
0.0
 10
46.286049612
 20
40.8897129684
 30
0.0
 10
46.2798355008
 20
40.8949070128
 30
0.0
 10
46.2765169266
 20
40.8968246486
 30
0.0
  0
SPLINE
  5
4CD
100
AcDbEntity
  8
0
100
AcDbSpline
 62
7
  6
BYLAYER
 70
0
 71
3
 72
9
 73
5
 74
0
 42
0.0000001
 43
0.0000001
 44
0.0000000001
 40
0.0
 40
0.0
 40
0.0
 40
0.0
 40
0.5192447755
 40
1.0
 40
1.0
 40
1.0
 40
1.0
 10
46.2397963442
 20
41.6866715951
 30
0.0
 10
46.2480167823
 20
41.6995845432
 30
0.0
 10
46.2603242437
 20
41.7268240705
 30
0.0
 10
46.2643566857
 20
41.7566979011
 30
0.0
 10
46.2633305552
 20
41.7708335298
 30
0.0
  0
SPLINE
  5
4CE
100
AcDbEntity
  8
0
100
AcDbSpline
 62
7
  6
BYLAYER
 70
0
 71
3
 72
11
 73
7
 74
0
 42
0.0000001
 43
0.0000001
 44
0.0000000001
 40
0.0
 40
0.0
 40
0.0
 40
0.0
 40
0.2845375267
 40
0.5428054005
 40
0.777972158
 40
1.0
 40
1.0
 40
1.0
 40
1.0
 10
46.2633321892
 20
41.7708327516
 30
0.0
 10
46.2629243701
 20
41.7764507303
 30
0.0
 10
46.261213572
 20
41.7871388064
 30
0.0
 10
46.2555524057
 20
41.8016153977
 30
0.0
 10
46.2469943599
 20
41.8131456755
 30
0.0
 10
46.2394360962
 20
41.8184659321
 30
0.0
 10
46.2354695064
 20
41.820359313
 30
0.0
  0
SPLINE
  5
4CF
100
AcDbEntity
  8
0
100
AcDbSpline
 62
7
  6
BYLAYER
 70
0
 71
3
 72
9
 73
5
 74
0
 42
0.0000001
 43
0.0000001
 44
0.0000000001
 40
0.0
 40
0.0
 40
0.0
 40
0.0
 40
0.2583541024
 40
1.0
 40
1.0
 40
1.0
 40
1.0
 10
46.1428356597
 20
42.6367355366
 30
0.0
 10
46.1466931538
 20
42.6433688584
 30
0.0
 10
46.1595289803
 20
42.6701377157
 30
0.0
 10
46.1645362243
 20
42.7011837427
 30
0.0
 10
46.1614750378
 20
42.722997724
 30
0.0
  0
SPLINE
  5
4D0
100
AcDbEntity
  8
0
100
AcDbSpline
 62
7
  6
BYLAYER
 70
0
 71
3
 72
11
 73
7
 74
0
 42
0.0000001
 43
0.0000001
 44
0.0000000001
 40
0.0
 40
0.0
 40
0.0
 40
0.0
 40
0.2820753381
 40
0.5393927402
 40
0.7754507237
 40
1.0
 40
1.0
 40
1.0
 40
1.0
 10
46.1614766531
 20
42.7229971203
 30
0.0
 10
46.1605692761
 20
42.7294630793
 30
0.0
 10
46.1576392857
 20
42.741713072
 30
0.0
 10
46.1494392901
 20
42.757904499
 30
0.0
 10
46.1378466555
 20
42.7701750795
 30
0.0
 10
46.1281555685
 20
42.7751912063
 30
0.0
 10
46.1231917133
 20
42.7767328281
 30
0.0
  0
SPLINE
  5
4D1
100
AcDbEntity
  8
0
100
AcDbSpline
 62
7
  6
BYLAYER
 70
0
 71
3
 72
9
 73
5
 74
0
 42
0.0000001
 43
0.0000001
 44
0.0000000001
 40
0.0
 40
0.0
 40
0.0
 40
0.0
 40
0.474658685
 40
1.0
 40
1.0
 40
1.0
 40
1.0
 10
36.6018603117
 20
56.7210241166
 30
0.0
 10
36.601579459
 20
56.7249059138
 30
0.0
 10
36.5991827253
 20
56.7330180322
 30
0.0
 10
36.5939908742
 20
56.7395767125
 30
0.0
 10
36.5909083412
 20
56.7425854777
 30
0.0
  0
SPLINE
  5
4D2
100
AcDbEntity
  8
0
100
AcDbSpline
 62
7
  6
BYLAYER
 70
0
 71
3
 72
9
 73
5
 74
0
 42
0.0000001
 43
0.0000001
 44
0.0000000001
 40
0.0
 40
0.0
 40
0.0
 40
0.0
 40
0.2317858279
 40
1.0
 40
1.0
 40
1.0
 40
1.0
 10
36.5909083412
 20
56.7425854777
 30
0.0
 10
36.5896999572
 20
56.743764944
 30
0.0
 10
36.5842221828
 20
56.7485823203
 30
0.0
 10
36.5778807132
 20
56.7523556601
 30
0.0
 10
36.5728280628
 20
56.7547623068
 30
0.0
  0
SPLINE
  5
4D3
100
AcDbEntity
  8
0
100
AcDbSpline
 62
7
  6
BYLAYER
 70
0
 71
3
 72
9
 73
5
 74
0
 42
0.0000001
 43
0.0000001
 44
0.0000000001
 40
0.0
 40
0.0
 40
0.0
 40
0.0
 40
0.2549955322
 40
1.0
 40
1.0
 40
1.0
 40
1.0
 10
45.9787594267
 20
43.6123874839
 30
0.0
 10
45.9823439324
 20
43.6191309574
 30
0.0
 10
45.9940993611
 20
43.6466913643
 30
0.0
 10
45.9970505768
 20
43.6783582695
 30
0.0
 10
45.9925773746
 20
43.7002176961
 30
0.0
  0
SPLINE
  5
4D4
100
AcDbEntity
  8
0
100
AcDbSpline
 62
7
  6
BYLAYER
 70
0
 71
3
 72
9
 73
5
 74
0
 42
0.0000001
 43
0.0000001
 44
0.0000000001
 40
0.0
 40
0.0
 40
0.0
 40
0.0
 40
0.4769748744
 40
1.0
 40
1.0
 40
1.0
 40
1.0
 10
37.3817145113
 20
56.3029867695
 30
0.0
 10
37.3817127202
 20
56.3076497963
 30
0.0
 10
37.3795894655
 20
56.3175053545
 30
0.0
 10
37.3739929495
 20
56.3257683651
 30
0.0
 10
37.3705903654
 20
56.3295851049
 30
0.0
  0
SPLINE
  5
4D5
100
AcDbEntity
  8
0
100
AcDbSpline
 62
7
  6
BYLAYER
 70
0
 71
3
 72
9
 73
5
 74
0
 42
0.0000001
 43
0.0000001
 44
0.0000000001
 40
0.0
 40
0.0
 40
0.0
 40
0.0
 40
0.2347907541
 40
1.0
 40
1.0
 40
1.0
 40
1.0
 10
37.3705903654
 20
56.3295851049
 30
0.0
 10
37.3693807916
 20
56.3309419056
 30
0.0
 10
37.3639483069
 20
56.3364696068
 30
0.0
 10
37.3575611704
 20
56.3410107184
 30
0.0
 10
37.3524307754
 20
56.3439726863
 30
0.0
  0
SPLINE
  5
4D6
100
AcDbEntity
  8
0
100
AcDbSpline
 62
7
  6
BYLAYER
 70
0
 71
3
 72
11
 73
7
 74
0
 42
0.0000001
 43
0.0000001
 44
0.0000000001
 40
0.0
 40
0.0
 40
0.0
 40
0.0
 40
0.2780846659
 40
0.5354513884
 40
0.7738171279
 40
1.0
 40
1.0
 40
1.0
 40
1.0
 10
45.9925789589
 20
43.7002172716
 30
0.0
 10
45.9912164433
 20
43.7068755462
 30
0.0
 10
45.9873519331
 20
43.7194939128
 30
0.0
 10
45.9778200497
 20
43.7360462811
 30
0.0
 10
45.9650942713
 20
43.7486079165
 30
0.0
 10
45.9547582348
 20
43.7538411982
 30
0.0
 10
45.9494794147
 20
43.7554815105
 30
0.0
  0
SPLINE
  5
4D7
100
AcDbEntity
  8
0
100
AcDbSpline
 62
7
  6
BYLAYER
 70
0
 71
3
 72
9
 73
5
 74
0
 42
0.0000001
 43
0.0000001
 44
0.0000000001
 40
0.0
 40
0.0
 40
0.0
 40
0.0
 40
0.4783692337
 40
1.0
 40
1.0
 40
1.0
 40
1.0
 10
38.1609932358
 20
55.8056827813
 30
0.0
 10
38.1614267532
 20
55.8112124829
 30
0.0
 10
38.1598032941
 20
55.8230706802
 30
0.0
 10
38.1538439609
 20
55.8333144004
 30
0.0
 10
38.1501086789
 20
55.8380714387
 30
0.0
  0
SPLINE
  5
4D8
100
AcDbEntity
  8
0
100
AcDbSpline
 62
7
  6
BYLAYER
 70
0
 71
3
 72
9
 73
5
 74
0
 42
0.0000001
 43
0.0000001
 44
0.0000000001
 40
0.0
 40
0.0
 40
0.0
 40
0.0
 40
0.2372836311
 40
1.0
 40
1.0
 40
1.0
 40
1.0
 10
38.1501086789
 20
55.8380714387
 30
0.0
 10
38.1489103566
 20
55.8395975525
 30
0.0
 10
38.143566655
 20
55.8457975303
 30
0.0
 10
38.1371949833
 20
55.8510736441
 30
0.0
 10
38.1320334879
 20
55.8545749998
 30
0.0
  0
SPLINE
  5
4D9
100
AcDbEntity
  8
0
100
AcDbSpline
 62
7
  6
BYLAYER
 70
0
 71
3
 72
9
 73
5
 74
0
 42
0.0000001
 43
0.0000001
 44
0.0000000001
 40
0.0
 40
0.0
 40
0.0
 40
0.0
 40
0.5040265064
 40
1.0
 40
1.0
 40
1.0
 40
1.0
 10
45.7488163644
 20
44.6062021366
 30
0.0
 10
45.755478052
 20
44.619905576
 30
0.0
 10
45.7637617813
 20
44.6496682864
 30
0.0
 10
45.7617863596
 20
44.6805690728
 30
0.0
 10
45.7579229786
 20
44.695056212
 30
0.0
  0
SPLINE
  5
4DA
100
AcDbEntity
  8
0
100
AcDbSpline
 62
7
  6
BYLAYER
 70
0
 71
3
 72
11
 73
7
 74
0
 42
0.0000001
 43
0.0000001
 44
0.0000000001
 40
0.0
 40
0.0
 40
0.0
 40
0.0
 40
0.2745670735
 40
0.531875691
 40
0.7721943437
 40
1.0
 40
1.0
 40
1.0
 40
1.0
 10
45.7579245199
 20
44.69505597
 30
0.0
 10
45.7561121383
 20
44.7018521477
 30
0.0
 10
45.7513279393
 20
44.7147280589
 30
0.0
 10
45.7405027749
 20
44.7314986428
 30
0.0
 10
45.7266681395
 20
44.7442306209
 30
0.0
 10
45.7157042356
 20
44.749598707
 30
0.0
 10
45.7101231254
 20
44.7513038665
 30
0.0
  0
SPLINE
  5
4DB
100
AcDbEntity
  8
0
100
AcDbSpline
 62
7
  6
BYLAYER
 70
0
 71
3
 72
15
 73
11
 74
0
 42
0.0000001
 43
0.0000001
 44
0.0000000001
 40
0.0
 40
0.0
 40
0.0
 40
0.0
 40
0.1078510045
 40
0.2189845196
 40
0.3345052469
 40
0.4552846996
 40
0.5819330236
 40
0.7148530057
 40
0.8542512148
 40
1.0
 40
1.0
 40
1.0
 40
1.0
 10
32.1947673846
 20
57.5478435233
 30
0.0
 10
32.3926244832
 20
57.6147419579
 30
0.0
 10
32.804608249
 20
57.7219109816
 30
0.0
 10
33.4495332354
 20
57.7991440186
 30
0.0
 10
34.1240075103
 20
57.7947660972
 30
0.0
 10
34.8230544487
 20
57.7089829492
 30
0.0
 10
35.5418989949
 20
57.5428310142
 30
0.0
 10
36.2756891855
 20
57.2975535919
 30
0.0
 10
37.0192420567
 20
56.9750021643
 30
0.0
 10
37.507505293
 20
56.715754456
 30
0.0
 10
37.7519444434
 20
56.5746306393
 30
0.0
  0
SPLINE
  5
4DC
100
AcDbEntity
  8
0
100
AcDbSpline
 62
7
  6
BYLAYER
 70
0
 71
3
 72
9
 73
5
 74
0
 42
0.0000001
 43
0.0000001
 44
0.0000000001
 40
0.0
 40
0.0
 40
0.0
 40
0.0
 40
0.49954544
 40
1.0
 40
1.0
 40
1.0
 40
1.0
 10
45.4547564785
 20
45.6106159651
 30
0.0
 10
45.4609091941
 20
45.6244468044
 30
0.0
 10
45.4678348278
 20
45.6547153086
 30
0.0
 10
45.4640173937
 20
45.6855298913
 30
0.0
 10
45.4592977116
 20
45.69994195
 30
0.0
  0
SPLINE
  5
4DD
100
AcDbEntity
  8
0
100
AcDbSpline
 62
7
  6
BYLAYER
 70
0
 71
3
 72
10
 73
6
 74
0
 42
0.0000001
 43
0.0000001
 44
0.0000000001
 40
0.0
 40
0.0
 40
0.0
 40
0.0
 40
0.5271085262
 40
0.7698533687
 40
1.0
 40
1.0
 40
1.0
 40
1.0
 10
45.4592991981
 20
45.6999418922
 30
0.0
 10
45.454936671
 20
45.7132633397
 30
0.0
 10
45.4447623312
 20
45.7320133508
 30
0.0
 10
45.4243864769
 20
45.7494587563
 30
0.0
 10
45.412813627
 20
45.7548855241
 30
0.0
 10
45.4069444912
 20
45.7566210864
 30
0.0
  0
SPLINE
  5
4DE
100
AcDbEntity
  8
0
100
AcDbSpline
 62
7
  6
BYLAYER
 70
0
 71
3
 72
9
 73
5
 74
0
 42
0.0000001
 43
0.0000001
 44
0.0000000001
 40
0.0
 40
0.0
 40
0.0
 40
0.0
 40
0.4953436164
 40
1.0
 40
1.0
 40
1.0
 40
1.0
 10
45.0988177421
 20
46.6179847737
 30
0.0
 10
45.1044742727
 20
46.631869529
 30
0.0
 10
45.1100610114
 20
46.6624631109
 30
0.0
 10
45.1044994839
 20
46.6929868073
 30
0.0
 10
45.0989742921
 20
46.7072271228
 30
0.0
  0
SPLINE
  5
4DF
100
AcDbEntity
  8
0
100
AcDbSpline
 62
7
  6
BYLAYER
 70
0
 71
3
 72
9
 73
5
 74
0
 42
0.0000001
 43
0.0000001
 44
0.0000000001
 40
0.0
 40
0.0
 40
0.0
 40
0.0
 40
0.5259783658
 40
1.0
 40
1.0
 40
1.0
 40
1.0
 10
45.0989757126
 20
46.7072272497
 30
0.0
 10
45.0937591366
 20
46.7206721564
 30
0.0
 10
45.0790832711
 20
46.7448237947
 30
0.0
 10
45.0547601605
 20
46.7602554919
 30
0.0
 10
45.0422508848
 20
46.7637820993
 30
0.0
  0
SPLINE
  5
4E0
100
AcDbEntity
  8
0
100
AcDbSpline
 62
7
  6
BYLAYER
 70
0
 71
3
 72
9
 73
5
 74
0
 42
0.0000001
 43
0.0000001
 44
0.0000000001
 40
0.0
 40
0.0
 40
0.0
 40
0.0
 40
0.4913944239
 40
1.0
 40
1.0
 40
1.0
 40
1.0
 10
44.6837090641
 20
47.6206418776
 30
0.0
 10
44.6888868624
 20
47.6345049125
 30
0.0
 10
44.6931701596
 20
47.6652399835
 30
0.0
 10
44.6859705756
 20
47.6952735789
 30
0.0
 10
44.679694999
 20
47.709245682
 30
0.0
  0
SPLINE
  5
4E1
100
AcDbEntity
  8
0
100
AcDbSpline
 62
7
  6
BYLAYER
 70
0
 71
3
 72
9
 73
5
 74
0
 42
0.0000001
 43
0.0000001
 44
0.0000000001
 40
0.0
 40
0.0
 40
0.0
 40
0.0
 40
0.5226506043
 40
1.0
 40
1.0
 40
1.0
 40
1.0
 10
44.6796963426
 20
47.7092459926
 30
0.0
 10
44.6736523486
 20
47.7227024946
 30
0.0
 10
44.6572525475
 20
47.7466759258
 30
0.0
 10
44.6318423536
 20
47.7616748208
 30
0.0
 10
44.6188178446
 20
47.7651218018
 30
0.0
  0
SPLINE
  5
4E2
100
AcDbEntity
  8
0
100
AcDbSpline
 62
7
  6
BYLAYER
 70
0
 71
3
 72
9
 73
5
 74
0
 42
0.0000001
 43
0.0000001
 44
0.0000000001
 40
0.0
 40
0.0
 40
0.0
 40
0.0
 40
0.4876638197
 40
1.0
 40
1.0
 40
1.0
 40
1.0
 10
44.2125896721
 20
48.6109564506
 30
0.0
 10
44.2173108168
 20
48.6247207378
 30
0.0
 10
44.2203415477
 20
48.6554137699
 30
0.0
 10
44.2116170242
 20
48.6847634238
 30
0.0
 10
44.2046508009
 20
48.6983716613
 30
0.0
  0
SPLINE
  5
4E3
100
AcDbEntity
  8
0
100
AcDbSpline
 62
7
  6
BYLAYER
 70
0
 71
3
 72
9
 73
5
 74
0
 42
0.0000001
 43
0.0000001
 44
0.0000000001
 40
0.0
 40
0.0
 40
0.0
 40
0.0
 40
0.5193080089
 40
1.0
 40
1.0
 40
1.0
 40
1.0
 10
44.2046520573
 20
48.6983721533
 30
0.0
 10
44.1978141269
 20
48.7117297758
 30
0.0
 10
44.1797716345
 20
48.7353230043
 30
0.0
 10
44.1533613335
 20
48.7497227805
 30
0.0
 10
44.1398679518
 20
48.753019394
 30
0.0
  0
SPLINE
  5
4E4
100
AcDbEntity
  8
0
100
AcDbSpline
 62
7
  6
BYLAYER
 70
0
 71
3
 72
9
 73
5
 74
0
 42
0.0000001
 43
0.0000001
 44
0.0000000001
 40
0.0
 40
0.0
 40
0.0
 40
0.0
 40
0.4841114486
 40
1.0
 40
1.0
 40
1.0
 40
1.0
 10
43.689045069
 20
49.5813916011
 30
0.0
 10
43.6933361168
 20
49.5949794684
 30
0.0
 10
43.6951795011
 20
49.6254496666
 30
0.0
 10
43.6850494275
 20
49.6539269402
 30
0.0
 10
43.6774570708
 20
49.6670772149
 30
0.0
  0
SPLINE
  5
4E5
100
AcDbEntity
  8
0
100
AcDbSpline
 62
7
  6
BYLAYER
 70
0
 71
3
 72
9
 73
5
 74
0
 42
0.0000001
 43
0.0000001
 44
0.0000000001
 40
0.0
 40
0.0
 40
0.0
 40
0.0
 40
0.5158875035
 40
1.0
 40
1.0
 40
1.0
 40
1.0
 10
43.6774582306
 20
49.6670778845
 30
0.0
 10
43.6698658739
 20
49.6802281591
 30
0.0
 10
43.6502691859
 20
49.7032400422
 30
0.0
 10
43.622959323
 20
49.7168785808
 30
0.0
 10
43.6090463042
 20
49.7199563788
 30
0.0
  0
SPLINE
  5
4E6
100
AcDbEntity
  8
0
100
AcDbSpline
 62
7
  6
BYLAYER
 70
0
 71
3
 72
9
 73
5
 74
0
 42
0.0000001
 43
0.0000001
 44
0.0000000001
 40
0.0
 40
0.0
 40
0.0
 40
0.0
 40
0.4806907303
 40
1.0
 40
1.0
 40
1.0
 40
1.0
 10
43.1170597456
 20
50.5245617314
 30
0.0
 10
43.1209514804
 20
50.5378955777
 30
0.0
 10
43.1216858515
 20
50.5679673336
 30
0.0
 10
43.1102752078
 20
50.5953893154
 30
0.0
 10
43.1021260715
 20
50.6079899084
 30
0.0
  0
SPLINE
  5
4E7
100
AcDbEntity
  8
0
100
AcDbSpline
 62
7
  6
BYLAYER
 70
0
 71
3
 72
9
 73
5
 74
0
 42
0.0000001
 43
0.0000001
 44
0.0000000001
 40
0.0
 40
0.0
 40
0.0
 40
0.0
 40
0.5123353271
 40
1.0
 40
1.0
 40
1.0
 40
1.0
 10
43.1021271258
 20
50.6079907506
 30
0.0
 10
43.0938250958
 20
50.6208277553
 30
0.0
 10
43.0727701277
 20
50.6430586025
 30
0.0
 10
43.0446736182
 20
50.6557802592
 30
0.0
 10
43.0303927751
 20
50.6585737819
 30
0.0
  0
SPLINE
  5
4E8
100
AcDbEntity
  8
0
100
AcDbSpline
 62
7
  6
BYLAYER
 70
0
 71
3
 72
9
 73
5
 74
0
 42
0.0000001
 43
0.0000001
 44
0.0000000001
 40
0.0
 40
0.0
 40
0.0
 40
0.0
 40
0.4773479016
 40
1.0
 40
1.0
 40
1.0
 40
1.0
 10
42.5009868554
 20
51.4332887474
 30
0.0
 10
42.5045139375
 20
51.4462917096
 30
0.0
 10
42.5042294212
 20
51.4757968903
 30
0.0
 10
42.4916681545
 20
51.5019863683
 30
0.0
 10
42.4830364192
 20
51.5139488283
 30
0.0
  0
SPLINE
  5
4E9
100
AcDbEntity
  8
0
100
AcDbSpline
 62
7
  6
BYLAYER
 70
0
 71
3
 72
9
 73
5
 74
0
 42
0.0000001
 43
0.0000001
 44
0.0000000001
 40
0.0
 40
0.0
 40
0.0
 40
0.0
 40
0.5086049007
 40
1.0
 40
1.0
 40
1.0
 40
1.0
 10
42.48303736
 20
51.5139498366
 30
0.0
 10
42.47407489
 20
51.5263706517
 30
0.0
 10
42.4516651387
 20
51.5476228508
 30
0.0
 10
42.4229059471
 20
51.559280745
 30
0.0
 10
42.4083112672
 20
51.561728158
 30
0.0
  0
SPLINE
  5
4EA
100
AcDbEntity
  8
0
100
AcDbSpline
 62
7
  6
BYLAYER
 70
0
 71
3
 72
9
 73
5
 74
0
 42
0.0000001
 43
0.0000001
 44
0.0000000001
 40
0.0
 40
0.0
 40
0.0
 40
0.0
 40
0.4740198836
 40
1.0
 40
1.0
 40
1.0
 40
1.0
 10
41.8455150852
 20
52.3006566878
 30
0.0
 10
41.848715598
 20
52.3132532459
 30
0.0
 10
41.8475127398
 20
52.3420333707
 30
0.0
 10
41.8339351618
 20
52.3668189872
 30
0.0
 10
41.8248997601
 20
52.37805908
 30
0.0
  0
SPLINE
  5
4EB
100
AcDbEntity
  8
0
100
AcDbSpline
 62
7
  6
BYLAYER
 70
0
 71
3
 72
9
 73
5
 74
0
 42
0.0000001
 43
0.0000001
 44
0.0000000001
 40
0.0
 40
0.0
 40
0.0
 40
0.0
 40
0.5046558699
 40
1.0
 40
1.0
 40
1.0
 40
1.0
 10
41.8249005801
 20
52.3780602467
 30
0.0
 10
41.8153306386
 20
52.3899653102
 30
0.0
 10
41.791677415
 20
52.4100439803
 30
0.0
 10
41.7623890445
 20
52.4205022876
 30
0.0
 10
41.7475361965
 20
52.4225459571
 30
0.0
  0
SPLINE
  5
4EC
100
AcDbEntity
  8
0
100
AcDbSpline
 62
7
  6
BYLAYER
 70
0
 71
3
 72
10
 73
6
 74
0
 42
0.0000001
 43
0.0000001
 44
0.0000000001
 40
0.0
 40
0.0
 40
0.0
 40
0.0
 40
0.2301453321
 40
0.4728894613
 40
1.0
 40
1.0
 40
1.0
 40
1.0
 10
41.1556329709
 20
53.1200643589
 30
0.0
 10
41.157064502
 20
53.1260148999
 30
0.0
 10
41.1581512136
 20
53.1387505726
 30
0.0
 10
41.1532309167
 20
53.1651191363
 30
0.0
 10
41.1420804183
 20
53.1833055329
 30
0.0
 10
41.1327249114
 20
53.1937442628
 30
0.0
  0
SPLINE
  5
4ED
100
AcDbEntity
  8
0
100
AcDbSpline
 62
7
  6
BYLAYER
 70
0
 71
3
 72
9
 73
5
 74
0
 42
0.0000001
 43
0.0000001
 44
0.0000000001
 40
0.0
 40
0.0
 40
0.0
 40
0.0
 40
0.5004541924
 40
1.0
 40
1.0
 40
1.0
 40
1.0
 10
41.1327256045
 20
53.1937455791
 30
0.0
 10
41.1226041732
 20
53.2050389156
 30
0.0
 10
41.0978269823
 20
53.2237526208
 30
0.0
 10
41.0681507
 20
53.232888842
 30
0.0
 10
41.0530964602
 20
53.2344758359
 30
0.0
  0
SPLINE
  5
4EE
100
AcDbEntity
  8
0
100
AcDbSpline
 62
7
  6
BYLAYER
 70
0
 71
3
 72
11
 73
7
 74
0
 42
0.0000001
 43
0.0000001
 44
0.0000000001
 40
0.0
 40
0.0
 40
0.0
 40
0.0
 40
0.227804185
 40
0.4681219838
 40
0.7254317893
 40
1.0
 40
1.0
 40
1.0
 40
1.0
 10
40.436590932
 20
53.8852755735
 30
0.0
 10
40.4379047831
 20
53.8909614699
 30
0.0
 10
40.4387378487
 20
53.9031404244
 30
0.0
 10
40.4346289322
 20
53.9214874377
 30
0.0
 10
40.4255178948
 20
53.9392475864
 30
0.0
 10
40.4167592429
 20
53.9498288944
 30
0.0
 10
40.4117797417
 20
53.95479652
 30
0.0
  0
SPLINE
  5
4EF
100
AcDbEntity
  8
0
100
AcDbSpline
 62
7
  6
BYLAYER
 70
0
 71
3
 72
9
 73
5
 74
0
 42
0.0000001
 43
0.0000001
 44
0.0000000001
 40
0.0
 40
0.0
 40
0.0
 40
0.0
 40
0.4959732565
 40
1.0
 40
1.0
 40
1.0
 40
1.0
 10
40.4117803027
 20
53.9547979758
 30
0.0
 10
40.4011656978
 20
53.9653872658
 30
0.0
 10
40.3753928382
 20
53.9825488666
 30
0.0
 10
40.3454755503
 20
53.9902560145
 30
0.0
 10
40.3302771641
 20
53.9913385178
 30
0.0
  0
SPLINE
  5
4F0
100
AcDbEntity
  8
0
100
AcDbSpline
 62
7
  6
BYLAYER
 70
0
 71
3
 72
11
 73
7
 74
0
 42
0.0000001
 43
0.0000001
 44
0.0000000001
 40
0.0
 40
0.0
 40
0.0
 40
0.0
 40
0.2261812137
 40
0.4645459463
 40
0.7219140244
 40
1.0
 40
1.0
 40
1.0
 40
1.0
 10
39.6938613126
 20
54.5904666122
 30
0.0
 10
39.6950801807
 20
54.5958582886
 30
0.0
 10
39.6957160675
 20
54.6074260823
 30
0.0
 10
39.691200249
 20
54.6247276165
 30
0.0
 10
39.6816315492
 20
54.6412586414
 30
0.0
 10
39.6726360855
 20
54.6509147096
 30
0.0
 10
39.6675510791
 20
54.6554237842
 30
0.0
  0
SPLINE
  5
4F1
100
AcDbEntity
  8
0
100
AcDbSpline
 62
7
  6
BYLAYER
 70
0
 71
3
 72
9
 73
5
 74
0
 42
0.0000001
 43
0.0000001
 44
0.0000000001
 40
0.0
 40
0.0
 40
0.0
 40
0.0
 40
0.2419667572
 40
1.0
 40
1.0
 40
1.0
 40
1.0
 10
39.6675515036
 20
54.6554253685
 30
0.0
 10
39.6621272974
 20
54.6602352248
 30
0.0
 10
39.6377346594
 20
54.6778101906
 30
0.0
 10
39.6072770153
 20
54.6865784597
 30
0.0
 10
39.5845793993
 20
54.6873738207
 30
0.0
  0
SPLINE
  5
4F2
100
AcDbEntity
  8
0
100
AcDbSpline
 62
7
  6
BYLAYER
 70
0
 71
3
 72
11
 73
7
 74
0
 42
0.0000001
 43
0.0000001
 44
0.0000000001
 40
0.0
 40
0.0
 40
0.0
 40
0.0
 40
0.2245474101
 40
0.4606042118
 40
0.7179231544
 40
1.0
 40
1.0
 40
1.0
 40
1.0
 10
38.9330967334
 20
55.2302705454
 30
0.0
 10
38.9342435904
 20
55.2353401034
 30
0.0
 10
38.9347450754
 20
55.2462407683
 30
0.0
 10
38.9299147504
 20
55.2624154349
 30
0.0
 10
38.9199926892
 20
55.2776125387
 30
0.0
 10
38.9108489782
 20
55.2862751084
 30
0.0
 10
38.9057029531
 20
55.290293859
 30
0.0
  0
SPLINE
  5
4F3
100
AcDbEntity
  8
0
100
AcDbSpline
 62
7
  6
BYLAYER
 70
0
 71
3
 72
9
 73
5
 74
0
 42
0.0000001
 43
0.0000001
 44
0.0000000001
 40
0.0
 40
0.0
 40
0.0
 40
0.0
 40
0.2377984876
 40
1.0
 40
1.0
 40
1.0
 40
1.0
 10
38.9057032379
 20
55.2902955597
 30
0.0
 10
38.9001335102
 20
55.2946451978
 30
0.0
 10
38.8748549286
 20
55.3104912058
 30
0.0
 10
38.8443294164
 20
55.3173554798
 30
0.0
 10
38.8216783762
 20
55.3172844958
 30
0.0
  0
SPLINE
  5
4F4
100
AcDbEntity
  8
0
100
AcDbSpline
 62
7
  6
BYLAYER
 70
0
 71
3
 72
9
 73
5
 74
0
 42
0.0000001
 43
0.0000001
 44
0.0000000001
 40
0.0
 40
0.0
 40
0.0
 40
0.0
 40
0.4807552825
 40
1.0
 40
1.0
 40
1.0
 40
1.0
 10
38.1320336309
 20
55.854576804
 30
0.0
 10
38.1203048147
 20
55.8625331722
 30
0.0
 10
38.0924173504
 20
55.873978418
 30
0.0
 10
38.062673386
 20
55.8769392219
 30
0.0
 10
38.0473802323
 20
55.8762765424
 30
0.0
  0
SPLINE
  5
4F5
100
AcDbEntity
  8
0
100
AcDbSpline
 62
7
  6
BYLAYER
 70
0
 71
3
 72
9
 73
5
 74
0
 42
0.0000001
 43
0.0000001
 44
0.0000000001
 40
0.0
 40
0.0
 40
0.0
 40
0.0
 40
0.4751429829
 40
1.0
 40
1.0
 40
1.0
 40
1.0
 10
37.3524307754
 20
56.3439745802
 30
0.0
 10
37.3404564458
 20
56.3508878062
 30
0.0
 10
37.312195456
 20
56.3601062893
 30
0.0
 10
37.2827955484
 20
56.3613984707
 30
0.0
 10
37.2675778439
 20
56.3600956935
 30
0.0
  0
SPLINE
  5
4F6
100
AcDbEntity
  8
0
100
AcDbSpline
 62
7
  6
BYLAYER
 70
0
 71
3
 72
8
 73
4
 74
0
 42
0.0000001
 43
0.0000001
 44
0.0000000001
 40
0.0
 40
0.0
 40
0.0
 40
0.0
 40
1.0
 40
1.0
 40
1.0
 40
1.0
 10
48.9872179192
 20
39.0449802213
 30
0.0
 10
49.3567884888
 20
39.6034246305
 30
0.0
 10
49.7260791185
 20
40.1620545013
 30
0.0
 10
50.0949678047
 20
40.7209495731
 30
0.0
  0
SPLINE
  5
4F7
100
AcDbEntity
  8
0
100
AcDbSpline
 62
7
  6
BYLAYER
 70
0
 71
3
 72
9
 73
5
 74
0
 42
0.0000001
 43
0.0000001
 44
0.0000000001
 40
0.0
 40
0.0
 40
0.0
 40
0.0
 40
0.4693498466
 40
1.0
 40
1.0
 40
1.0
 40
1.0
 10
36.5728279199
 20
56.754764276
 30
0.0
 10
36.5606741418
 20
56.7605532871
 30
0.0
 10
36.5322284248
 20
56.7674094901
 30
0.0
 10
36.5032991723
 20
56.7670226538
 30
0.0
 10
36.488205978
 20
56.7650597933
 30
0.0
  0
SPLINE
  5
4F8
100
AcDbEntity
  8
0
100
AcDbSpline
 62
7
  6
BYLAYER
 70
0
 71
3
 72
13
 73
9
 74
0
 42
0.0000001
 43
0.0000001
 44
0.0000000001
 40
0.0
 40
0.0
 40
0.0
 40
0.0
 40
0.0750831523
 40
0.1560717969
 40
0.2497682303
 40
0.3602303886
 40
0.6387643624
 40
1.0
 40
1.0
 40
1.0
 40
1.0
 10
48.3591796936
 20
51.6016905564
 30
0.0
 10
48.3599359041
 20
51.6002647474
 30
0.0
 10
48.3609590733
 20
51.5969778456
 30
0.0
 10
48.3606927758
 20
51.5915351388
 30
0.0
 10
48.3588169354
 20
51.5856493285
 30
0.0
 10
48.3538882946
 20
51.5764738378
 30
0.0
 10
48.3434568468
 20
51.564006512
 30
0.0
 10
48.3332005907
 20
51.5548155017
 30
0.0
 10
48.3271935107
 20
51.5498953222
 30
0.0
  0
SPLINE
  5
4F9
100
AcDbEntity
  8
0
100
AcDbSpline
 62
7
  6
BYLAYER
 70
0
 71
3
 72
10
 73
6
 74
0
 42
0.0000001
 43
0.0000001
 44
0.0000000001
 40
0.0
 40
0.0
 40
0.0
 40
0.0
 40
0.2184123131
 40
0.4641803792
 40
1.0
 40
1.0
 40
1.0
 40
1.0
 10
35.7991583128
 20
57.0838195335
 30
0.0
 10
35.7933718987
 20
57.0859821002
 30
0.0
 10
35.7805858424
 20
57.0892929244
 30
0.0
 10
35.7524195171
 20
57.0923767309
 30
0.0
 10
35.7301192854
 20
57.0907246504
 30
0.0
 10
35.7151961252
 20
57.0880868205
 30
0.0
  0
SPLINE
  5
4FA
100
AcDbEntity
  8
0
100
AcDbSpline
 62
7
  6
BYLAYER
 70
0
 71
3
 72
10
 73
6
 74
0
 42
0.0000001
 43
0.0000001
 44
0.0000000001
 40
0.0
 40
0.0
 40
0.0
 40
0.0
 40
0.2136372424
 40
0.458279816
 40
1.0
 40
1.0
 40
1.0
 40
1.0
 10
35.0373100471
 20
57.3286360437
 30
0.0
 10
35.0315647695
 20
57.3301754059
 30
0.0
 10
35.0189027865
 20
57.3322294872
 30
0.0
 10
34.9910321862
 20
57.3330276421
 30
0.0
 10
34.9691428932
 20
57.3300413696
 30
0.0
 10
34.9544313571
 20
57.3267183442
 30
0.0
  0
SPLINE
  5
4FB
100
AcDbEntity
  8
0
100
AcDbSpline
 62
7
  6
BYLAYER
 70
0
 71
3
 72
9
 73
5
 74
0
 42
0.0000001
 43
0.0000001
 44
0.0000000001
 40
0.0
 40
0.0
 40
0.0
 40
0.0
 40
0.2275596145
 40
1.0
 40
1.0
 40
1.0
 40
1.0
 10
34.2930812481
 20
57.487350605
 30
0.0
 10
34.291312372
 20
57.4876284235
 30
0.0
 10
34.2835006605
 20
57.4886033209
 30
0.0
 10
34.2756011872
 20
57.4887440261
 30
0.0
 10
34.2695262002
 20
57.488553559
 30
0.0
  0
SPLINE
  5
4FC
100
AcDbEntity
  8
0
100
AcDbSpline
 62
7
  6
BYLAYER
 70
0
 71
3
 72
9
 73
5
 74
0
 42
0.0000001
 43
0.0000001
 44
0.0000000001
 40
0.0
 40
0.0
 40
0.0
 40
0.0
 40
0.232466204
 40
1.0
 40
1.0
 40
1.0
 40
1.0
 10
34.2695262002
 20
57.488553559
 30
0.0
 10
34.2649825691
 20
57.4884111039
 30
0.0
 10
34.2454636543
 20
57.4870385999
 30
0.0
 10
34.2261638593
 20
57.4831524843
 30
0.0
 10
34.2117015532
 20
57.4791382346
 30
0.0
  0
SPLINE
  5
4FD
100
AcDbEntity
  8
0
100
AcDbSpline
 62
7
  6
BYLAYER
 70
0
 71
3
 72
9
 73
5
 74
0
 42
0.0000001
 43
0.0000001
 44
0.0000000001
 40
0.0
 40
0.0
 40
0.0
 40
0.0
 40
0.2249490328
 40
1.0
 40
1.0
 40
1.0
 40
1.0
 10
33.5721359462
 20
57.5587553039
 30
0.0
 10
33.5704215334
 20
57.5588219772
 30
0.0
 10
33.5627918793
 20
57.5589018109
 30
0.0
 10
33.5551678196
 20
57.5582688961
 30
0.0
 10
33.5493013561
 20
57.5575414687
 30
0.0
  0
SPLINE
  5
4FE
100
AcDbEntity
  8
0
100
AcDbSpline
 62
7
  6
BYLAYER
 70
0
 71
3
 72
9
 73
5
 74
0
 42
0.0000001
 43
0.0000001
 44
0.0000000001
 40
0.0
 40
0.0
 40
0.0
 40
0.0
 40
0.2304763823
 40
1.0
 40
1.0
 40
1.0
 40
1.0
 10
33.5493013561
 20
57.5575414687
 30
0.0
 10
33.5448604202
 20
57.5569908033
 30
0.0
 10
33.5256720665
 20
57.5539686096
 30
0.0
 10
33.5068393303
 20
57.548894458
 30
0.0
 10
33.4926593355
 20
57.5441864842
 30
0.0
  0
SPLINE
  5
4FF
100
AcDbEntity
  8
0
100
AcDbSpline
 62
7
  6
BYLAYER
 70
0
 71
3
 72
9
 73
5
 74
0
 42
0.0000001
 43
0.0000001
 44
0.0000000001
 40
0.0
 40
0.0
 40
0.0
 40
0.0
 40
0.2499389396
 40
1.0
 40
1.0
 40
1.0
 40
1.0
 10
43.6226190765
 20
57.4024135061
 30
0.0
 10
43.4497217456
 20
57.380942274
 30
0.0
 10
42.7579854774
 20
57.2948591905
 30
0.0
 10
42.0663143378
 20
57.208252926
 30
0.0
 10
41.547553909
 20
57.1430139086
 30
0.0
  0
SPLINE
  5
500
100
AcDbEntity
  8
0
100
AcDbSpline
 62
7
  6
BYLAYER
 70
0
 71
3
 72
9
 73
5
 74
0
 42
0.0000001
 43
0.0000001
 44
0.0000000001
 40
0.0
 40
0.0
 40
0.0
 40
0.0
 40
0.250142613
 40
1.0
 40
1.0
 40
1.0
 40
1.0
 10
46.9561007551
 20
50.4147499156
 30
0.0
 10
47.0704590177
 20
50.5093566119
 30
0.0
 10
47.527593161
 20
50.8876137101
 30
0.0
 10
47.9846017524
 20
51.2660225664
 30
0.0
 10
48.3271935107
 20
51.5498953222
 30
0.0
  0
SPLINE
  5
501
100
AcDbEntity
  8
0
100
AcDbSpline
 62
7
  6
BYLAYER
 70
0
 71
3
 72
9
 73
5
 74
0
 42
0.0000001
 43
0.0000001
 44
0.0000000001
 40
0.0
 40
0.0
 40
0.0
 40
0.0
 40
0.447145115
 40
1.0
 40
1.0
 40
1.0
 40
1.0
 10
32.8799609706
 20
57.5423067073
 30
0.0
 10
32.8725690894
 20
57.54164638
 30
0.0
 10
32.8561898018
 20
57.5386352315
 30
0.0
 10
32.8401839654
 20
57.5342098272
 30
0.0
 10
32.8314287855
 20
57.531463556
 30
0.0
  0
SPLINE
  5
502
100
AcDbEntity
  8
0
100
AcDbSpline
 62
7
  6
BYLAYER
 70
0
 71
3
 72
9
 73
5
 74
0
 42
0.0000001
 43
0.0000001
 44
0.0000000001
 40
0.0
 40
0.0
 40
0.0
 40
0.0
 40
0.5180330591
 40
1.0
 40
1.0
 40
1.0
 40
1.0
 10
43.6226190765
 20
57.4024135061
 30
0.0
 10
43.6386776005
 20
57.4045925167
 30
0.0
 10
43.6708375786
 20
57.4036089637
 30
0.0
 10
43.6999367304
 20
57.3892998207
 30
0.0
 10
43.7116543188
 20
57.37981157
 30
0.0
  0
SPLINE
  5
503
100
AcDbEntity
  8
0
100
AcDbSpline
 62
7
  6
BYLAYER
 70
0
 71
3
 72
9
 73
5
 74
0
 42
0.0000001
 43
0.0000001
 44
0.0000000001
 40
0.0
 40
0.0
 40
0.0
 40
0.0
 40
0.220623672
 40
1.0
 40
1.0
 40
1.0
 40
1.0
 10
32.2218241907
 20
57.4381299992
 30
0.0
 10
32.2202611522
 20
57.4377686322
 30
0.0
 10
32.2132048617
 20
57.4360082669
 30
0.0
 10
32.2062486944
 20
57.4338660737
 30
0.0
 10
32.2008687437
 20
57.4320845586
 30
0.0
  0
SPLINE
  5
504
100
AcDbEntity
  8
0
100
AcDbSpline
 62
7
  6
BYLAYER
 70
0
 71
3
 72
9
 73
5
 74
0
 42
0.0000001
 43
0.0000001
 44
0.0000000001
 40
0.0
 40
0.0
 40
0.0
 40
0.0
 40
0.2344312567
 40
1.0
 40
1.0
 40
1.0
 40
1.0
 10
32.2008687437
 20
57.4320845586
 30
0.0
 10
32.1988424398
 20
57.431413569
 30
0.0
 10
32.1902241743
 20
57.4284753521
 30
0.0
 10
32.1816991562
 20
57.4252670259
 30
0.0
 10
32.175219638
 20
57.4226971253
 30
0.0
  0
SPLINE
  5
505
100
AcDbEntity
  8
0
100
AcDbSpline
 62
7
  6
BYLAYER
 70
0
 71
3
 72
9
 73
5
 74
0
 42
0.0000001
 43
0.0000001
 44
0.0000000001
 40
0.0
 40
0.0
 40
0.0
 40
0.0
 40
0.2193415213
 40
1.0
 40
1.0
 40
1.0
 40
1.0
 10
31.6027344249
 20
57.2470180271
 30
0.0
 10
31.6012687366
 20
57.2464441009
 30
0.0
 10
31.5946113127
 20
57.2437642202
 30
0.0
 10
31.5880331942
 20
57.2408911219
 30
0.0
 10
31.5829233618
 20
57.2385945417
 30
0.0
  0
SPLINE
  5
506
100
AcDbEntity
  8
0
100
AcDbSpline
 62
7
  6
BYLAYER
 70
0
 71
3
 72
9
 73
5
 74
0
 42
0.0000001
 43
0.0000001
 44
0.0000000001
 40
0.0
 40
0.0
 40
0.0
 40
0.0
 40
0.2339123827
 40
1.0
 40
1.0
 40
1.0
 40
1.0
 10
31.5829233618
 20
57.2385945417
 30
0.0
 10
31.5809902151
 20
57.2377257017
 30
0.0
 10
31.5727426075
 20
57.2339739804
 30
0.0
 10
31.5645559476
 20
57.2300889455
 30
0.0
 10
31.5583125963
 20
57.2270553821
 30
0.0
  0
LINE
  5
507
100
AcDbEntity
  8
0
100
AcDbLine
 62
7
  6
BYLAYER
 10
43.6892970726
 20
35.0668915161
 11
43.6932865788
 21
35.0692954265
  0
LINE
  5
508
100
AcDbEntity
  8
0
100
AcDbLine
 62
7
  6
BYLAYER
 10
31.0433608371
 20
56.9794878945
 11
31.0391877317
 21
56.9771798538
  0
SPLINE
  5
509
100
AcDbEntity
  8
0
100
AcDbSpline
 62
7
  6
BYLAYER
 70
0
 71
3
 72
9
 73
5
 74
0
 42
0.0000001
 43
0.0000001
 44
0.0000000001
 40
0.0
 40
0.0
 40
0.0
 40
0.0
 40
0.5145679325
 40
1.0
 40
1.0
 40
1.0
 40
1.0
 10
50.1795614272
 20
46.6318569388
 30
0.0
 10
50.2902817264
 20
46.1325976292
 30
0.0
 10
50.460924589
 20
45.1517511854
 30
0.0
 10
50.5280774336
 20
44.1577808621
 30
0.0
 10
50.5309735984
 20
43.6753562997
 30
0.0
  0
SPLINE
  5
50A
100
AcDbEntity
  8
0
100
AcDbSpline
 62
7
  6
BYLAYER
 70
0
 71
3
 72
16
 73
12
 74
0
 42
0.0000001
 43
0.0000001
 44
0.0000000001
 40
0.0
 40
0.0
 40
0.0
 40
0.0
 40
0.0546056323
 40
0.1111427786
 40
0.2293336798
 40
0.3533455661
 40
0.4815934244
 40
0.6122876393
 40
0.7435268875
 40
0.873385614
 40
1.0
 40
1.0
 40
1.0
 40
1.0
 10
33.3325454608
 20
54.7783692711
 30
0.0
 10
33.5746714778
 20
54.6385809125
 30
0.0
 10
34.0582769518
 20
54.337824057
 30
0.0
 10
35.0170427577
 20
53.6590257227
 30
0.0
 10
36.1882168724
 20
52.6702427411
 30
0.0
 10
37.5103526588
 20
51.3064622653
 30
0.0
 10
38.7416257132
 20
49.7771367526
 30
0.0
 10
39.8552197093
 20
48.1156193747
 30
0.0
 10
40.8270020232
 20
46.3579005713
 30
0.0
 10
41.6357604935
 20
44.5424419229
 30
0.0
 10
42.0620074035
 20
43.2980586859
 30
0.0
 10
42.2421279976
 20
42.6753173213
 30
0.0
  0
SPLINE
  5
50B
100
AcDbEntity
  8
0
100
AcDbSpline
 62
7
  6
BYLAYER
 70
0
 71
3
 72
19
 73
15
 74
0
 42
0.0000001
 43
0.0000001
 44
0.0000000001
 40
0.0
 40
0.0
 40
0.0
 40
0.0
 40
0.0554410599
 40
0.1132751537
 40
0.1732533058
 40
0.2351330151
 40
0.3633187476
 40
0.4951617386
 40
0.6276705605
 40
0.7578070218
 40
0.8211009558
 40
0.8827519434
 40
0.9424829285
 40
1.0
 40
1.0
 40
1.0
 40
1.0
 10
32.4486655194
 20
54.8192033311
 30
0.0
 10
32.7683928536
 20
54.6346128446
 30
0.0
 10
33.4063281654
 20
54.2304244067
 30
0.0
 10
34.3336770587
 20
53.5425877149
 30
0.0
 10
35.2447401512
 20
52.765447936
 30
0.0
 10
36.4409722588
 20
51.6059156617
 30
0.0
 10
37.842141572
 20
49.9767432782
 30
0.0
 10
39.3212730122
 20
47.8155808523
 30
0.0
 10
40.5682320044
 20
45.4979285411
 30
0.0
 10
41.3865247171
 20
43.4822925332
 30
0.0
 10
41.8866662334
 20
41.8580999246
 30
0.0
 10
42.1770739848
 20
40.6622478072
 30
0.0
 10
42.3835976977
 20
39.4881610304
 30
0.0
 10
42.4659656313
 20
38.7109513326
 30
0.0
 10
42.4918262531
 20
38.3288137798
 30
0.0
  0
SPLINE
  5
50C
100
AcDbEntity
  8
0
100
AcDbSpline
 62
7
  6
BYLAYER
 70
0
 71
3
 72
16
 73
12
 74
0
 42
0.0000001
 43
0.0000001
 44
0.0000000001
 40
0.0
 40
0.0
 40
0.0
 40
0.0
 40
0.1458505423
 40
0.2846986991
 40
0.4166360543
 40
0.4801887189
 40
0.542228622
 40
0.6621446296
 40
0.7774826007
 40
0.8895815909
 40
1.0
 40
1.0
 40
1.0
 40
1.0
 10
42.4918262511
 20
36.442693212
 30
0.0
 10
42.4684413421
 20
36.1241407584
 30
0.0
 10
42.397584796
 20
35.5037647532
 30
0.0
 10
42.2118695763
 20
34.6091225999
 30
0.0
 10
41.9910292697
 20
33.9094118907
 30
0.0
 10
41.7762173309
 20
33.3876217561
 30
0.0
 10
41.5425683864
 20
32.9031058287
 30
0.0
 10
41.2065562378
 20
32.3432078751
 30
0.0
 10
40.7295258132
 20
31.7475015205
 30
0.0
 10
40.1870111611
 20
31.240596966
 30
0.0
 10
39.7830355681
 20
30.9640966486
 30
0.0
 10
39.5736235219
 20
30.843180932
 30
0.0
  0
SPLINE
  5
50D
100
AcDbEntity
  8
0
100
AcDbSpline
 62
7
  6
BYLAYER
 70
0
 71
3
 72
10
 73
6
 74
0
 42
0.0000001
 43
0.0000001
 44
0.0000000001
 40
0.0
 40
0.0
 40
0.0
 40
0.0
 40
0.2492009002
 40
0.5002730774
 40
1.0
 40
1.0
 40
1.0
 40
1.0
 10
20.1632138426
 20
20.6958612943
 30
0.0
 10
20.1313204994
 20
20.6937716803
 30
0.0
 10
20.0669052951
 20
20.694554055
 30
0.0
 10
19.9396311791
 20
20.7117001415
 30
0.0
 10
19.8465858031
 20
20.7399039075
 30
0.0
 10
19.787464307
 20
20.7646549321
 30
0.0
  0
SPLINE
  5
50E
100
AcDbEntity
  8
0
100
AcDbSpline
 62
7
  6
BYLAYER
 70
0
 71
3
 72
11
 73
7
 74
0
 42
0.0000001
 43
0.0000001
 44
0.0000000001
 40
0.0
 40
0.0
 40
0.0
 40
0.0
 40
0.2556827291
 40
0.506723228
 40
0.7543605315
 40
1.0
 40
1.0
 40
1.0
 40
1.0
 10
20.1632095751
 20
20.6958611257
 30
0.0
 10
20.3488604589
 20
20.7080007628
 30
0.0
 10
20.7159438626
 20
20.7491899957
 30
0.0
 10
21.2535874159
 20
20.864276232
 30
0.0
 10
21.7696105285
 20
21.0318677676
 30
0.0
 10
22.0980331225
 20
21.1786824221
 30
0.0
 10
22.2570384227
 20
21.2603223919
 30
0.0
  0
SPLINE
  5
50F
100
AcDbEntity
  8
0
100
AcDbSpline
 62
7
  6
BYLAYER
 70
0
 71
3
 72
9
 73
5
 74
0
 42
0.0000001
 43
0.0000001
 44
0.0000000001
 40
0.0
 40
0.0
 40
0.0
 40
0.0
 40
0.495679537
 40
1.0
 40
1.0
 40
1.0
 40
1.0
 10
17.773615948
 20
51.1397187996
 30
0.0
 10
17.9709003123
 20
51.2387054057
 30
0.0
 10
18.3833501492
 20
51.4107518189
 30
0.0
 10
18.8151600073
 20
51.5253358339
 30
0.0
 10
19.0354580425
 20
51.5689437744
 30
0.0
  0
SPLINE
  5
510
100
AcDbEntity
  8
0
100
AcDbSpline
 62
7
  6
BYLAYER
 70
0
 71
3
 72
10
 73
6
 74
0
 42
0.0000001
 43
0.0000001
 44
0.0000000001
 40
0.0
 40
0.0
 40
0.0
 40
0.0
 40
0.5043951479
 40
0.7526910916
 40
1.0
 40
1.0
 40
1.0
 40
1.0
 10
33.0214252995
 20
27.3967954382
 30
0.0
 10
32.824043536
 20
27.1689478046
 30
0.0
 10
32.4990954881
 20
26.8532245614
 30
0.0
 10
32.0163051497
 20
26.4999554801
 30
0.0
 10
31.7615235362
 20
26.3478158384
 30
0.0
 10
31.6312166825
 20
26.2780560899
 30
0.0
  0
SPLINE
  5
511
100
AcDbEntity
  8
0
100
AcDbSpline
 62
7
  6
BYLAYER
 70
0
 71
3
 72
11
 73
7
 74
0
 42
0.0000001
 43
0.0000001
 44
0.0000000001
 40
0.0
 40
0.0
 40
0.0
 40
0.0
 40
0.2801869044
 40
0.5392977287
 40
0.7782178926
 40
1.0
 40
1.0
 40
1.0
 40
1.0
 10
33.2192214202
 20
28.0697096021
 30
0.0
 10
33.2192214202
 20
28.0030415015
 30
0.0
 10
33.2116868702
 20
27.8745221663
 30
0.0
 10
33.174880709
 20
27.6923170112
 30
0.0
 10
33.1133382518
 20
27.5315543557
 30
0.0
 10
33.0544741322
 20
27.4379363114
 30
0.0
 10
33.0214252995
 20
27.3967954382
 30
0.0
  0
SPLINE
  5
512
100
AcDbEntity
  8
0
100
AcDbSpline
 62
7
  6
BYLAYER
 70
0
 71
3
 72
11
 73
7
 74
0
 42
0.0000001
 43
0.0000001
 44
0.0000000001
 40
0.0
 40
0.0
 40
0.0
 40
0.0
 40
0.2638710574
 40
0.5243628732
 40
0.7722963255
 40
1.0
 40
1.0
 40
1.0
 40
1.0
 10
32.6997517331
 20
29.5546472055
 30
0.0
 10
32.7802995517
 20
29.4398094753
 30
0.0
 10
32.9249044315
 20
29.2003515815
 30
0.0
 10
33.088804359
 20
28.8225728988
 30
0.0
 10
33.1925397597
 20
28.4438644955
 30
0.0
 10
33.2192214202
 20
28.1907534956
 30
0.0
 10
33.2192214202
 20
28.0697096021
 30
0.0
  0
LINE
  5
513
100
AcDbEntity
  8
0
100
AcDbLine
 62
7
  6
BYLAYER
 10
32.6041553351
 20
29.690668489
 11
32.6997517331
 21
29.5546472055
  0
SPLINE
  5
514
100
AcDbEntity
  8
0
100
AcDbSpline
 62
7
  6
BYLAYER
 70
0
 71
3
 72
9
 73
5
 74
0
 42
0.0000001
 43
0.0000001
 44
0.0000000001
 40
0.0
 40
0.0
 40
0.0
 40
0.0
 40
0.24835886
 40
1.0
 40
1.0
 40
1.0
 40
1.0
 10
19.787464307
 20
20.7646549321
 30
0.0
 10
19.754738033
 20
20.7819646375
 30
0.0
 10
19.624766946
 20
20.8549697777
 30
0.0
 10
19.5024570859
 20
20.9419338006
 30
0.0
 10
19.4175051769
 20
21.0149900433
 30
0.0
  0
SPLINE
  5
515
100
AcDbEntity
  8
0
100
AcDbSpline
 62
7
  6
BYLAYER
 70
0
 71
3
 72
9
 73
5
 74
0
 42
0.0000001
 43
0.0000001
 44
0.0000000001
 40
0.0
 40
0.0
 40
0.0
 40
0.0
 40
0.4946785384
 40
1.0
 40
1.0
 40
1.0
 40
1.0
 10
7.7081142994
 20
44.8154173975
 30
0.0
 10
7.542960973
 20
44.6654812787
 30
0.0
 10
7.2284768539
 20
44.3404247073
 30
0.0
 10
6.9563910238
 20
43.9793591299
 30
0.0
 10
6.8298307288
 20
43.7898782927
 30
0.0
  0
SPLINE
  5
516
100
AcDbEntity
  8
0
100
AcDbSpline
 62
7
  6
BYLAYER
 70
0
 71
3
 72
11
 73
7
 74
0
 42
0.0000001
 43
0.0000001
 44
0.0000000001
 40
0.0
 40
0.0
 40
0.0
 40
0.0
 40
0.2523460837
 40
0.5043990304
 40
0.7542233874
 40
1.0
 40
1.0
 40
1.0
 40
1.0
 10
10.6944405223
 20
34.4661908984
 30
0.0
 10
11.309783295
 20
33.3164713571
 30
0.0
 10
12.5835117312
 20
31.0414920234
 30
0.0
 10
14.6147235791
 20
27.7140207815
 30
0.0
 10
16.7522639996
 20
24.4944779233
 30
0.0
 10
18.2532120681
 20
22.4182409726
 30
0.0
 10
19.0194190437
 20
21.4053042285
 30
0.0
  0
SPLINE
  5
517
100
AcDbEntity
  8
0
100
AcDbSpline
 62
7
  6
BYLAYER
 70
0
 71
3
 72
12
 73
8
 74
0
 42
0.0000001
 43
0.0000001
 44
0.0000000001
 40
0.0
 40
0.0
 40
0.0
 40
0.0
 40
0.1241992841
 40
0.2487208143
 40
0.4985263178
 40
0.7490770782
 40
1.0
 40
1.0
 40
1.0
 40
1.0
 10
9.128048713
 20
45.0596740363
 30
0.0
 10
9.2941575224
 20
44.5275011184
 30
0.0
 10
9.6416552888
 20
43.4663306976
 30
0.0
 10
10.3980057949
 20
41.3600487166
 30
0.0
 10
11.455983257
 20
38.7606035642
 30
0.0
 10
12.8989194054
 20
35.7108811958
 30
0.0
 10
13.9727262294
 20
33.7309886057
 30
0.0
 10
14.5371108127
 20
32.7562747378
 30
0.0
  0
SPLINE
  5
518
100
AcDbEntity
  8
0
100
AcDbSpline
 62
7
  6
BYLAYER
 70
0
 71
3
 72
11
 73
7
 74
0
 42
0.0000001
 43
0.0000001
 44
0.0000000001
 40
0.0
 40
0.0
 40
0.0
 40
0.0
 40
0.2304358369
 40
0.4772444795
 40
0.7356761777
 40
1.0
 40
1.0
 40
1.0
 40
1.0
 10
14.7960779936
 20
31.9302546851
 30
0.0
 10
14.7935542703
 20
31.9972946949
 30
0.0
 10
14.7772379391
 20
32.1358343863
 30
0.0
 10
14.7247823479
 20
32.344000096
 30
0.0
 10
14.6449621874
 20
32.5538363326
 30
0.0
 10
14.5756593381
 20
32.6897147878
 30
0.0
 10
14.5370989715
 20
32.7563100231
 30
0.0
  0
SPLINE
  5
519
100
AcDbEntity
  8
0
100
AcDbSpline
 62
7
  6
BYLAYER
 70
0
 71
3
 72
9
 73
5
 74
0
 42
0.0000001
 43
0.0000001
 44
0.0000000001
 40
0.0
 40
0.0
 40
0.0
 40
0.0
 40
0.4957902748
 40
1.0
 40
1.0
 40
1.0
 40
1.0
 10
6.9583698908
 20
42.2416631895
 30
0.0
 10
7.5164434786
 20
40.9294077894
 30
0.0
 10
8.7061251596
 20
38.3095102681
 30
0.0
 10
10.0101198978
 20
35.74479014
 30
0.0
 10
10.6944405223
 20
34.4661908984
 30
0.0
  0
SPLINE
  5
51A
100
AcDbEntity
  8
0
100
AcDbSpline
 62
7
  6
BYLAYER
 70
0
 71
3
 72
10
 73
6
 74
0
 42
0.0000001
 43
0.0000001
 44
0.0000000001
 40
0.0
 40
0.0
 40
0.0
 40
0.0
 40
0.4997503968
 40
0.7507106401
 40
1.0
 40
1.0
 40
1.0
 40
1.0
 10
6.7025710556
 20
43.4317125585
 30
0.0
 10
6.7105007828
 20
43.495005004
 30
0.0
 10
6.7323119052
 20
43.589278162
 30
0.0
 10
6.7808293504
 20
43.7075124948
 30
0.0
 10
6.8121295369
 20
43.7634591143
 30
0.0
 10
6.8297986384
 20
43.7899212057
 30
0.0
  0
SPLINE
  5
51B
100
AcDbEntity
  8
0
100
AcDbSpline
 62
7
  6
BYLAYER
 70
0
 71
3
 72
9
 73
5
 74
0
 42
0.0000001
 43
0.0000001
 44
0.0000000001
 40
0.0
 40
0.0
 40
0.0
 40
0.0
 40
0.2517189525
 40
1.0
 40
1.0
 40
1.0
 40
1.0
 10
6.7359410411
 20
42.9888956192
 30
0.0
 10
6.7288418106
 20
43.0255203117
 30
0.0
 10
6.7051729678
 20
43.1718819637
 30
0.0
 10
6.6988115396
 20
43.3208761532
 30
0.0
 10
6.7025710556
 20
43.4317125585
 30
0.0
  0
SPLINE
  5
51C
100
AcDbEntity
  8
0
100
AcDbSpline
 62
7
  6
BYLAYER
 70
0
 71
3
 72
9
 73
5
 74
0
 42
0.0000001
 43
0.0000001
 44
0.0000000001
 40
0.0
 40
0.0
 40
0.0
 40
0.0
 40
0.4959706481
 40
1.0
 40
1.0
 40
1.0
 40
1.0
 10
6.9583698908
 20
42.2416631895
 30
0.0
 10
6.9080155144
 20
42.3605205716
 30
0.0
 10
6.8203577883
 20
42.6062172057
 30
0.0
 10
6.7595332161
 20
42.8598532633
 30
0.0
 10
6.7359410411
 20
42.9888956192
 30
0.0
  0
LINE
  5
51D
100
AcDbEntity
  8
0
100
AcDbLine
 62
7
  6
BYLAYER
 10
20.7707020574
 20
50.2162526351
 11
20.8401347793
 21
50.0666744274
  0
SPLINE
  5
51E
100
AcDbEntity
  8
0
100
AcDbSpline
 62
7
  6
BYLAYER
 70
0
 71
3
 72
15
 73
11
 74
0
 42
0.0000001
 43
0.0000001
 44
0.0000000001
 40
0.0
 40
0.0
 40
0.0
 40
0.0
 40
0.0915366108
 40
0.1930138615
 40
0.3060848481
 40
0.4306690297
 40
0.5651818981
 40
0.7070391719
 40
0.8532073369
 40
1.0
 40
1.0
 40
1.0
 40
1.0
 10
19.0354580425
 20
51.5689437744
 30
0.0
 10
19.1053967324
 20
51.582689923
 30
0.0
 10
19.2580399837
 20
51.5877338246
 30
0.0
 10
19.4922450893
 20
51.5341438782
 30
0.0
 10
19.7337095054
 20
51.4235531136
 30
0.0
 10
19.9745821152
 20
51.2604798619
 30
0.0
 10
20.2069168636
 20
51.0506091549
 30
0.0
 10
20.4228269427
 20
50.8013393488
 30
0.0
 10
20.6145403954
 20
50.5214706806
 30
0.0
 10
20.722478249
 20
50.3198848295
 30
0.0
 10
20.7707020574
 20
50.2162526351
 30
0.0
  0
SPLINE
  5
51F
100
AcDbEntity
  8
0
100
AcDbSpline
 62
7
  6
BYLAYER
 70
0
 71
3
 72
11
 73
7
 74
0
 42
0.0000001
 43
0.0000001
 44
0.0000000001
 40
0.0
 40
0.0
 40
0.0
 40
0.0
 40
0.2664315292
 40
0.5208226206
 40
0.764032965
 40
1.0
 40
1.0
 40
1.0
 40
1.0
 10
9.0448241585
 20
45.3967172418
 30
0.0
 10
9.0438228357
 20
45.4331133576
 30
0.0
 10
9.0493904184
 20
45.5047521176
 30
0.0
 10
9.0814744244
 20
45.6051938098
 30
0.0
 10
9.1361544281
 20
45.6906367553
 30
0.0
 10
9.1862108867
 20
45.7344889461
 30
0.0
 10
9.2133065647
 20
45.7519724474
 30
0.0
  0
SPLINE
  5
520
100
AcDbEntity
  8
0
100
AcDbSpline
 62
7
  6
BYLAYER
 70
0
 71
3
 72
12
 73
8
 74
0
 42
0.0000001
 43
0.0000001
 44
0.0000000001
 40
0.0
 40
0.0
 40
0.0
 40
0.0
 40
0.1069550563
 40
0.2161286565
 40
0.4480886517
 40
0.7081420775
 40
1.0
 40
1.0
 40
1.0
 40
1.0
 10
14.5384613408
 20
31.3137119864
 30
0.0
 10
14.560088303
 20
31.3261936571
 30
0.0
 10
14.6015776694
 20
31.3554776363
 30
0.0
 10
14.675460092
 20
31.4301918222
 30
0.0
 10
14.7469778926
 20
31.5537948159
 30
0.0
 10
14.7930702379
 20
31.7325417152
 30
0.0
 10
14.7986412655
 20
31.8621641086
 30
0.0
 10
14.7960779936
 20
31.9302546851
 30
0.0
  0
SPLINE
  5
521
100
AcDbEntity
  8
0
100
AcDbSpline
 62
7
  6
BYLAYER
 70
0
 71
3
 72
15
 73
11
 74
0
 42
0.0000001
 43
0.0000001
 44
0.0000000001
 40
0.0
 40
0.0
 40
0.0
 40
0.0
 40
0.1080131785
 40
0.2180620411
 40
0.3320000111
 40
0.4513603853
 40
0.5772771844
 40
0.7104918775
 40
0.8514203096
 40
1.0
 40
1.0
 40
1.0
 40
1.0
 10
25.3237075169
 20
55.5249068298
 30
0.0
 10
25.5573330498
 20
55.6598035524
 30
0.0
 10
26.0533868271
 20
55.8920623464
 30
0.0
 10
26.8559911398
 20
56.114045019
 30
0.0
 10
27.7116100331
 20
56.2094629154
 30
0.0
 10
28.6110987077
 20
56.178159242
 30
0.0
 10
29.5457946125
 20
56.0213933391
 30
0.0
 10
30.5070351183
 20
55.7411756197
 30
0.0
 10
31.4856825956
 20
55.3406010146
 30
0.0
 10
32.1272877035
 20
55.004746702
 30
0.0
 10
32.4486655194
 20
54.8192033311
 30
0.0
  0
SPLINE
  5
522
100
AcDbEntity
  8
0
100
AcDbSpline
 62
7
  6
BYLAYER
 70
0
 71
3
 72
9
 73
5
 74
0
 42
0.0000001
 43
0.0000001
 44
0.0000000001
 40
0.0
 40
0.0
 40
0.0
 40
0.0
 40
0.5157885009
 40
1.0
 40
1.0
 40
1.0
 40
1.0
 10
7.8176340831
 20
44.6932248635
 30
0.0
 10
7.8163150069
 20
44.7414061251
 30
0.0
 10
7.8267076122
 20
44.8358310944
 30
0.0
 10
7.8668111924
 20
44.9226282213
 30
0.0
 10
7.8931748527
 20
44.959403013
 30
0.0
  0
SPLINE
  5
523
100
AcDbEntity
  8
0
100
AcDbSpline
 62
7
  6
BYLAYER
 70
0
 71
3
 72
9
 73
5
 74
0
 42
0.0000001
 43
0.0000001
 44
0.0000000001
 40
0.0
 40
0.0
 40
0.0
 40
0.0
 40
0.2526978328
 40
1.0
 40
1.0
 40
1.0
 40
1.0
 10
7.8931748527
 20
44.959403013
 30
0.0
 10
7.8974941839
 20
44.9654280681
 30
0.0
 10
7.9153202023
 20
44.9887357466
 30
0.0
 10
7.936063333
 20
45.0098205762
 30
0.0
 10
7.9528769217
 20
45.0238897967
 30
0.0
  0
SPLINE
  5
524
100
AcDbEntity
  8
0
100
AcDbSpline
 62
7
  6
BYLAYER
 70
0
 71
3
 72
11
 73
7
 74
0
 42
0.0000001
 43
0.0000001
 44
0.0000000001
 40
0.0
 40
0.0
 40
0.0
 40
0.0
 40
0.1242510503
 40
0.2487983815
 40
0.4986135605
 40
1.0
 40
1.0
 40
1.0
 40
1.0
 10
7.9007960139
 20
44.3562747176
 30
0.0
 10
8.0512242277
 20
43.874216416
 30
0.0
 10
8.3645901665
 20
42.9126923441
 30
0.0
 10
9.0418656096
 20
41.002507503
 30
0.0
 10
10.3578130683
 20
37.6942867608
 30
0.0
 10
11.6996312095
 20
34.9444349129
 30
0.0
 10
12.6833756069
 20
33.1598740304
 30
0.0
  0
SPLINE
  5
525
100
AcDbEntity
  8
0
100
AcDbSpline
 62
7
  6
BYLAYER
 70
0
 71
3
 72
15
 73
11
 74
0
 42
0.0000001
 43
0.0000001
 44
0.0000000001
 40
0.0
 40
0.0
 40
0.0
 40
0.0
 40
0.1551378373
 40
0.3064591793
 40
0.4501212811
 40
0.5833031154
 40
0.7040610688
 40
0.8120860917
 40
0.9092525653
 40
1.0
 40
1.0
 40
1.0
 40
1.0
 10
13.2737172277
 20
32.1134364333
 30
0.0
 10
13.3127864974
 20
32.0457686795
 30
0.0
 10
13.3975638183
 20
31.9163174645
 30
0.0
 10
13.5429903879
 20
31.7417350932
 30
0.0
 10
13.7009482573
 20
31.5940069258
 30
0.0
 10
13.865542611
 20
31.478590922
 30
0.0
 10
14.0310929787
 20
31.3998099666
 30
0.0
 10
14.1921391396
 20
31.3609737502
 30
0.0
 10
14.3431764082
 20
31.364749697
 30
0.0
 10
14.434137051
 20
31.3977712061
 30
0.0
 10
14.4737180677
 20
31.4206264696
 30
0.0
  0
LINE
  5
526
100
AcDbEntity
  8
0
100
AcDbLine
 62
7
  6
BYLAYER
 10
15.7367305509
 20
49.8036215513
 11
9.2133065647
 21
45.7519724474
  0
SPLINE
  5
527
100
AcDbEntity
  8
0
100
AcDbSpline
 62
7
  6
BYLAYER
 70
0
 71
3
 72
11
 73
7
 74
0
 42
0.0000001
 43
0.0000001
 44
0.0000000001
 40
0.0
 40
0.0
 40
0.0
 40
0.0
 40
0.2715840664
 40
0.5284651419
 40
0.7708185489
 40
1.0
 40
1.0
 40
1.0
 40
1.0
 10
43.004766651
 20
40.4590503556
 30
0.0
 10
43.004766651
 20
40.1407653757
 30
0.0
 10
42.9760029805
 20
39.5208854866
 30
0.0
 10
42.8380467154
 20
38.6261793825
 30
0.0
 10
42.606576881
 20
37.8021956437
 30
0.0
 10
42.3847517103
 20
37.2934842202
 30
0.0
 10
42.2582370459
 20
37.0565557065
 30
0.0
  0
SPLINE
  5
528
100
AcDbEntity
  8
0
100
AcDbSpline
 62
7
  6
BYLAYER
 70
0
 71
3
 72
15
 73
11
 74
0
 42
0.0000001
 43
0.0000001
 44
0.0000000001
 40
0.0
 40
0.0
 40
0.0
 40
0.0
 40
0.1219043697
 40
0.2476703813
 40
0.3758737944
 40
0.5049862125
 40
0.633440589
 40
0.7596990325
 40
0.8823139627
 40
1.0
 40
1.0
 40
1.0
 40
1.0
 10
37.5967428165
 20
52.0187635036
 30
0.0
 10
37.9367730123
 20
51.7031154008
 30
0.0
 10
38.5977001258
 20
51.0289648423
 30
0.0
 10
39.5093568527
 20
49.9245552915
 30
0.0
 10
40.3442183829
 20
48.7273568296
 30
0.0
 10
41.0871026448
 20
47.4592171912
 30
0.0
 10
41.7245690322
 20
46.1431426146
 30
0.0
 10
42.2449882619
 20
44.8029108177
 30
0.0
 10
42.6388068984
 20
43.4628388749
 30
0.0
 10
42.8163114083
 20
42.5639724504
 30
0.0
 10
42.8804334842
 20
42.1206856209
 30
0.0
  0
SPLINE
  5
529
100
AcDbEntity
  8
0
100
AcDbSpline
 62
7
  6
BYLAYER
 70
0
 71
3
 72
9
 73
5
 74
0
 42
0.0000001
 43
0.0000001
 44
0.0000000001
 40
0.0
 40
0.0
 40
0.0
 40
0.0
 40
0.5098246157
 40
1.0
 40
1.0
 40
1.0
 40
1.0
 10
42.8804334842
 20
42.1206856209
 30
0.0
 10
42.9209985454
 20
41.8402524456
 30
0.0
 10
42.9826364362
 20
41.2874172943
 30
0.0
 10
43.004766651
 20
40.7314815294
 30
0.0
 10
43.004766651
 20
40.4590503556
 30
0.0
  0
SPLINE
  5
52A
100
AcDbEntity
  8
0
100
AcDbSpline
 62
7
  6
BYLAYER
 70
0
 71
3
 72
9
 73
5
 74
0
 42
0.0000001
 43
0.0000001
 44
0.0000000001
 40
0.0
 40
0.0
 40
0.0
 40
0.0
 40
0.2569263573
 40
1.0
 40
1.0
 40
1.0
 40
1.0
 10
41.6490634343
 20
37.7498617299
 30
0.0
 10
41.6581110423
 20
37.6032387257
 30
0.0
 10
41.6849056044
 20
37.0320945455
 30
0.0
 10
41.6772295813
 20
36.459136623
 30
0.0
 10
41.6490634343
 20
36.0352066539
 30
0.0
  0
SPLINE
  5
52B
100
AcDbEntity
  8
0
100
AcDbSpline
 62
7
  6
BYLAYER
 70
0
 71
3
 72
14
 73
10
 74
0
 42
0.0000001
 43
0.0000001
 44
0.0000000001
 40
0.0
 40
0.0
 40
0.0
 40
0.0
 40
0.215135453
 40
0.3319932025
 40
0.4549434388
 40
0.5837145038
 40
0.7178720408
 40
0.8568880157
 40
1.0
 40
1.0
 40
1.0
 40
1.0
 10
43.1878001662
 20
59.8453828703
 30
0.0
 10
43.6382683707
 20
59.7741479431
 30
0.0
 10
44.3207998289
 20
59.5742013734
 30
0.0
 10
45.1987692934
 20
59.1738884799
 30
0.0
 10
45.8793756247
 20
58.7878453681
 30
0.0
 10
46.5569006181
 20
58.3281293545
 30
0.0
 10
47.2255817813
 20
57.7988330174
 30
0.0
 10
47.8791017565
 20
57.2048982347
 30
0.0
 10
48.2955034623
 20
56.7749506035
 30
0.0
 10
48.4999472631
 20
56.5507986492
 30
0.0
  0
SPLINE
  5
52C
100
AcDbEntity
  8
0
100
AcDbSpline
 62
7
  6
BYLAYER
 70
0
 71
3
 72
11
 73
7
 74
0
 42
0.0000001
 43
0.0000001
 44
0.0000000001
 40
0.0
 40
0.0
 40
0.0
 40
0.0
 40
0.2452158568
 40
0.4953634184
 40
0.7478481276
 40
1.0
 40
1.0
 40
1.0
 40
1.0
 10
48.7120780539
 20
56.6732716874
 30
0.0
 10
48.9870291489
 20
56.3718156146
 30
0.0
 10
49.5181798505
 20
55.7402781752
 30
0.0
 10
50.245836647
 20
54.7295389393
 30
0.0
 10
50.9037418815
 20
53.658524665
 30
0.0
 10
51.2906056056
 20
52.9123038066
 30
0.0
 10
51.4698060635
 20
52.5329467243
 30
0.0
  0
SPLINE
  5
52D
100
AcDbEntity
  8
0
100
AcDbSpline
 62
7
  6
BYLAYER
 70
0
 71
3
 72
9
 73
5
 74
0
 42
0.0000001
 43
0.0000001
 44
0.0000000001
 40
0.0
 40
0.0
 40
0.0
 40
0.0
 40
0.5226637797
 40
1.0
 40
1.0
 40
1.0
 40
1.0
 10
51.5896210131
 20
49.6387481466
 30
0.0
 10
51.5964389703
 20
49.699724348
 30
0.0
 10
51.6069291003
 20
49.8166920767
 30
0.0
 10
51.6112280977
 20
49.9340916874
 30
0.0
 10
51.6112280977
 20
49.9901268127
 30
0.0
  0
SPLINE
  5
52E
100
AcDbEntity
  8
0
100
AcDbSpline
 62
7
  6
BYLAYER
 70
0
 71
3
 72
11
 73
7
 74
0
 42
0.0000001
 43
0.0000001
 44
0.0000000001
 40
0.0
 40
0.0
 40
0.0
 40
0.0
 40
0.2293243257
 40
0.4729827984
 40
0.730334974
 40
1.0
 40
1.0
 40
1.0
 40
1.0
 10
34.2857387077
 20
54.2290362464
 30
0.0
 10
34.5740891452
 20
54.1238974621
 30
0.0
 10
35.1556840394
 20
53.8698738659
 30
0.0
 10
36.0063105543
 20
53.3852982924
 30
0.0
 10
36.8515653134
 20
52.7918039427
 30
0.0
 10
37.392891813
 20
52.3381969069
 30
0.0
 10
37.6604196955
 20
52.0959456468
 30
0.0
  0
SPLINE
  5
52F
100
AcDbEntity
  8
0
100
AcDbSpline
 62
7
  6
BYLAYER
 70
0
 71
3
 72
13
 73
9
 74
0
 42
0.0000001
 43
0.0000001
 44
0.0000000001
 40
0.0
 40
0.0
 40
0.0
 40
0.0
 40
0.1243725524
 40
0.2483992675
 40
0.4366611555
 40
0.6265689223
 40
0.8136726319
 40
1.0
 40
1.0
 40
1.0
 40
1.0
 10
50.5554344956
 20
46.790175535
 30
0.0
 10
50.5632044438
 20
46.7969310842
 30
0.0
 10
50.5784678173
 20
46.8107140829
 30
0.0
 10
50.6050517989
 20
46.8352121386
 30
0.0
 10
50.6367986451
 20
46.8620781567
 30
0.0
 10
50.6735809116
 20
46.8910264878
 30
0.0
 10
50.7083868004
 20
46.9220935745
 30
0.0
 10
50.7310962216
 20
46.9430708895
 30
0.0
 10
50.7427256283
 20
46.9532043428
 30
0.0
  0
SPLINE
  5
530
100
AcDbEntity
  8
0
100
AcDbSpline
 62
7
  6
BYLAYER
 70
0
 71
3
 72
11
 73
7
 74
0
 42
0.0000001
 43
0.0000001
 44
0.0000000001
 40
0.0
 40
0.0
 40
0.0
 40
0.0
 40
0.2765141305
 40
0.5317402144
 40
0.7704149733
 40
1.0
 40
1.0
 40
1.0
 40
1.0
 10
51.1659710286
 20
45.5234394428
 30
0.0
 10
51.1977825558
 20
45.5339978469
 30
0.0
 10
51.2606427351
 20
45.5497706198
 30
0.0
 10
51.3544604421
 20
45.5556018903
 30
0.0
 10
51.4418565725
 20
45.5420436807
 30
0.0
 10
51.4948435594
 20
45.5198409501
 30
0.0
 10
51.5189469211
 20
45.5059304143
 30
0.0
  0
SPLINE
  5
531
100
AcDbEntity
  8
0
100
AcDbSpline
 62
7
  6
BYLAYER
 70
0
 71
3
 72
9
 73
5
 74
0
 42
0.0000001
 43
0.0000001
 44
0.0000000001
 40
0.0
 40
0.0
 40
0.0
 40
0.0
 40
0.5037528362
 40
1.0
 40
1.0
 40
1.0
 40
1.0
 10
51.6112280781
 20
42.8789224424
 30
0.0
 10
51.4940393279
 20
42.7527152666
 30
0.0
 10
51.2431888539
 20
42.5183878342
 30
0.0
 10
50.9598365258
 20
42.3244179393
 30
0.0
 10
50.8129072758
 20
42.2395889814
 30
0.0
  0
SPLINE
  5
532
100
AcDbEntity
  8
0
100
AcDbSpline
 62
7
  6
BYLAYER
 70
0
 71
3
 72
9
 73
5
 74
0
 42
0.0000001
 43
0.0000001
 44
0.0000000001
 40
0.0
 40
0.0
 40
0.0
 40
0.0
 40
0.4999813733
 40
1.0
 40
1.0
 40
1.0
 40
1.0
 10
23.0649624171
 20
23.9920322046
 30
0.0
 10
21.9993838555
 20
24.9927379109
 30
0.0
 10
19.9709020973
 20
27.1066648474
 30
0.0
 10
18.1774588817
 20
29.4236444577
 30
0.0
 10
17.345800956
 20
30.6259477147
 30
0.0
  0
SPLINE
  5
533
100
AcDbEntity
  8
0
100
AcDbSpline
 62
7
  6
BYLAYER
 70
0
 71
3
 72
12
 73
8
 74
0
 42
0.0000001
 43
0.0000001
 44
0.0000000001
 40
0.0
 40
0.0
 40
0.0
 40
0.0
 40
0.2499884794
 40
0.3750181452
 40
0.5000473114
 40
0.7500320224
 40
1.0
 40
1.0
 40
1.0
 40
1.0
 10
17.345800956
 20
30.6259477147
 30
0.0
 10
16.6145080184
 20
31.6831562379
 30
0.0
 10
15.5915760332
 20
33.3223621561
 30
0.0
 10
14.3879512832
 20
35.5953669984
 30
0.0
 10
13.293027028
 20
37.9228997354
 30
0.0
 10
12.1314249059
 20
40.9246132957
 30
0.0
 10
11.4292576432
 20
43.4020912928
 30
0.0
 10
11.1356665257
 20
44.6534954825
 30
0.0
  0
SPLINE
  5
534
100
AcDbEntity
  8
0
100
AcDbSpline
 62
7
  6
BYLAYER
 70
0
 71
3
 72
15
 73
11
 74
0
 42
0.0000001
 43
0.0000001
 44
0.0000000001
 40
0.0
 40
0.0
 40
0.0
 40
0.0
 40
0.1540261373
 40
0.3044926145
 40
0.4476964763
 40
0.5809362426
 40
0.7022680445
 40
0.8111971206
 40
0.9091748303
 40
1.0
 40
1.0
 40
1.0
 40
1.0
 10
13.2871374461
 20
32.0345816439
 30
0.0
 10
13.3269458025
 20
31.9658336593
 30
0.0
 10
13.4131900901
 20
31.8341345673
 30
0.0
 10
13.5607635692
 20
31.6559001412
 30
0.0
 10
13.7210261966
 20
31.5040381066
 30
0.0
 10
13.8882503805
 20
31.3839247598
 30
0.0
 10
14.0568841507
 20
31.2998113009
 30
0.0
 10
14.2215607372
 20
31.2549789067
 30
0.0
 10
14.3769468768
 20
31.2519572293
 30
0.0
 10
14.4722640981
 20
31.28010288
 30
0.0
 10
14.5142875791
 20
31.3008020094
 30
0.0
  0
SPLINE
  5
535
100
AcDbEntity
  8
0
100
AcDbSpline
 62
7
  6
BYLAYER
 70
0
 71
3
 72
11
 73
7
 74
0
 42
0.0000001
 43
0.0000001
 44
0.0000000001
 40
0.0
 40
0.0
 40
0.0
 40
0.0
 40
0.2306956198
 40
0.4730962284
 40
0.7291959472
 40
1.0
 40
1.0
 40
1.0
 40
1.0
 10
42.4001679141
 20
36.4713216165
 30
0.0
 10
42.5358785471
 20
36.6496260162
 30
0.0
 10
42.7860446337
 20
37.0373932357
 30
0.0
 10
43.0845636607
 20
37.6818155206
 30
0.0
 10
43.3123235568
 20
38.3952762718
 30
0.0
 10
43.4130171152
 20
38.8981738369
 30
0.0
 10
43.4521013572
 20
39.1582868341
 30
0.0
  0
SPLINE
  5
536
100
AcDbEntity
  8
0
100
AcDbSpline
 62
7
  6
BYLAYER
 70
0
 71
3
 72
11
 73
7
 74
0
 42
0.0000001
 43
0.0000001
 44
0.0000000001
 40
0.0
 40
0.0
 40
0.0
 40
0.0
 40
0.5013852117
 40
0.7511992752
 40
0.8757472055
 40
1.0
 40
1.0
 40
1.0
 40
1.0
 10
12.6351385545
 20
33.1897583426
 30
0.0
 10
11.6572581042
 20
34.9671071478
 30
0.0
 10
10.3230929123
 20
37.7053443243
 30
0.0
 10
9.013932888
 20
40.9990580562
 30
0.0
 10
8.3398660379
 20
42.9007376682
 30
0.0
 10
8.0279028508
 20
43.8579562251
 30
0.0
 10
7.8781117009
 20
44.3378476465
 30
0.0
  0
SPLINE
  5
537
100
AcDbEntity
  8
0
100
AcDbSpline
 62
7
  6
BYLAYER
 70
0
 71
3
 72
15
 73
11
 74
0
 42
0.0000001
 43
0.0000001
 44
0.0000000001
 40
0.0
 40
0.0
 40
0.0
 40
0.0
 40
0.1466074908
 40
0.2865089671
 40
0.4195790426
 40
0.5460742729
 40
0.6664831111
 40
0.7815398111
 40
0.8922798836
 40
1.0
 40
1.0
 40
1.0
 40
1.0
 10
25.4581835147
 20
50.7832707522
 30
0.0
 10
25.1698337487
 20
50.949745801
 30
0.0
 10
24.5939231763
 20
51.254297949
 30
0.0
 10
23.7164847659
 20
51.6288893203
 30
0.0
 10
22.8516532786
 20
51.9076003867
 30
0.0
 10
22.0061222061
 20
52.0880868683
 30
0.0
 10
21.186152908
 20
52.1688194737
 30
0.0
 10
20.397928713
 20
52.1485288213
 30
0.0
 10
19.647911497
 20
52.0271143886
 30
0.0
 10
19.1726588561
 20
51.8773715765
 30
0.0
 10
18.9455695898
 20
51.7863819492
 30
0.0
  0
SPLINE
  5
538
100
AcDbEntity
  8
0
100
AcDbSpline
 62
7
  6
BYLAYER
 70
0
 71
3
 72
11
 73
7
 74
0
 42
0.0000001
 43
0.0000001
 44
0.0000000001
 40
0.0
 40
0.0
 40
0.0
 40
0.0
 40
0.2177417666
 40
0.4508587253
 40
0.7102580594
 40
1.0
 40
1.0
 40
1.0
 40
1.0
 10
14.4737180677
 20
31.4206264696
 30
0.0
 10
14.5133436882
 20
31.4435074887
 30
0.0
 10
14.5874802583
 20
31.5058589207
 30
0.0
 10
14.6663615812
 20
31.6349744597
 30
0.0
 10
14.7131459124
 20
31.7940927961
 30
0.0
 10
14.7222839287
 20
31.909891344
 30
0.0
 10
14.7222389119
 20
31.9707790944
 30
0.0
  0
SPLINE
  5
539
100
AcDbEntity
  8
0
100
AcDbSpline
 62
7
  6
BYLAYER
 70
0
 71
3
 72
10
 73
6
 74
0
 42
0.0000001
 43
0.0000001
 44
0.0000000001
 40
0.0
 40
0.0
 40
0.0
 40
0.0
 40
0.2537567792
 40
0.6297818144
 40
1.0
 40
1.0
 40
1.0
 40
1.0
 10
39.8180358933
 20
49.1619547347
 30
0.0
 10
39.7463740602
 20
49.2440982604
 30
0.0
 10
39.5439862526
 20
49.4272114889
 30
0.0
 10
39.165409427
 20
49.6375443828
 30
0.0
 10
38.8625432081
 20
49.7451667035
 30
0.0
 10
38.7101385819
 20
49.790621377
 30
0.0
  0
SPLINE
  5
53A
100
AcDbEntity
  8
0
100
AcDbSpline
 62
7
  6
BYLAYER
 70
0
 71
3
 72
11
 73
7
 74
0
 42
0.0000001
 43
0.0000001
 44
0.0000000001
 40
0.0
 40
0.0
 40
0.0
 40
0.0
 40
0.2435025871
 40
0.4899983393
 40
0.7414812122
 40
1.0
 40
1.0
 40
1.0
 40
1.0
 10
40.1096675847
 20
47.4798863916
 30
0.0
 10
40.1309525095
 20
47.5941399906
 30
0.0
 10
40.1652849197
 20
47.8258015767
 30
0.0
 10
40.18046883
 20
48.1802780374
 30
0.0
 10
40.1413503855
 20
48.5410342126
 30
0.0
 10
40.0614978312
 20
48.774355267
 30
0.0
 10
40.0056512707
 20
48.8843795278
 30
0.0
  0
SPLINE
  5
53B
100
AcDbEntity
  8
0
100
AcDbSpline
 62
7
  6
BYLAYER
 70
0
 71
3
 72
9
 73
5
 74
0
 42
0.0000001
 43
0.0000001
 44
0.0000000001
 40
0.0
 40
0.0
 40
0.0
 40
0.0
 40
0.4921511356
 40
1.0
 40
1.0
 40
1.0
 40
1.0
 10
10.8668600218
 20
45.3745361817
 30
0.0
 10
10.9264621407
 20
45.2629580384
 30
0.0
 10
11.0313305113
 20
45.0273336854
 30
0.0
 10
11.1056445397
 20
44.7805303813
 30
0.0
 10
11.1356665257
 20
44.6534954825
 30
0.0
  0
SPLINE
  5
53C
100
AcDbEntity
  8
0
100
AcDbSpline
 62
7
  6
BYLAYER
 70
0
 71
3
 72
9
 73
5
 74
0
 42
0.0000001
 43
0.0000001
 44
0.0000000001
 40
0.0
 40
0.0
 40
0.0
 40
0.0
 40
0.2379108318
 40
1.0
 40
1.0
 40
1.0
 40
1.0
 10
10.6670894702
 20
45.7212907759
 30
0.0
 10
10.6837626898
 20
45.694284901
 30
0.0
 10
10.7526751725
 20
45.5800488502
 30
0.0
 10
10.8178919008
 20
45.4636317011
 30
0.0
 10
10.8668600218
 20
45.3745361817
 30
0.0
  0
SPLINE
  5
53D
100
AcDbEntity
  8
0
100
AcDbSpline
 62
7
  6
BYLAYER
 70
0
 71
3
 72
14
 73
10
 74
0
 42
0.0000001
 43
0.0000001
 44
0.0000000001
 40
0.0
 40
0.0
 40
0.0
 40
0.0
 40
0.1327053499
 40
0.2528598781
 40
0.3678567942
 40
0.4836083476
 40
0.6035043463
 40
0.729172589
 40
1.0
 40
1.0
 40
1.0
 40
1.0
 10
10.6983725742
 20
46.0764814798
 30
0.0
 10
10.6840762914
 20
46.0668373135
 30
0.0
 10
10.6587881411
 20
46.04509772
 30
0.0
 10
10.6326824047
 20
46.0042847496
 30
0.0
 10
10.6192589471
 20
45.9602101135
 30
0.0
 10
10.6158269962
 20
45.9144999441
 30
0.0
 10
10.6200880307
 20
45.8675802108
 30
0.0
 10
10.6344501742
 20
45.8019106046
 30
0.0
 10
10.6527531014
 20
45.7534325579
 30
0.0
 10
10.6670894702
 20
45.7212907759
 30
0.0
  0
SPLINE
  5
53E
100
AcDbEntity
  8
0
100
AcDbSpline
 62
7
  6
BYLAYER
 70
0
 71
3
 72
9
 73
5
 74
0
 42
0.0000001
 43
0.0000001
 44
0.0000000001
 40
0.0
 40
0.0
 40
0.0
 40
0.0
 40
0.4899313168
 40
1.0
 40
1.0
 40
1.0
 40
1.0
 10
9.1279167578
 20
45.0596470001
 30
0.0
 10
9.3988593566
 20
45.1622927866
 30
0.0
 10
9.9730560228
 20
45.3190377486
 30
0.0
 10
10.5652324054
 20
45.3714665869
 30
0.0
 10
10.8668600218
 20
45.3745361817
 30
0.0
  0
SPLINE
  5
53F
100
AcDbEntity
  8
0
100
AcDbSpline
 62
7
  6
BYLAYER
 70
0
 71
3
 72
9
 73
5
 74
0
 42
0.0000001
 43
0.0000001
 44
0.0000000001
 40
0.0
 40
0.0
 40
0.0
 40
0.0
 40
0.4996073666
 40
1.0
 40
1.0
 40
1.0
 40
1.0
 10
30.6156465779
 20
32.6118983214
 30
0.0
 10
30.9435507886
 20
32.1108113638
 30
0.0
 10
31.6657347177
 20
31.1492985289
 30
0.0
 10
32.5107604593
 20
30.2932918131
 30
0.0
 10
32.9603890655
 20
29.8963389015
 30
0.0
  0
SPLINE
  5
540
100
AcDbEntity
  8
0
100
AcDbSpline
 62
7
  6
BYLAYER
 70
0
 71
3
 72
11
 73
7
 74
0
 42
0.0000001
 43
0.0000001
 44
0.0000000001
 40
0.0
 40
0.0
 40
0.0
 40
0.0
 40
0.2268462695
 40
0.4685235141
 40
0.7261815279
 40
1.0
 40
1.0
 40
1.0
 40
1.0
 10
32.9607570216
 20
29.8960817661
 30
0.0
 10
33.1064195564
 20
30.1636698591
 30
0.0
 10
33.3624755292
 20
30.7415164147
 30
0.0
 10
33.6303165115
 20
31.6820156527
 30
0.0
 10
33.7906414506
 20
32.7102379718
 30
0.0
 10
33.8240557058
 20
33.4246783604
 30
0.0
 10
33.8240557058
 20
33.7924295893
 30
0.0
  0
SPLINE
  5
541
100
AcDbEntity
  8
0
100
AcDbSpline
 62
7
  6
BYLAYER
 70
0
 71
3
 72
30
 73
26
 74
0
 42
0.0000001
 43
0.0000001
 44
0.0000000001
 40
0.0
 40
0.0
 40
0.0
 40
0.0
 40
0.0213279179
 40
0.0428841239
 40
0.064885232
 40
0.0875254607
 40
0.1109704458
 40
0.135352419
 40
0.1607706149
 40
0.1872907786
 40
0.2149493603
 40
0.2437542636
 40
0.273690257
 40
0.3047193583
 40
0.3697939515
 40
0.4383773798
 40
0.5096494452
 40
0.5826589038
 40
0.6563754033
 40
0.7297374426
 40
0.8016991996
 40
0.8712771978
 40
0.9376022454
 40
0.9693388539
 40
1.0
 40
1.0
 40
1.0
 40
1.0
 10
32.5831465141
 20
26.8072397231
 30
0.0
 10
32.758215983
 20
26.9083260547
 30
0.0
 10
33.0976033597
 20
27.1343836032
 30
0.0
 10
33.5633984591
 20
27.5383131692
 30
0.0
 10
33.9846011885
 20
28.0054360006
 30
0.0
 10
34.3588571799
 20
28.5328736134
 30
0.0
 10
34.6842615013
 20
29.1175868664
 30
0.0
 10
34.9592439252
 20
29.7562558776
 30
0.0
 10
35.1824379917
 20
30.4453827406
 30
0.0
 10
35.3528326897
 20
31.1812218244
 30
0.0
 10
35.4695590288
 20
31.9598325623
 30
0.0
 10
35.53213084
 20
32.7770384747
 30
0.0
 10
35.5402050217
 20
33.6284925677
 30
0.0
 10
35.4773429362
 20
34.8221503027
 30
0.0
 10
35.2580353012
 20
36.3711512975
 30
0.0
 10
34.7899537819
 20
38.2593752691
 30
0.0
 10
34.122753034
 20
40.1664734162
 30
0.0
 10
33.2707042251
 20
42.0517249937
 30
0.0
 10
32.2519507624
 20
43.87502896
 30
0.0
 10
31.0882429924
 20
45.5974608311
 30
0.0
 10
29.8043435397
 20
47.1823435643
 30
0.0
 10
28.4276880306
 20
48.5957859408
 30
0.0
 10
27.2094435039
 20
49.6210472062
 30
0.0
 10
26.212595424
 20
50.3255355248
 30
0.0
 10
25.7098720643
 20
50.6379615876
 30
0.0
 10
25.4581835147
 20
50.7832707522
 30
0.0
  0
LINE
  5
542
100
AcDbEntity
  8
0
100
AcDbLine
 62
7
  6
BYLAYER
 10
9.2320908778
 20
45.7699347547
 11
15.7339494295
 21
49.80809859
  0
SPLINE
  5
543
100
AcDbEntity
  8
0
100
AcDbSpline
 62
7
  6
BYLAYER
 70
0
 71
3
 72
9
 73
5
 74
0
 42
0.0000001
 43
0.0000001
 44
0.0000000001
 40
0.0
 40
0.0
 40
0.0
 40
0.0
 40
0.2465856733
 40
1.0
 40
1.0
 40
1.0
 40
1.0
 10
20.7293126847
 20
50.3438507644
 30
0.0
 10
20.7806693415
 20
50.3486744674
 30
0.0
 10
20.9892338147
 20
50.3650204886
 30
0.0
 10
21.1987648147
 20
50.3686327464
 30
0.0
 10
21.3563205789
 20
50.3646926588
 30
0.0
  0
SPLINE
  5
544
100
AcDbEntity
  8
0
100
AcDbSpline
 62
7
  6
BYLAYER
 70
0
 71
3
 72
12
 73
8
 74
0
 42
0.0000001
 43
0.0000001
 44
0.0000000001
 40
0.0
 40
0.0
 40
0.0
 40
0.0
 40
0.2509259281
 40
0.5014751457
 40
0.7512784427
 40
0.8757997342
 40
1.0
 40
1.0
 40
1.0
 40
1.0
 10
14.4737008274
 20
32.8062670965
 30
0.0
 10
13.9134586648
 20
33.7766033167
 30
0.0
 10
12.8473811657
 20
35.7473080629
 30
0.0
 10
11.4143940259
 20
38.782241111
 30
0.0
 10
10.3632643603
 20
41.3686262748
 30
0.0
 10
9.611476413
 20
43.4641304064
 30
0.0
 10
9.2659499672
 20
44.5198173718
 30
0.0
 10
9.1007458186
 20
45.0492300728
 30
0.0
  0
SPLINE
  5
545
100
AcDbEntity
  8
0
100
AcDbSpline
 62
7
  6
BYLAYER
 70
0
 71
3
 72
10
 73
6
 74
0
 42
0.0000001
 43
0.0000001
 44
0.0000000001
 40
0.0
 40
0.0
 40
0.0
 40
0.0
 40
0.2289777867
 40
0.4751455226
 40
1.0
 40
1.0
 40
1.0
 40
1.0
 10
14.7222389119
 20
31.9707790944
 30
0.0
 10
14.7221933567
 20
32.0323949805
 30
0.0
 10
14.711703216
 20
32.1603719557
 30
0.0
 10
14.6548141556
 20
32.423861253
 30
0.0
 10
14.5752298989
 20
32.6178911075
 30
0.0
 10
14.5089651191
 20
32.7426145618
 30
0.0
  0
SPLINE
  5
546
100
AcDbEntity
  8
0
100
AcDbSpline
 62
7
  6
BYLAYER
 70
0
 71
3
 72
9
 73
5
 74
0
 42
0.0000001
 43
0.0000001
 44
0.0000000001
 40
0.0
 40
0.0
 40
0.0
 40
0.0
 40
0.5003931479
 40
1.0
 40
1.0
 40
1.0
 40
1.0
 10
21.1966534688
 20
50.2719852791
 30
0.0
 10
21.3156391638
 20
49.683970002
 30
0.0
 10
21.6345954966
 20
48.5238808625
 30
0.0
 10
22.1062533174
 20
47.4173912554
 30
0.0
 10
22.3763256171
 20
46.882741576
 30
0.0
  0
SPLINE
  5
547
100
AcDbEntity
  8
0
100
AcDbSpline
 62
7
  6
BYLAYER
 70
0
 71
3
 72
9
 73
5
 74
0
 42
0.0000001
 43
0.0000001
 44
0.0000000001
 40
0.0
 40
0.0
 40
0.0
 40
0.0
 40
0.2475034173
 40
1.0
 40
1.0
 40
1.0
 40
1.0
 10
9.1860167473
 20
45.7413189664
 30
0.0
 10
9.1770281036
 20
45.7355192397
 30
0.0
 10
9.1418733439
 20
45.7103151658
 30
0.0
 10
9.1117090074
 20
45.6782812349
 30
0.0
 10
9.0928016502
 20
45.6518181668
 30
0.0
  0
SPLINE
  5
548
100
AcDbEntity
  8
0
100
AcDbSpline
 62
7
  6
BYLAYER
 70
0
 71
3
 72
9
 73
5
 74
0
 42
0.0000001
 43
0.0000001
 44
0.0000000001
 40
0.0
 40
0.0
 40
0.0
 40
0.0
 40
0.2450935977
 40
1.0
 40
1.0
 40
1.0
 40
1.0
 10
9.0928016502
 20
45.6518181668
 30
0.0
 10
9.0863456635
 20
45.6427822548
 30
0.0
 10
9.0617024588
 20
45.6047165991
 30
0.0
 10
9.0440234121
 20
45.5622594993
 30
0.0
 10
9.0347337131
 20
45.5293400313
 30
0.0
  0
SPLINE
  5
549
100
AcDbEntity
  8
0
100
AcDbSpline
 62
7
  6
BYLAYER
 70
0
 71
3
 72
9
 73
5
 74
0
 42
0.0000001
 43
0.0000001
 44
0.0000000001
 40
0.0
 40
0.0
 40
0.0
 40
0.0
 40
0.2452238869
 40
1.0
 40
1.0
 40
1.0
 40
1.0
 10
9.0347337131
 20
45.5293400313
 30
0.0
 10
9.0318344427
 20
45.5190660236
 30
0.0
 10
9.0215738561
 20
45.4767374864
 30
0.0
 10
9.017389578
 20
45.4329918205
 30
0.0
 10
9.0173932696
 20
45.4001343972
 30
0.0
  0
SPLINE
  5
54A
100
AcDbEntity
  8
0
100
AcDbSpline
 62
7
  6
BYLAYER
 70
0
 71
3
 72
9
 73
5
 74
0
 42
0.0000001
 43
0.0000001
 44
0.0000000001
 40
0.0
 40
0.0
 40
0.0
 40
0.0
 40
0.2600332569
 40
1.0
 40
1.0
 40
1.0
 40
1.0
 10
43.0221490269
 20
39.4065143121
 30
0.0
 10
43.0034118376
 20
39.2893322359
 30
0.0
 10
42.9207379522
 20
38.8405327596
 30
0.0
 10
42.7940474467
 20
38.3992161474
 30
0.0
 10
42.6715745453
 20
38.0845109927
 30
0.0
  0
SPLINE
  5
54B
100
AcDbEntity
  8
0
100
AcDbSpline
 62
7
  6
BYLAYER
 70
0
 71
3
 72
15
 73
11
 74
0
 42
0.0000001
 43
0.0000001
 44
0.0000000001
 40
0.0
 40
0.0
 40
0.0
 40
0.0
 40
0.1214486069
 40
0.2471682263
 40
0.3755787184
 40
0.5050363353
 40
0.6338306024
 40
0.7602780637
 40
0.8828147347
 40
1.0
 40
1.0
 40
1.0
 40
1.0
 10
37.7311300792
 20
52.1367700622
 30
0.0
 10
38.0735238488
 20
51.8267264086
 30
0.0
 10
38.7396765749
 20
51.1611769487
 30
0.0
 10
39.6582109015
 20
50.0650700131
 30
0.0
 10
40.4994911518
 20
48.871101697
 30
0.0
 10
41.2470469403
 20
47.6028153213
 30
0.0
 10
41.8862340247
 20
46.2848745524
 30
0.0
 10
42.4046890172
 20
44.942973812
 30
0.0
 10
42.792125401
 20
43.6034565643
 30
0.0
 10
42.9625310241
 20
42.7059621712
 30
0.0
 10
43.0221490269
 20
42.2642727721
 30
0.0
  0
SPLINE
  5
54C
100
AcDbEntity
  8
0
100
AcDbSpline
 62
7
  6
BYLAYER
 70
0
 71
3
 72
15
 73
11
 74
0
 42
0.0000001
 43
0.0000001
 44
0.0000000001
 40
0.0
 40
0.0
 40
0.0
 40
0.0
 40
0.1160434479
 40
0.2369634246
 40
0.3617039405
 40
0.4891140549
 40
0.6179403491
 40
0.7468849316
 40
0.8746659588
 40
1.0
 40
1.0
 40
1.0
 40
1.0
 10
43.4521013572
 20
42.016045294
 30
0.0
 10
43.4001218255
 20
42.4219983103
 30
0.0
 10
43.2549088572
 20
43.2463230394
 30
0.0
 10
42.9290287337
 20
44.4810021842
 30
0.0
 10
42.4948232817
 20
45.7244142412
 30
0.0
 10
41.9588996117
 20
46.9578373649
 30
0.0
 10
41.3292070323
 20
48.1628428309
 30
0.0
 10
40.6152092972
 20
49.3214472849
 30
0.0
 10
39.827626425
 20
50.4161407842
 30
0.0
 10
39.2539123519
 20
51.1013797411
 30
0.0
 10
38.9571209897
 20
51.4289598928
 30
0.0
  0
SPLINE
  5
54D
100
AcDbEntity
  8
0
100
AcDbSpline
 62
7
  6
BYLAYER
 70
0
 71
3
 72
11
 73
7
 74
0
 42
0.0000001
 43
0.0000001
 44
0.0000000001
 40
0.0
 40
0.0
 40
0.0
 40
0.0
 40
0.2738196976
 40
0.5314780067
 40
0.7731544928
 40
1.0
 40
1.0
 40
1.0
 40
1.0
 10
25.0028620521
 20
49.0711003654
 30
0.0
 10
24.6843672656
 20
49.2549792562
 30
0.0
 10
24.0489113602
 20
49.5832651233
 30
0.0
 10
23.0782436431
 20
49.9585222399
 30
0.0
 10
22.1297927655
 20
50.1967947383
 30
0.0
 10
21.5013146332
 20
50.2639439837
 30
0.0
 10
21.1967366717
 20
50.2715748401
 30
0.0
  0
SPLINE
  5
54E
100
AcDbEntity
  8
0
100
AcDbSpline
 62
7
  6
BYLAYER
 70
0
 71
3
 72
23
 73
19
 74
0
 42
0.0000001
 43
0.0000001
 44
0.0000000001
 40
0.0
 40
0.0
 40
0.0
 40
0.0
 40
0.0558276801
 40
0.1141834556
 40
0.1747846237
 40
0.237353345
 40
0.3015496693
 40
0.3669937068
 40
0.4332835618
 40
0.5000010794
 40
0.5667185593
 40
0.6330083018
 40
0.6984521544
 40
0.7626482249
 40
0.825216629
 40
0.8858174233
 40
0.9441727775
 40
1.0
 40
1.0
 40
1.0
 40
1.0
 10
33.8240557058
 20
33.7924295893
 30
0.0
 10
33.8240557058
 20
34.1336272399
 30
0.0
 10
33.7937076625
 20
34.83172574
 30
0.0
 10
33.6652086965
 20
35.89309978
 30
0.0
 10
33.4537073528
 20
36.9830749443
 30
0.0
 10
33.1613477868
 20
38.0910464056
 30
0.0
 10
32.7909894768
 20
39.206617641
 30
0.0
 10
32.346061243
 20
40.319085993
 30
0.0
 10
31.8308737212
 20
41.4178231537
 30
0.0
 10
31.2503802637
 20
42.4923419562
 30
0.0
 10
30.6100617894
 20
43.5323197861
 30
0.0
 10
29.9161175291
 20
44.5278487565
 30
0.0
 10
29.1751529945
 20
45.4693956046
 30
0.0
 10
28.3942172777
 20
46.3479131192
 30
0.0
 10
27.580864757
 20
47.1550806028
 30
0.0
 10
26.7426693499
 20
47.8832234995
 30
0.0
 10
25.8877430251
 20
48.5251826004
 30
0.0
 10
25.2983471345
 20
48.9005058329
 30
0.0
 10
25.0028620521
 20
49.0711003654
 30
0.0
  0
SPLINE
  5
54F
100
AcDbEntity
  8
0
100
AcDbSpline
 62
7
  6
BYLAYER
 70
0
 71
3
 72
22
 73
18
 74
0
 42
0.0000001
 43
0.0000001
 44
0.0000000001
 40
0.0
 40
0.0
 40
0.0
 40
0.0
 40
0.1198831823
 40
0.1841914588
 40
0.2507221899
 40
0.3188894177
 40
0.3880568732
 40
0.4575587359
 40
0.5267194165
 40
0.5948727663
 40
0.6613831705
 40
0.7256671375
 40
0.7872146954
 40
0.8456154936
 40
0.9005903645
 40
0.9520237743
 40
1.0
 40
1.0
 40
1.0
 40
1.0
 10
31.0339500671
 20
34.9950213279
 30
0.0
 10
31.0333127676
 20
35.6224102316
 30
0.0
 10
30.929135613
 20
36.5880611497
 30
0.0
 10
30.6281850054
 20
37.8658060388
 30
0.0
 10
30.3108585769
 20
38.8589870742
 30
0.0
 10
29.9115927329
 20
39.8493097024
 30
0.0
 10
29.436225631
 20
40.8227923789
 30
0.0
 10
28.8916390196
 20
41.7652881339
 30
0.0
 10
28.285691186
 20
42.6631814
 30
0.0
 10
27.6271324928
 20
43.5034763282
 30
0.0
 10
26.9254775594
 20
44.2740469742
 30
0.0
 10
26.1908371487
 20
44.9637921512
 30
0.0
 10
25.4337227007
 20
45.5627956647
 30
0.0
 10
24.6648456999
 20
46.0623028098
 30
0.0
 10
23.8951307817
 20
46.4554494218
 30
0.0
 10
23.135194219
 20
46.7357506887
 30
0.0
 10
22.6250112028
 20
46.8481781312
 30
0.0
 10
22.3763257579
 20
46.8827412932
 30
0.0
  0
SPLINE
  5
550
100
AcDbEntity
  8
0
100
AcDbSpline
 62
7
  6
BYLAYER
 70
0
 71
3
 72
13
 73
9
 74
0
 42
0.0000001
 43
0.0000001
 44
0.0000000001
 40
0.0
 40
0.0
 40
0.0
 40
0.0
 40
0.1234831078
 40
0.2462070296
 40
0.4353950527
 40
0.6285230692
 40
0.8152507544
 40
1.0
 40
1.0
 40
1.0
 40
1.0
 10
50.7427256675
 20
44.4086288466
 30
0.0
 10
50.7350165942
 20
44.405826984
 30
0.0
 10
50.7197476982
 20
44.3999636829
 30
0.0
 10
50.6928501416
 20
44.3893314776
 30
0.0
 10
50.661160599
 20
44.3782844074
 30
0.0
 10
50.6250232866
 20
44.3671678529
 30
0.0
 10
50.5898985696
 20
44.3539799937
 30
0.0
 10
50.5669730428
 20
44.344847559
 30
0.0
 10
50.5554345034
 20
44.3406682578
 30
0.0
  0
SPLINE
  5
551
100
AcDbEntity
  8
0
100
AcDbSpline
 62
7
  6
BYLAYER
 70
0
 71
3
 72
15
 73
11
 74
0
 42
0.0000001
 43
0.0000001
 44
0.0000000001
 40
0.0
 40
0.0
 40
0.0
 40
0.0
 40
0.0765157778
 40
0.1566614424
 40
0.2456573795
 40
0.3489501506
 40
0.471717379
 40
0.6186482444
 40
0.7937429188
 40
1.0
 40
1.0
 40
1.0
 40
1.0
 10
51.6112280781
 20
42.8789224424
 30
0.0
 10
51.563476465
 20
42.8839433481
 30
0.0
 10
51.4664495022
 20
42.9057910465
 30
0.0
 10
51.3280039293
 20
42.9770763398
 30
0.0
 10
51.1981291517
 20
43.0905056325
 30
0.0
 10
51.0785844524
 20
43.2493999727
 30
0.0
 10
50.9706320116
 20
43.4580380407
 30
0.0
 10
50.8759544517
 20
43.7212772719
 30
0.0
 10
50.7967308259
 20
44.0436499541
 30
0.0
 10
50.7590911253
 20
44.2802365261
 30
0.0
 10
50.7427245753
 20
44.4086271276
 30
0.0
  0
SPLINE
  5
552
100
AcDbEntity
  8
0
100
AcDbSpline
 62
7
  6
BYLAYER
 70
0
 71
3
 72
10
 73
6
 74
0
 42
0.0000001
 43
0.0000001
 44
0.0000000001
 40
0.0
 40
0.0
 40
0.0
 40
0.0
 40
0.2310683024
 40
0.6009729174
 40
1.0
 40
1.0
 40
1.0
 40
1.0
 10
30.6156461848
 20
32.6118989146
 30
0.0
 10
30.6862667197
 20
32.7854591322
 30
0.0
 10
30.8430273193
 20
33.2481149616
 30
0.0
 10
30.998669493
 20
34.0470322723
 30
0.0
 10
31.0338267967
 20
34.671442638
 30
0.0
 10
31.0339500671
 20
34.9950213279
 30
0.0
  0
SPLINE
  5
553
100
AcDbEntity
  8
0
100
AcDbSpline
 62
7
  6
BYLAYER
 70
0
 71
3
 72
9
 73
5
 74
0
 42
0.0000001
 43
0.0000001
 44
0.0000000001
 40
0.0
 40
0.0
 40
0.0
 40
0.0
 40
0.507720681
 40
1.0
 40
1.0
 40
1.0
 40
1.0
 10
51.0446614003
 20
49.3438868612
 30
0.0
 10
51.1372636569
 20
49.9114118102
 30
0.0
 10
51.3437758492
 20
51.0253325063
 30
0.0
 10
51.5872792744
 20
52.1315932442
 30
0.0
 10
51.7147540581
 20
52.6743666708
 30
0.0
  0
SPLINE
  5
554
100
AcDbEntity
  8
0
100
AcDbSpline
 62
7
  6
BYLAYER
 70
0
 71
3
 72
22
 73
18
 74
0
 42
0.0000001
 43
0.0000001
 44
0.0000000001
 40
0.0
 40
0.0
 40
0.0
 40
0.0
 40
0.1283917487
 40
0.2564094395
 40
0.3839628081
 40
0.5109176507
 40
0.574106885
 40
0.6370522704
 40
0.6996951097
 40
0.7619474104
 40
0.8236661964
 40
0.884588893
 40
0.9145933646
 40
0.9441189687
 40
0.9728671979
 40
0.986741836
 40
1.0
 40
1.0
 40
1.0
 40
1.0
 10
10.6983725742
 20
46.0764814798
 30
0.0
 10
11.051693128
 20
46.3022370386
 30
0.0
 10
11.7570567601
 20
46.7534788504
 30
0.0
 10
12.8125515432
 20
47.4303801234
 30
0.0
 10
13.863113984
 20
48.1062778633
 30
0.0
 10
14.7346213269
 20
48.6691977633
 30
0.0
 10
15.428075819
 20
49.1189070186
 30
0.0
 10
15.9448271333
 20
49.4550977427
 30
0.0
 10
16.4584123261
 20
49.790542695
 30
0.0
 10
16.9678796481
 20
50.1249649206
 30
0.0
 10
17.4716218276
 20
50.45786752
 30
0.0
 10
17.8862768504
 20
50.734561138
 30
0.0
 10
18.2122204439
 20
50.9547755913
 30
0.0
 10
18.4501863763
 20
51.1175113635
 30
0.0
 10
18.6435363734
 20
51.2521732168
 30
0.0
 10
18.791880049
 20
51.3584605158
 30
0.0
 10
18.8631592133
 20
51.4111121832
 30
0.0
 10
18.8975660238
 20
51.4373951435
 30
0.0
  0
SPLINE
  5
555
100
AcDbEntity
  8
0
100
AcDbSpline
 62
7
  6
BYLAYER
 70
0
 71
3
 72
15
 73
11
 74
0
 42
0.0000001
 43
0.0000001
 44
0.0000000001
 40
0.0
 40
0.0
 40
0.0
 40
0.0
 40
0.3085849967
 40
0.4558705731
 40
0.5965648294
 40
0.7281535789
 40
0.8462181434
 40
0.9419985687
 40
0.9765650023
 40
1.0
 40
1.0
 40
1.0
 40
1.0
 10
18.8975660238
 20
51.4373951435
 30
0.0
 10
18.911897634
 20
51.448342893
 30
0.0
 10
18.9329582587
 20
51.4646630816
 30
0.0
 10
18.9601176702
 20
51.4865300645
 30
0.0
 10
18.9789510035
 20
51.5022260058
 30
0.0
 10
18.9961094249
 20
51.5172970713
 30
0.0
 10
19.0107031107
 20
51.5311642665
 30
0.0
 10
19.0204442095
 20
51.5421896715
 30
0.0
 10
19.0251312155
 20
51.5496757979
 30
0.0
 10
19.0255998382
 20
51.5535606936
 30
0.0
 10
19.0248396743
 20
51.5546999865
 30
0.0
  0
SPLINE
  5
556
100
AcDbEntity
  8
0
100
AcDbSpline
 62
7
  6
BYLAYER
 70
0
 71
3
 72
10
 73
6
 74
0
 42
0.0000001
 43
0.0000001
 44
0.0000000001
 40
0.0
 40
0.0
 40
0.0
 40
0.0
 40
0.3349655917
 40
0.6183325216
 40
1.0
 40
1.0
 40
1.0
 40
1.0
 10
19.0248396743
 20
51.5546999865
 30
0.0
 10
19.0240799101
 20
51.5558386807
 30
0.0
 10
19.0213015098
 20
51.5567242576
 30
0.0
 10
19.0173069211
 20
51.556644092
 30
0.0
 10
19.0145801217
 20
51.5562808663
 30
0.0
 10
19.0130451834
 20
51.5560037814
 30
0.0
  0
SPLINE
  5
557
100
AcDbEntity
  8
0
100
AcDbSpline
 62
7
  6
BYLAYER
 70
0
 71
3
 72
9
 73
5
 74
0
 42
0.0000001
 43
0.0000001
 44
0.0000000001
 40
0.0
 40
0.0
 40
0.0
 40
0.0
 40
0.4956330103
 40
1.0
 40
1.0
 40
1.0
 40
1.0
 10
17.774244742
 20
51.1384814907
 30
0.0
 10
17.9681897538
 20
51.2345928037
 30
0.0
 10
18.373305458
 20
51.401727481
 30
0.0
 10
18.7969430131
 20
51.5133779564
 30
0.0
 10
19.0130467069
 20
51.556004661
 30
0.0
  0
SPLINE
  5
558
100
AcDbEntity
  8
0
100
AcDbSpline
 62
7
  6
BYLAYER
 70
0
 71
3
 72
9
 73
5
 74
0
 42
0.0000001
 43
0.0000001
 44
0.0000000001
 40
0.0
 40
0.0
 40
0.0
 40
0.0
 40
0.5062870871
 40
1.0
 40
1.0
 40
1.0
 40
1.0
 10
6.9093088341
 20
43.7361840502
 30
0.0
 10
7.0378371233
 20
43.9125498906
 30
0.0
 10
7.3130715988
 20
44.2459388441
 30
0.0
 10
7.6295732379
 20
44.5406995309
 30
0.0
 10
7.7948648739
 20
44.6747401067
 30
0.0
  0
SPLINE
  5
559
100
AcDbEntity
  8
0
100
AcDbSpline
 62
7
  6
BYLAYER
 70
0
 71
3
 72
9
 73
5
 74
0
 42
0.0000001
 43
0.0000001
 44
0.0000000001
 40
0.0
 40
0.0
 40
0.0
 40
0.0
 40
0.510074586
 40
1.0
 40
1.0
 40
1.0
 40
1.0
 10
6.7359410411
 20
42.9888956193
 30
0.0
 10
6.8893821003
 20
43.2486429276
 30
0.0
 10
7.230816725
 20
43.7353968424
 30
0.0
 10
7.6536238391
 20
44.1544325675
 30
0.0
 10
7.8779758354
 20
44.3378189741
 30
0.0
  0
SPLINE
  5
55A
100
AcDbEntity
  8
0
100
AcDbSpline
 62
7
  6
BYLAYER
 70
0
 71
3
 72
9
 73
5
 74
0
 42
0.0000001
 43
0.0000001
 44
0.0000000001
 40
0.0
 40
0.0
 40
0.0
 40
0.0
 40
0.5076366751
 40
1.0
 40
1.0
 40
1.0
 40
1.0
 10
10.6983985221
 20
46.0764986767
 30
0.0
 10
10.4410891839
 20
46.0582469423
 30
0.0
 10
9.9358899159
 20
45.9876261939
 30
0.0
 10
9.4466376891
 20
45.842063452
 30
0.0
 10
9.2132416213
 20
45.7519321114
 30
0.0
  0
SPLINE
  5
55B
100
AcDbEntity
  8
0
100
AcDbSpline
 62
7
  6
BYLAYER
 70
0
 71
3
 72
9
 73
5
 74
0
 42
0.0000001
 43
0.0000001
 44
0.0000000001
 40
0.0
 40
0.0
 40
0.0
 40
0.0
 40
0.4911781974
 40
1.0
 40
1.0
 40
1.0
 40
1.0
 10
9.0448055971
 20
45.3965643549
 30
0.0
 10
9.2985857715
 20
45.4938380964
 30
0.0
 10
9.8335166852
 20
45.6467527386
 30
0.0
 10
10.3857732852
 20
45.7098981399
 30
0.0
 10
10.6670894702
 20
45.7212907759
 30
0.0
  0
LINE
  5
55C
100
AcDbEntity
  8
0
100
AcDbLine
 62
7
  6
BYLAYER
 10
21.3563205789
 20
50.3646926588
 11
21.2868878569
 21
50.5142708665
  0
SPLINE
  5
55D
100
AcDbEntity
  8
0
100
AcDbSpline
 62
7
  6
BYLAYER
 70
0
 71
3
 72
9
 73
5
 74
0
 42
0.0000001
 43
0.0000001
 44
0.0000000001
 40
0.0
 40
0.0
 40
0.0
 40
0.0
 40
0.5045501081
 40
1.0
 40
1.0
 40
1.0
 40
1.0
 10
19.8477942189
 20
52.0355551406
 30
0.0
 10
19.5816856483
 20
51.9829566434
 30
0.0
 10
19.0613647644
 20
51.8376674589
 30
0.0
 10
18.5719333495
 20
51.6083658897
 30
0.0
 10
18.3411428549
 20
51.4753778375
 30
0.0
  0
SPLINE
  5
55E
100
AcDbEntity
  8
0
100
AcDbSpline
 62
7
  6
BYLAYER
 70
0
 71
3
 72
19
 73
15
 74
0
 42
0.0000001
 43
0.0000001
 44
0.0000000001
 40
0.0
 40
0.0
 40
0.0
 40
0.0
 40
0.0469226758
 40
0.0944555648
 40
0.1434884925
 40
0.1946137109
 40
0.2481093291
 40
0.3041717052
 40
0.4244461225
 40
0.555728125
 40
0.696711098
 40
0.7703617028
 40
0.8457557305
 40
1.0
 40
1.0
 40
1.0
 40
1.0
 10
19.8424789292
 20
52.0348747237
 30
0.0
 10
19.8737150764
 20
52.0410101053
 30
0.0
 10
19.9376948006
 20
52.0483335576
 30
0.0
 10
20.0353025258
 20
52.0442594794
 30
0.0
 10
20.1340853459
 20
52.0256712755
 30
0.0
 10
20.2333818335
 20
51.9930668665
 30
0.0
 10
20.3323109681
 20
51.9466804197
 30
0.0
 10
20.4653387157
 20
51.8648068797
 30
0.0
 10
20.6250824213
 20
51.7285180518
 30
0.0
 10
20.7979680594
 20
51.5247945118
 30
0.0
 10
20.9241895473
 20
51.3261499689
 30
0.0
 10
21.0152411058
 20
51.1516471858
 30
0.0
 10
21.1007948477
 20
50.9644516014
 30
0.0
 10
21.1544067733
 20
50.817750027
 30
0.0
 10
21.1847609331
 20
50.7176078206
 30
0.0
  0
SPLINE
  5
55F
100
AcDbEntity
  8
0
100
AcDbSpline
 62
7
  6
BYLAYER
 70
0
 71
3
 72
18
 73
14
 74
0
 42
0.0000001
 43
0.0000001
 44
0.0000000001
 40
0.0
 40
0.0
 40
0.0
 40
0.0
 40
0.1535793105
 40
0.2286166283
 40
0.3020275769
 40
0.442796841
 40
0.5739573542
 40
0.6943317117
 40
0.7504355292
 40
0.803908032
 40
0.8551357079
 40
0.9046748583
 40
1.0
 40
1.0
 40
1.0
 40
1.0
 10
21.1847609331
 20
50.7176078206
 30
0.0
 10
21.1556688752
 20
50.8179725599
 30
0.0
 10
21.1054226612
 20
50.9655719981
 30
0.0
 10
21.0228312235
 20
51.1538637924
 30
0.0
 10
20.9326271363
 20
51.3288743443
 30
0.0
 10
20.8057924404
 20
51.5275064462
 30
0.0
 10
20.6323466211
 20
51.7316138433
 30
0.0
 10
20.4712842328
 20
51.8673537292
 30
0.0
 10
20.3375682547
 20
51.9490967317
 30
0.0
 10
20.2382830113
 20
51.995642433
 30
0.0
 10
20.1381495422
 20
52.0281715563
 30
0.0
 10
20.0064832007
 20
52.0514795576
 30
0.0
 10
19.9061216628
 20
52.0473798702
 30
0.0
 10
19.8424789292
 20
52.0348747237
 30
0.0
  0
SPLINE
  5
560
100
AcDbEntity
  8
0
100
AcDbSpline
 62
7
  6
BYLAYER
 70
0
 71
3
 72
11
 73
7
 74
0
 42
0.0000001
 43
0.0000001
 44
0.0000000001
 40
0.0
 40
0.0
 40
0.0
 40
0.0
 40
0.2741945697
 40
0.531951699
 40
0.7734778329
 40
1.0
 40
1.0
 40
1.0
 40
1.0
 10
25.1654961852
 20
49.4793503985
 30
0.0
 10
24.8323367727
 20
49.6716957236
 30
0.0
 10
24.1676619226
 20
50.0144991632
 30
0.0
 10
23.1522030254
 20
50.4041441617
 30
0.0
 10
22.1606486035
 20
50.648137183
 30
0.0
 10
21.5041406987
 20
50.7131048478
 30
0.0
 10
21.1863659716
 20
50.7179990952
 30
0.0
  0
SPLINE
  5
561
100
AcDbEntity
  8
0
100
AcDbSpline
 62
7
  6
BYLAYER
 70
0
 71
3
 72
23
 73
19
 74
0
 42
0.0000001
 43
0.0000001
 44
0.0000000001
 40
0.0
 40
0.0
 40
0.0
 40
0.0
 40
0.0462546007
 40
0.0959626912
 40
0.1493800648
 40
0.2065236828
 40
0.2671793257
 40
0.3309664318
 40
0.3973698977
 40
0.4657755655
 40
0.5354993602
 40
0.6058134145
 40
0.6759704718
 40
0.7452277903
 40
0.8128742789
 40
0.8782467378
 40
0.9407835288
 40
1.0
 40
1.0
 40
1.0
 40
1.0
 10
33.3421194267
 20
29.6637668053
 30
0.0
 10
33.515473713
 20
29.9750119922
 30
0.0
 10
33.8151595808
 20
30.6552758945
 30
0.0
 10
34.1096657773
 20
31.7713885713
 30
0.0
 10
34.2612366535
 20
32.9998432695
 30
0.0
 10
34.2683552109
 20
34.3212043045
 30
0.0
 10
34.1313327955
 20
35.7153397012
 30
0.0
 10
33.852547027
 20
37.160552395
 30
0.0
 10
33.4364523429
 20
38.6342760173
 30
0.0
 10
32.8896406062
 20
40.113355185
 30
0.0
 10
32.2207478403
 20
41.5744815565
 30
0.0
 10
31.4403349143
 20
42.9945820133
 30
0.0
 10
30.5607294407
 20
44.351202377
 30
0.0
 10
29.5958294454
 20
45.6229216041
 30
0.0
 10
28.5608716049
 20
46.7896039943
 30
0.0
 10
27.4720966464
 20
47.8330387505
 30
0.0
 10
26.3467043042
 20
48.7364958568
 30
0.0
 10
25.5604940353
 20
49.2513034426
 30
0.0
 10
25.1654961852
 20
49.4793503985
 30
0.0
  0
SPLINE
  5
562
100
AcDbEntity
  8
0
100
AcDbSpline
 62
7
  6
BYLAYER
 70
0
 71
3
 72
23
 73
19
 74
0
 42
0.0000001
 43
0.0000001
 44
0.0000000001
 40
0.0
 40
0.0
 40
0.0
 40
0.0
 40
0.0591542229
 40
0.1216158366
 40
0.1869045566
 40
0.2544638115
 40
0.3236362287
 40
0.3937167088
 40
0.4639684969
 40
0.5336498312
 40
0.6020375962
 40
0.6684513637
 40
0.7322790725
 40
0.7930056315
 40
0.8502475888
 40
0.9037843089
 40
0.9536218439
 40
1.0
 40
1.0
 40
1.0
 40
1.0
 10
25.1654961852
 20
49.1649966655
 30
0.0
 10
25.5473463552
 20
48.9445403544
 30
0.0
 10
26.3074136983
 20
48.4470596368
 30
0.0
 10
27.3956131249
 20
47.5743140378
 30
0.0
 10
28.4486443446
 20
46.5665805257
 30
0.0
 10
29.449981513
 20
45.4399095397
 30
0.0
 10
30.3840155071
 20
44.2117714907
 30
0.0
 10
31.2360941457
 20
42.9014832403
 30
0.0
 10
31.9928436962
 20
41.5295981776
 30
0.0
 10
32.642389447
 20
40.1176653296
 30
0.0
 10
33.1745434702
 20
38.6878346364
 30
0.0
 10
33.5809573125
 20
37.2624909308
 30
0.0
 10
33.8552367314
 20
35.863883788
 30
0.0
 10
33.993033117
 20
34.5137128277
 30
0.0
 10
33.9919865992
 20
33.2328596538
 30
0.0
 10
33.8517267321
 20
32.0407204679
 30
0.0
 10
33.5736362652
 20
30.9560267079
 30
0.0
 10
33.2886465539
 20
30.2935512389
 30
0.0
 10
33.1233662558
 20
29.9899323264
 30
0.0
  0
SPLINE
  5
563
100
AcDbEntity
  8
0
100
AcDbSpline
 62
7
  6
BYLAYER
 70
0
 71
3
 72
11
 73
7
 74
0
 42
0.0000001
 43
0.0000001
 44
0.0000000001
 40
0.0
 40
0.0
 40
0.0
 40
0.0
 40
0.2268460513
 40
0.4685236027
 40
0.72618129
 40
1.0
 40
1.0
 40
1.0
 40
1.0
 10
21.3594794818
 20
50.3654684392
 30
0.0
 10
21.6640498906
 20
50.3578369245
 30
0.0
 10
22.2925118992
 20
50.2906721753
 30
0.0
 10
23.2409341092
 20
50.0523931674
 30
0.0
 10
24.2115742409
 20
49.6771455069
 30
0.0
 10
24.847011187
 20
49.3488699052
 30
0.0
 10
25.1654961852
 20
49.1649966655
 30
0.0
  0
SPLINE
  5
564
100
AcDbEntity
  8
0
100
AcDbSpline
 62
7
  6
BYLAYER
 70
0
 71
3
 72
12
 73
8
 74
0
 42
0.0000001
 43
0.0000001
 44
0.0000000001
 40
0.0
 40
0.0
 40
0.0
 40
0.0
 40
0.2230764576
 40
0.3425275432
 40
0.4667515579
 40
0.7275332788
 40
1.0
 40
1.0
 40
1.0
 40
1.0
 10
33.9683439587
 20
28.5024355418
 30
0.0
 10
33.954681504
 20
28.6011537882
 30
0.0
 10
33.9195464653
 20
28.7513647821
 30
0.0
 10
33.8419170846
 20
28.9451538239
 30
0.0
 10
33.7407907889
 20
29.1467689432
 30
0.0
 10
33.5814967357
 20
29.3948365719
 30
0.0
 10
33.4249364354
 20
29.5753718293
 30
0.0
 10
33.3406105064
 20
29.663155255
 30
0.0
  0
SPLINE
  5
565
100
AcDbEntity
  8
0
100
AcDbSpline
 62
7
  6
BYLAYER
 70
0
 71
3
 72
12
 73
8
 74
0
 42
0.0000001
 43
0.0000001
 44
0.0000000001
 40
0.0
 40
0.0
 40
0.0
 40
0.0
 40
0.2735828653
 40
0.5350094462
 40
0.7787782724
 40
0.8922783692
 40
1.0
 40
1.0
 40
1.0
 40
1.0
 10
33.3406105064
 20
29.663155255
 30
0.0
 10
33.4240024357
 20
29.5742010009
 30
0.0
 10
33.5753908837
 20
29.3891470617
 30
0.0
 10
33.7644741194
 20
29.0969518487
 30
0.0
 10
33.8775588859
 20
28.8441426495
 30
0.0
 10
33.9408600632
 20
28.6466497902
 30
0.0
 10
33.9615301975
 20
28.5499590131
 30
0.0
 10
33.9683439587
 20
28.5024355418
 30
0.0
  0
SPLINE
  5
566
100
AcDbEntity
  8
0
100
AcDbSpline
 62
7
  6
BYLAYER
 70
0
 71
3
 72
11
 73
7
 74
0
 42
0.0000001
 43
0.0000001
 44
0.0000000001
 40
0.0
 40
0.0
 40
0.0
 40
0.0
 40
0.2292117352
 40
0.4681705478
 40
0.7237018274
 40
1.0
 40
1.0
 40
1.0
 40
1.0
 10
33.8119031057
 20
27.8419297658
 30
0.0
 10
33.8473313465
 20
27.8821038252
 30
0.0
 10
33.9086165171
 20
27.9744799356
 30
0.0
 10
33.9654982015
 20
28.1352578146
 30
0.0
 10
33.9877006839
 20
28.3152314505
 30
0.0
 10
33.979816595
 20
28.4399494054
 30
0.0
 10
33.9709940405
 20
28.503911484
 30
0.0
  0
SPLINE
  5
567
100
AcDbEntity
  8
0
100
AcDbSpline
 62
7
  6
BYLAYER
 70
0
 71
3
 72
9
 73
5
 74
0
 42
0.0000001
 43
0.0000001
 44
0.0000000001
 40
0.0
 40
0.0
 40
0.0
 40
0.0
 40
0.2476958129
 40
1.0
 40
1.0
 40
1.0
 40
1.0
 10
33.1721022122
 20
27.2293808891
 30
0.0
 10
33.2291919815
 20
27.2751569631
 30
0.0
 10
33.4554846598
 20
27.4651465092
 30
0.0
 10
33.6646002633
 20
27.6754730636
 30
0.0
 10
33.8109977001
 20
27.8426941972
 30
0.0
  0
SPLINE
  5
568
100
AcDbEntity
  8
0
100
AcDbSpline
 62
7
  6
BYLAYER
 70
0
 71
3
 72
9
 73
5
 74
0
 42
0.0000001
 43
0.0000001
 44
0.0000000001
 40
0.0
 40
0.0
 40
0.0
 40
0.0
 40
0.2478204431
 40
1.0
 40
1.0
 40
1.0
 40
1.0
 10
7.934668203
 20
45.0093779919
 30
0.0
 10
7.9285955024
 20
45.0044684832
 30
0.0
 10
7.9047843434
 20
44.9838117148
 30
0.0
 10
7.8838475767
 20
44.9598693906
 30
0.0
 10
7.8700715848
 20
44.9405821423
 30
0.0
  0
SPLINE
  5
569
100
AcDbEntity
  8
0
100
AcDbSpline
 62
7
  6
BYLAYER
 70
0
 71
3
 72
9
 73
5
 74
0
 42
0.0000001
 43
0.0000001
 44
0.0000000001
 40
0.0
 40
0.0
 40
0.0
 40
0.0
 40
0.2450937508
 40
1.0
 40
1.0
 40
1.0
 40
1.0
 10
7.8700715848
 20
44.9405821423
 30
0.0
 10
7.8636161723
 20
44.931544162
 30
0.0
 10
7.8389756231
 20
44.8934702887
 30
0.0
 10
7.8213009522
 20
44.8510050985
 30
0.0
 10
7.8120165271
 20
44.8180798543
 30
0.0
  0
SPLINE
  5
56A
100
AcDbEntity
  8
0
100
AcDbSpline
 62
7
  6
BYLAYER
 70
0
 71
3
 72
9
 73
5
 74
0
 42
0.0000001
 43
0.0000001
 44
0.0000000001
 40
0.0
 40
0.0
 40
0.0
 40
0.0
 40
0.2454204257
 40
1.0
 40
1.0
 40
1.0
 40
1.0
 10
7.8120165271
 20
44.8180798543
 30
0.0
 10
7.809278984
 20
44.8083717381
 30
0.0
 10
7.7995186497
 20
44.7684290126
 30
0.0
 10
7.7951872219
 20
44.7272060994
 30
0.0
 10
7.794749727
 20
44.6961961872
 30
0.0
  0
SPLINE
  5
56B
100
AcDbEntity
  8
0
100
AcDbSpline
 62
7
  6
BYLAYER
 70
0
 71
3
 72
9
 73
5
 74
0
 42
0.0000001
 43
0.0000001
 44
0.0000000001
 40
0.0
 40
0.0
 40
0.0
 40
0.0
 40
0.2533822873
 40
1.0
 40
1.0
 40
1.0
 40
1.0
 10
33.1205913383
 20
29.9883302366
 30
0.0
 10
33.0969781571
 20
29.9449529648
 30
0.0
 10
33.0015271725
 20
29.7750026535
 30
0.0
 10
32.896938525
 20
29.6101589267
 30
0.0
 10
32.813734503
 20
29.4907639958
 30
0.0
  0
SPLINE
  5
56C
100
AcDbEntity
  8
0
100
AcDbSpline
 62
7
  6
BYLAYER
 70
0
 71
3
 72
14
 73
10
 74
0
 42
0.0000001
 43
0.0000001
 44
0.0000000001
 40
0.0
 40
0.0
 40
0.0
 40
0.0
 40
0.2704435361
 40
0.3960660644
 40
0.5158699576
 40
0.6316569599
 40
0.7466804809
 40
0.8674139714
 40
1.0
 40
1.0
 40
1.0
 40
1.0
 10
23.754801489
 20
23.0539478657
 30
0.0
 10
23.775459966
 20
23.0255343154
 30
0.0
 10
23.8082937669
 20
22.985551608
 30
0.0
 10
23.857925595
 20
22.9403524473
 30
0.0
 10
23.8964527855
 20
22.91329448
 30
0.0
 10
23.9376894937
 20
22.8933624144
 30
0.0
 10
23.9826382022
 20
22.8828284815
 30
0.0
 10
24.0310545743
 20
22.8853167693
 30
0.0
 10
24.062624244
 20
22.8961466228
 30
0.0
 10
24.0781037835
 20
22.9036964016
 30
0.0
  0
SPLINE
  5
56D
100
AcDbEntity
  8
0
100
AcDbSpline
 62
7
  6
BYLAYER
 70
0
 71
3
 72
9
 73
5
 74
0
 42
0.0000001
 43
0.0000001
 44
0.0000000001
 40
0.0
 40
0.0
 40
0.0
 40
0.0
 40
0.2614811302
 40
1.0
 40
1.0
 40
1.0
 40
1.0
 10
23.554196352
 20
23.400050602
 30
0.0
 10
23.5722812445
 20
23.370238083
 30
0.0
 10
23.6410825707
 20
23.2560116787
 30
0.0
 10
23.708014298
 20
23.1406072902
 30
0.0
 10
23.754801489
 20
23.0539478657
 30
0.0
  0
SPLINE
  5
56E
100
AcDbEntity
  8
0
100
AcDbSpline
 62
7
  6
BYLAYER
 70
0
 71
3
 72
9
 73
5
 74
0
 42
0.0000001
 43
0.0000001
 44
0.0000000001
 40
0.0
 40
0.0
 40
0.0
 40
0.0
 40
0.5078184729
 40
1.0
 40
1.0
 40
1.0
 40
1.0
 10
23.0649624171
 20
23.9920322046
 30
0.0
 10
23.1597728876
 20
23.9027027672
 30
0.0
 10
23.3360194209
 20
23.7153439089
 30
0.0
 10
23.4874309317
 20
23.507205739
 30
0.0
 10
23.554196352
 20
23.400050602
 30
0.0
  0
SPLINE
  5
56F
100
AcDbEntity
  8
0
100
AcDbSpline
 62
7
  6
BYLAYER
 70
0
 71
3
 72
40
 73
36
 74
0
 42
0.0000001
 43
0.0000001
 44
0.0000000001
 40
0.0
 40
0.0
 40
0.0
 40
0.0
 40
0.0006136212
 40
0.0014344676
 40
0.0035755155
 40
0.0060850775
 40
0.0088133562
 40
0.0117136975
 40
0.0147448226
 40
0.0210882781
 40
0.0276752246
 40
0.0344547512
 40
0.0413850226
 40
0.0484233991
 40
0.0627495414
 40
0.077341962
 40
0.092134372
 40
0.1070733718
 40
0.1221397466
 40
0.1373139281
 40
0.1679163636
 40
0.1987836967
 40
0.2298657579
 40
0.2611181793
 40
0.2925143605
 40
0.3240359485
 40
0.3556660761
 40
0.4191924173
 40
0.4830100085
 40
0.5470747127
 40
0.6113494863
 40
0.6758021145
 40
0.7404040322
 40
0.8699845355
 40
1.0
 40
1.0
 40
1.0
 40
1.0
 10
33.021428763
 20
27.39679975
 30
0.0
 10
33.019945724
 20
27.3974423318
 30
0.0
 10
33.0160906646
 20
27.3979180672
 30
0.0
 10
33.0067176425
 20
27.3971147158
 30
0.0
 10
32.9926527374
 20
27.3936503367
 30
0.0
 10
32.9740543017
 20
27.3880746575
 30
0.0
 10
32.9537607811
 20
27.3811354028
 30
0.0
 10
32.9323611983
 20
27.3732432773
 30
0.0
 10
32.9022062088
 20
27.3615750401
 30
0.0
 10
32.863272291
 20
27.3457041676
 30
0.0
 10
32.8154382224
 20
27.325524513
 30
0.0
 10
32.7664132389
 20
27.3041995542
 30
0.0
 10
32.7164759552
 20
27.2819968928
 30
0.0
 10
32.6485353452
 20
27.2513616364
 30
0.0
 10
32.5624444203
 20
27.2118837433
 30
0.0
 10
32.4581135193
 20
27.1631907448
 30
0.0
 10
32.3525705544
 20
27.1132821455
 30
0.0
 10
32.2460521495
 20
27.0625176152
 30
0.0
 10
32.1387925083
 20
27.0109724429
 30
0.0
 10
31.9945320743
 20
26.9411727754
 30
0.0
 10
31.8130867301
 20
26.8526698757
 30
0.0
 10
31.5942912624
 20
26.7451653981
 30
0.0
 10
31.3742489889
 20
26.6363182507
 30
0.0
 10
31.1531621976
 20
26.5264422057
 30
0.0
 10
30.9312229116
 20
26.4156809831
 30
0.0
 10
30.7085635023
 20
26.3041354709
 30
0.0
 10
30.4104380834
 20
26.1542846098
 30
0.0
 10
30.0366044826
 20
25.9656387762
 30
0.0
 10
29.5868515069
 20
25.7378091072
 30
0.0
 10
29.135690028
 20
25.508398792
 30
0.0
 10
28.6833421635
 20
25.2776323943
 30
0.0
 10
28.229994691
 20
25.0457124416
 30
0.0
 10
27.6237668354
 20
24.7349468643
 30
0.0
 10
26.8642582115
 20
24.3446329725
 30
0.0
 10
26.2565144353
 20
24.031279963
 30
0.0
 10
25.9522374755
 20
23.8741395096
 30
0.0
  0
SPLINE
  5
570
100
AcDbEntity
  8
0
100
AcDbSpline
 62
7
  6
BYLAYER
 70
0
 71
3
 72
15
 73
11
 74
0
 42
0.0000001
 43
0.0000001
 44
0.0000000001
 40
0.0
 40
0.0
 40
0.0
 40
0.0
 40
0.1292836611
 40
0.2549988871
 40
0.3781518665
 40
0.4999819104
 40
0.6218143659
 40
0.7449744517
 40
0.8707011212
 40
1.0
 40
1.0
 40
1.0
 40
1.0
 10
23.754801489
 20
23.0539478657
 30
0.0
 10
23.6448536678
 20
22.8801058403
 30
0.0
 10
23.4092867086
 20
22.548553973
 30
0.0
 10
23.0053335515
 20
22.1008199733
 30
0.0
 10
22.55840311
 20
21.7136053693
 30
0.0
 10
22.0713002189
 20
21.3892880414
 30
0.0
 10
21.5467486409
 20
21.1298468744
 30
0.0
 10
20.9878248163
 20
20.936649481
 30
0.0
 10
20.3979910591
 20
20.8109340879
 30
0.0
 10
19.9930173668
 20
20.7728691691
 30
0.0
 10
19.787464307
 20
20.7646549321
 30
0.0
  0
SPLINE
  5
571
100
AcDbEntity
  8
0
100
AcDbSpline
 62
7
  6
BYLAYER
 70
0
 71
3
 72
15
 73
11
 74
0
 42
0.0000001
 43
0.0000001
 44
0.0000000001
 40
0.0
 40
0.0
 40
0.0
 40
0.0
 40
0.1298634645
 40
0.2556543522
 40
0.3785414168
 40
0.499951876
 40
0.6213688053
 40
0.7442748952
 40
0.8700962632
 40
1.0
 40
1.0
 40
1.0
 40
1.0
 10
23.554196352
 20
23.400050602
 30
0.0
 10
23.4439831138
 20
23.2135346545
 30
0.0
 10
23.2060566312
 20
22.8581533804
 30
0.0
 10
22.791853476
 20
22.3793017011
 30
0.0
 10
22.3291797341
 20
21.9677126764
 30
0.0
 10
21.8211621322
 20
21.6264445961
 30
0.0
 10
21.2712592816
 20
21.3577605695
 30
0.0
 10
20.6831630703
 20
21.1635187351
 30
0.0
 10
20.0610867097
 20
21.0448919567
 30
0.0
 10
19.6342085929
 20
21.0169651268
 30
0.0
 10
19.4175051768
 20
21.0149900433
 30
0.0
  0
ELLIPSE
  5
572
100
AcDbEntity
  8
0
100
AcDbEllipse
 62
7
  6
BYLAYER
 10
23.1148950131
 20
37.7952211335
 30
0.0
 11
115.4487637194
 21
77.8550572413
 31
0.0
 40
0.0751468995
 41
-1.4604002586
 42
-1.4530096689
  0
ELLIPSE
  5
573
100
AcDbEntity
  8
0
100
AcDbEllipse
 62
7
  6
BYLAYER
 10
27.1486077692
 20
40.1248788852
 30
0.0
 11
19.8789162962
 21
11.476710915
 31
0.0
 40
0.6234922761
 41
1.684833438
 42
1.7283660846
  0
ELLIPSE
  5
574
100
AcDbEntity
  8
0
100
AcDbEllipse
 62
7
  6
BYLAYER
 10
51.3123742923
 20
49.3461846513
 30
0.0
 11
0.1944957281
 21
1.0390061155
 31
0.0
 40
0.2183847418
 41
-2.2235078842
 42
-1.6309841436
  0
ELLIPSE
  5
575
100
AcDbEntity
  8
0
100
AcDbEllipse
 62
7
  6
BYLAYER
 10
51.3123744192
 20
44.4704997636
 30
0.0
 11
0.1944956456
 21
1.0390056746
 31
0.0
 40
0.2183847418
 41
-0.8621513259
 42
-0.47951887
  0
ELLIPSE
  5
576
100
AcDbEntity
  8
0
100
AcDbEllipse
 62
7
  6
BYLAYER
 10
23.1148950131
 20
37.7952211335
 30
0.0
 11
115.5247976481
 21
54.4742053903
 31
0.0
 40
0.0749448309
 41
-1.4450913937
 42
-1.4377008028
  0
ELLIPSE
  5
577
100
AcDbEntity
  8
0
100
AcDbEllipse
 62
7
  6
BYLAYER
 10
27.0539875341
 20
40.0702501955
 30
0.0
 11
19.8740525433
 21
11.4739029205
 31
0.0
 40
0.6234923462
 41
7.9658368532
 42
8.0080442167
  0
ELLIPSE
  5
578
100
AcDbEntity
  8
0
100
AcDbEllipse
 62
7
  6
BYLAYER
 10
51.3123744192
 20
44.4704997636
 30
0.0
 11
0.1944956456
 21
1.0390056746
 31
0.0
 40
0.2183847418
 41
6.2064448697
 42
6.7823908833
  0
ENDSEC
  0
SECTION
  2
OBJECTS
  0
DICTIONARY
  5
C
100
AcDbDictionary
280
0
281
1
  3
ACAD_GROUP
350
D
  3
ACAD_MLINESTYLE
350
17
  3
ACAD_LAYOUT
350
1A
  3
ACAD_PLOTSETTINGS
350
19
  3
ACAD_PLOTSTYLENAME
350
E
  0
DICTIONARY
  5
D
102
{ACAD_REACTORS
330
C
102
}
100
AcDbDictionary
280
0
281
1
  0
ACDBDICTIONARYWDFLT
  5
E
102
{ACAD_REACTORS
330
C
102
}
100
AcDbDictionary
281
1
  3
Normal
350
F
100
AcDbDictionaryWithDefault
340
F
  0
DICTIONARY
  5
17
102
{ACAD_REACTORS
330
C
102
}
100
AcDbDictionary
280
0
281
1
  3
Standard
350
18
  0
DICTIONARY
  5
19
102
{ACAD_REACTORS
330
C
102
}
100
AcDbDictionary
281
1
  0
DICTIONARY
  5
1A
102
{ACAD_REACTORS
330
C
102
}
100
AcDbDictionary
281
1
  3
Model
350
579
  3
Layout1
350
57A
  0
ACDBPLACEHOLDER
  5
F
102
{ACAD_REACTORS
330
E
102
}
  0
MLINESTYLE
  5
18
102
{ACAD_REACTORS
330
17
102
}
100
AcDbMlineStyle
  2
STANDARD
 70
0
  3

 62
256
 51
90.0
 52
90.0
 71
2
 49
0.5
 62
256
  6
BYLAYER
 49
-0.5
 62
256
  6
BYLAYER
  0
LAYOUT
  5
579
102
{ACAD_REACTORS
330
1A
102
}
100
AcDbPlotSettings
  1

  2
none_device
  4

  6

 40
0.0
 41
0.0
 42
0.0
 43
0.0
 44
210.0
 45
297.0
 46
0.0
 47
0.0
 48
0.0
 49
0.0
140
0.0
141
0.0
142
1.0
143
1.0
 70
1024
 72
1
 73
0
 74
0
  7

 75
0
147
1.0
148
0.0
149
0.0
100
AcDbLayout
  1
Model
 70
0
 71
0
 10
0.0
 20
0.0
 11
210.0
 21
297.0
 12
0.0
 22
0.0
 32
0.0
 14
0.0
 24
0.0
 34
0.0
 15
0.0
 25
0.0
 35
0.0
146
0.0
 13
0.0
 23
0.0
 33
0.0
 16
1.0
 26
0.0
 36
0.0
 17
0.0
 27
1.0
 37
0.0
 76
0
330
210
345
0
346
0
  0
LAYOUT
  5
57A
102
{ACAD_REACTORS
330
1A
102
}
100
AcDbPlotSettings
  1

  2
none_device
  4

  6

 40
0.0
 41
0.0
 42
0.0
 43
0.0
 44
210.0
 45
297.0
 46
0.0
 47
0.0
 48
0.0
 49
0.0
140
0.0
141
0.0
142
1.0
143
1.0
 70
0
 72
1
 73
0
 74
0
  7

 75
0
147
1.0
148
0.0
149
0.0
100
AcDbLayout
  1
Layout1
 70
0
 71
1
 10
0.0
 20
0.0
 11
210.0
 21
297.0
 12
0.0
 22
0.0
 32
0.0
 14
0.0
 24
0.0
 34
0.0
 15
0.0
 25
0.0
 35
0.0
146
0.0
 13
0.0
 23
0.0
 33
0.0
 16
1.0
 26
0.0
 36
0.0
 17
0.0
 27
1.0
 37
0.0
 76
0
330
211
345
0
346
0
  0
ENDSEC
  0
EOF
