999
DXF file: C:\Users\sesa63760\Dev\_Creo\CAD\MCADID0004815_3D-CAD\drw0001_5.dxf
999
Pro/ENGINEER 2019471 by Parametric Technology Corporation
  0
SECTION
  2
HEADER
  9
$ACADVER
  1
AC1024
  9
$DWGCODEPAGE
  3
ANSI_1252
  9
$EXTMAX
 10
62.9277524703
 20
88.9978213508
 30
0.0
  9
$EXTMIN
 10
0.0
 20
0.0
 30
0.0
  9
$LIMMIN
 10
0.0
 20
0.0
  9
$LIMMAX
 10
62.9277524703
 20
88.9978213508
  9
$VIEWCTR
 10
31.4638762351
 20
44.4989106754
  9
$VIEWSIZE
 40
88.9978213508
  9
$CLAYER
  8
0
  9
$LTSCALE
 40
5.8013394658
  9
$CELTYPE
  6
BYLAYER
  9
$DIMSCALE
 40
1.0
  9
$DIMASZ
 40
0.7491399104
  9
$DIMEXO
 40
1.0
  9
$DIMDLI
 40
4.0081981764
  9
$DIMEXE
 40
1.0
  9
$DIMCEN
 40
0.9493100944
  9
$DIMLFAC
 40
1.0
  9
$DIMBLK
  1
_FILLED
  9
$DIMALT
 70
0
  9
$DIMALTF
 40
0.0393700787
  9
$DIMTXT
 40
1.0487958745
  9
$DIMTOL
 70
1
  9
$DIMLIM
 70
0
  9
$DIMTFAC
 40
1.0
  9
$DIMTP
 40
0.01
  9
$DIMTM
 40
0.01
  9
$DIMGAP
 40
0.625
  9
$DIMDSEP
 70
46
  9
$AUNITS
 70
0
  9
$PDMODE
 70
3
  9
$PDSIZE
 40
0.3125
  9
$HANDSEED
  5
25A
  9
$TILEMODE
 70
1
  9
$MEASUREMENT
 70
1
  9
$INSUNITS
 70
4
  0
ENDSEC
  0
SECTION
  2
CLASSES
  0
CLASS
  1
ACDBDICTIONARYWDFLT
  2
AcDbDictionaryWithDefault
  3
AutoCAD 2000
 90
0
 91
1
280
0
281
0
  0
CLASS
  1
ACDBPLACEHOLDER
  2
AcDbPlaceHolder
  3
AutoCAD 2000
 90
0
 91
1
280
0
281
0
  0
CLASS
  1
LAYOUT
  2
AcDbLayout
  3
AutoCAD 2000
 90
0
 91
0
280
0
281
0
  0
ENDSEC
  0
SECTION
  2
TABLES
  0
TABLE
  2
VPORT
  5
8
100
AcDbSymbolTable
 70
2
  0
VPORT
  5
1F4
100
AcDbSymbolTableRecord
100
AcDbViewportTableRecord
  2
*ACTIVE
 70
0
 10
0.0
 20
0.0
 11
1.0
 21
1.0
 12
31.4638762351
 22
44.4989106754
 13
0.0
 23
0.0
 14
1.0
 24
1.0
 15
0.0
 25
0.0
 16
0.0
 26
0.0
 36
1.0
 17
0.0
 27
0.0
 37
0.0
 40
88.9978213508
 41
0.7070707071
 42
50.0
 43
0.0
 44
0.0
 50
0.0
 51
0.0
 71
0
 72
100
 73
1
 74
1
 75
0
 76
0
 77
0
 78
0
  0
ENDTAB
  0
TABLE
  2
LTYPE
  5
5
100
AcDbSymbolTable
 70
6
  0
LTYPE
  5
14
100
AcDbSymbolTableRecord
100
AcDbLinetypeTableRecord
  2
BYBLOCK
 70
0
  3

 72
65
 73
0
 40
0.0
  0
LTYPE
  5
15
100
AcDbSymbolTableRecord
100
AcDbLinetypeTableRecord
  2
BYLAYER
 70
0
  3

 72
65
 73
0
 40
0.0
  0
LTYPE
  5
16
100
AcDbSymbolTableRecord
100
AcDbLinetypeTableRecord
  2
CONTINUOUS
 70
64
  3
Solid line
 72
65
 73
0
 40
0.0
  0
LTYPE
  5
1F5
100
AcDbSymbolTableRecord
100
AcDbLinetypeTableRecord
  2
CENTER
 70
64
  3
____ _ ____ _ ____ _ ____ _ ____ _ ____ _ ____
 72
65
 73
4
 40
0.6
 49
0.375
 74
0
 49
-0.075
 74
0
 49
0.075
 74
0
 49
-0.075
 74
0
  0
LTYPE
  5
1F6
100
AcDbSymbolTableRecord
100
AcDbLinetypeTableRecord
  2
HIDDEN
 70
64
  3
- - - - - - - - - - - - - - - - - - - -
 72
65
 73
2
 40
0.2
 49
0.1
 74
0
 49
-0.1
 74
0
  0
LTYPE
  5
1F7
100
AcDbSymbolTableRecord
100
AcDbLinetypeTableRecord
  2
PHANTOM
 70
64
  3
_____ _ _ _____ _ _ _____ _ _ _____
 72
65
 73
6
 40
0.8
 49
0.45
 74
0
 49
-0.05
 74
0
 49
0.1
 74
0
 49
-0.05
 74
0
 49
0.1
 74
0
 49
-0.05
 74
0
  0
LTYPE
  5
1F8
100
AcDbSymbolTableRecord
100
AcDbLinetypeTableRecord
  2
DOT
 70
64
  3
. . . . . . . . . . . . . . . . . . . .
 72
65
 73
2
 40
0.2
 49
0.1
 74
0
 49
-0.1
 74
0
  0
LTYPE
  5
1F9
100
AcDbSymbolTableRecord
100
AcDbLinetypeTableRecord
  2
DASHED
 70
64
  3
- - - - - - - - - - - - - - - - - - - -
 72
65
 73
2
 40
0.2
 49
0.1
 74
0
 49
-0.1
 74
0
  0
ENDTAB
  0
TABLE
  2
LAYER
  5
2
100
AcDbSymbolTable
 70
36
  0
LAYER
  5
10
100
AcDbSymbolTableRecord
100
AcDbLayerTableRecord
  2
0
 70
0
 62
7
  6
CONTINUOUS
370
-3
390
F
  0
LAYER
  5
1FA
100
AcDbSymbolTableRecord
100
AcDbLayerTableRecord
  2
DEFAULT_1
 70
0
 62
7
  6
CENTER
370
-3
390
F
  0
LAYER
  5
1FB
100
AcDbSymbolTableRecord
100
AcDbLayerTableRecord
  2
DEFAULT_2
 70
0
 62
7
  6
HIDDEN
370
-3
390
F
  0
LAYER
  5
1FC
100
AcDbSymbolTableRecord
100
AcDbLayerTableRecord
  2
DEFAULT_3
 70
0
 62
7
  6
PHANTOM
370
-3
390
F
  0
LAYER
  5
1FD
100
AcDbSymbolTableRecord
100
AcDbLayerTableRecord
  2
00_COMPONENTS
 70
0
 62
7
  6
CONTINUOUS
370
-3
390
F
  0
LAYER
  5
1FE
100
AcDbSymbolTableRecord
100
AcDbLayerTableRecord
  2
01_1_DEFAULT_DATUMS
 70
0
 62
7
  6
CONTINUOUS
370
-3
390
F
  0
LAYER
  5
1FF
100
AcDbSymbolTableRecord
100
AcDbLayerTableRecord
  2
01_PLANES
 70
0
 62
7
  6
CONTINUOUS
370
-3
390
F
  0
LAYER
  5
200
100
AcDbSymbolTableRecord
100
AcDbLayerTableRecord
  2
02_COORD_SYS
 70
0
 62
7
  6
CONTINUOUS
370
-3
390
F
  0
LAYER
  5
201
100
AcDbSymbolTableRecord
100
AcDbLayerTableRecord
  2
03_AXES
 70
0
 62
7
  6
CONTINUOUS
370
-3
390
F
  0
LAYER
  5
202
100
AcDbSymbolTableRecord
100
AcDbLayerTableRecord
  2
04_POINTS
 70
0
 62
7
  6
CONTINUOUS
370
-3
390
F
  0
LAYER
  5
203
100
AcDbSymbolTableRecord
100
AcDbLayerTableRecord
  2
05_CURVES
 70
0
 62
7
  6
CONTINUOUS
370
-3
390
F
  0
LAYER
  5
204
100
AcDbSymbolTableRecord
100
AcDbLayerTableRecord
  2
06_SURFS
 70
0
 62
7
  6
CONTINUOUS
370
-3
390
F
  0
LAYER
  5
205
100
AcDbSymbolTableRecord
100
AcDbLayerTableRecord
  2
07_COSMETICS
 70
0
 62
7
  6
CONTINUOUS
370
-3
390
F
  0
LAYER
  5
206
100
AcDbSymbolTableRecord
100
AcDbLayerTableRecord
  2
10_NOTES
 70
0
 62
7
  6
CONTINUOUS
370
-3
390
F
  0
LAYER
  5
207
100
AcDbSymbolTableRecord
100
AcDbLayerTableRecord
  2
11_NOTES_PUB
 70
0
 62
7
  6
CONTINUOUS
370
-3
390
F
  0
LAYER
  5
208
100
AcDbSymbolTableRecord
100
AcDbLayerTableRecord
  2
13_REF_GTOL
 70
0
 62
7
  6
CONTINUOUS
370
-3
390
F
  0
LAYER
  5
209
100
AcDbSymbolTableRecord
100
AcDbLayerTableRecord
  2
16_MISC
 70
0
 62
7
  6
CONTINUOUS
370
-3
390
F
  0
LAYER
  5
20A
100
AcDbSymbolTableRecord
100
AcDbLayerTableRecord
  2
17_NO_PRINT
 70
0
 62
7
  6
CONTINUOUS
370
-3
390
F
  0
LAYER
  5
20B
100
AcDbSymbolTableRecord
100
AcDbLayerTableRecord
  2
18_DATUM_CAMS_JOINTS
 70
0
 62
7
  6
CONTINUOUS
370
-3
390
F
  0
LAYER
  5
20C
100
AcDbSymbolTableRecord
100
AcDbLayerTableRecord
  2
19_DATUM_FUNCTIONAL
 70
0
 62
7
  6
CONTINUOUS
370
-3
390
F
  0
LAYER
  5
20D
100
AcDbSymbolTableRecord
100
AcDbLayerTableRecord
  2
20_DATUM_KINEMATIC_SCHEME
 70
0
 62
7
  6
CONTINUOUS
370
-3
390
F
  0
ENDTAB
  0
TABLE
  2
STYLE
  5
3
100
AcDbSymbolTable
 70
1
  0
STYLE
  5
11
100
AcDbSymbolTableRecord
100
AcDbTextStyleTableRecord
  2
STANDARD
 70
0
 40
0.0
 41
1.0
 50
0.0
 71
0
 42
0.2
  3
ARIAL.TTF
  4

  0
STYLE
  5
20E
100
AcDbSymbolTableRecord
100
AcDbTextStyleTableRecord
  2
TEXTSTYLE_1
 70
0
 40
0.0
 41
0.8
 50
0.0
 71
0
 42
0.2
  3
gdt
  4

  0
ENDTAB
  0
TABLE
  2
VIEW
  5
6
100
AcDbSymbolTable
 70
0
  0
ENDTAB
  0
TABLE
  2
UCS
  5
7
100
AcDbSymbolTable
 70
0
  0
ENDTAB
  0
TABLE
  2
APPID
  5
9
100
AcDbSymbolTable
 70
1
  0
APPID
  5
20F
100
AcDbSymbolTableRecord
100
AcDbRegAppTableRecord
  2
ACAD
 70
0
  0
ENDTAB
  0
TABLE
  2
BLOCK_RECORD
  5
1
100
AcDbSymbolTable
 70
0
  0
BLOCK_RECORD
  5
210
100
AcDbSymbolTableRecord
100
AcDbBlockTableRecord
  2
*Model_Space
  0
BLOCK_RECORD
  5
211
100
AcDbSymbolTableRecord
100
AcDbBlockTableRecord
  2
*Paper_Space
  0
BLOCK_RECORD
  5
212
100
AcDbSymbolTableRecord
100
AcDbBlockTableRecord
  2
_FILLED
  0
ENDTAB
  0
TABLE
  2
DIMSTYLE
  5
A
100
AcDbSymbolTable
 70
1
100
AcDbDimStyleTable
 71
0
  0
DIMSTYLE
105
213
100
AcDbSymbolTableRecord
100
AcDbDimStyleTableRecord
  2
STANDARD
 70
0
  3

  4

 40
1.0
 41
0.7491399104
 42
1.0
 43
0.38
 44
1.0
 45
0.0
 46
0.0
 47
0.01
 48
0.01
140
1.0487958745
141
0.09
142
0.0
143
25.4
144
1.0
145
0.0
146
1.0
147
0.625
 71
1
 72
0
 73
0
 74
0
 75
0
 76
0
 77
1
 78
8
 79
2
170
0
171
1
172
0
173
0
174
0
175
0
176
0
177
0
178
0
270
2
179
2
271
2
272
2
273
2
274
2
275
0
280
0
281
0
282
0
283
1
284
8
285
0
286
0
287
3
288
0
340
11
278
46
341
212
342
212
343
212
344
212
  0
ENDTAB
  0
ENDSEC
  0
SECTION
  2
BLOCKS
  0
BLOCK
  5
20
100
AcDbEntity
  8
0
100
AcDbBlockBegin
  2
*Model_Space
 70
0
 10
0.0
 20
0.0
 30
0.0
  3
*Model_Space
  1

  0
ENDBLK
  5
21
100
AcDbEntity
  8
0
100
AcDbBlockEnd
  0
BLOCK
  5
1C
100
AcDbEntity
  8
0
100
AcDbBlockBegin
  2
*Paper_Space
 70
0
 10
0.0
 20
0.0
 30
0.0
  3
*Paper_Space
  1

  0
ENDBLK
  5
1D
100
AcDbEntity
  8
0
100
AcDbBlockEnd
  0
BLOCK
  5
214
100
AcDbEntity
  8
0
100
AcDbBlockBegin
  2
_FILLED
 70
64
 10
0.0
 20
0.0
  3
_FILLED
  1

  0
SOLID
  5
215
100
AcDbEntity
  8
0
  6
BYBLOCK
 62
0
100
AcDbTrace
 10
0.0
 20
0.0
 11
-1.0
 21
0.25
 12
-1.0
 22
-0.25
 13
-1.0
 23
-0.25
  0
ENDBLK
  5
216
100
AcDbEntity
  8
0
  6
BYBLOCK
 62
0
100
AcDbBlockEnd
  0
ENDSEC
  0
SECTION
  2
ENTITIES
  0
LINE
  5
217
100
AcDbEntity
  8
0
100
AcDbLine
 62
7
  6
BYLAYER
 10
7.3353359301
 20
36.6078538323
 11
7.3353359301
 21
52.6078315993
  0
LINE
  5
218
100
AcDbEntity
  8
0
100
AcDbLine
 62
7
  6
BYLAYER
 10
9.052920616
 20
36.9925137381
 11
9.052920616
 21
52.2231716935
  0
LINE
  5
219
100
AcDbEntity
  8
0
100
AcDbLine
 62
7
  6
BYLAYER
 10
9.5394538598
 20
37.3078427158
 11
9.5394538598
 21
51.9078427158
  0
LINE
  5
21A
100
AcDbEntity
  8
0
100
AcDbLine
 62
7
  6
BYLAYER
 10
17.3353362542
 20
36.614922758
 11
17.3353362173
 21
36.6202442348
  0
LINE
  5
21B
100
AcDbEntity
  8
0
100
AcDbLine
 62
7
  6
BYLAYER
 10
17.3353355717
 20
52.600770706
 11
17.3353356126
 21
52.5954486142
  0
LWPOLYLINE
  5
21C
100
AcDbEntity
  8
0
100
AcDbPolyline
 62
7
  6
BYLAYER
 90
4
 70
0
 10
16.5286997344
 20
36.6078195225
 10
16.7611085515
 20
36.6095363708
 10
17.0987107502
 20
36.6137488295
 10
17.3353362542
 20
36.614922758
  0
LINE
  5
21D
100
AcDbEntity
  8
0
100
AcDbLine
 62
7
  6
BYLAYER
 10
7.3353359301
 20
36.6078427158
 11
57.0353359301
 21
36.6078427158
  0
LINE
  5
21E
100
AcDbEntity
  8
0
100
AcDbLine
 62
7
  6
BYLAYER
 10
8.9948627309
 20
36.9078427158
 11
7.3824919283
 21
36.9078427158
  0
LINE
  5
21F
100
AcDbEntity
  8
0
100
AcDbLine
 62
7
  6
BYLAYER
 10
52.335317996
 20
37.3078431285
 11
9.5394538598
 21
37.3078427158
  0
LINE
  5
220
100
AcDbEntity
  8
0
100
AcDbLine
 62
7
  6
BYLAYER
 10
45.7853359301
 20
37.6027812404
 11
57.3353359301
 21
37.562463971
  0
LWPOLYLINE
  5
221
100
AcDbEntity
  8
0
100
AcDbPolyline
 62
7
  6
BYLAYER
 90
4
 70
0
 10
17.3353363103
 20
36.6149133924
 10
17.5631602959
 20
36.6138342578
 10
17.9007326136
 20
36.6096452787
 10
18.1419768667
 20
36.6078143826
  0
LINE
  5
222
100
AcDbEntity
  8
0
100
AcDbLine
 62
7
  6
BYLAYER
 10
55.7853359301
 20
39.3078427158
 11
45.7853359301
 21
39.3078427158
  0
LINE
  5
223
100
AcDbEntity
  8
0
100
AcDbLine
 62
7
  6
BYLAYER
 10
45.7853359301
 20
49.9078427158
 11
55.7853359301
 21
49.9078427158
  0
LINE
  5
224
100
AcDbEntity
  8
0
100
AcDbLine
 62
7
  6
BYLAYER
 10
45.7853359301
 20
51.6129041912
 11
57.3353359301
 21
51.6532214607
  0
LWPOLYLINE
  5
225
100
AcDbEntity
  8
0
100
AcDbPolyline
 62
7
  6
BYLAYER
 90
4
 70
0
 10
18.1419718579
 20
52.6078711627
 10
17.9097834906
 20
52.6061476286
 10
17.5721815104
 20
52.6019335603
 10
17.3353355717
 20
52.6007707057
  0
LINE
  5
226
100
AcDbEntity
  8
0
100
AcDbLine
 62
7
  6
BYLAYER
 10
9.5394538598
 20
51.9078427158
 11
52.3353359301
 21
51.9078427158
  0
LINE
  5
227
100
AcDbEntity
  8
0
100
AcDbLine
 62
7
  6
BYLAYER
 10
7.3824919283
 20
52.3078427158
 11
8.9948627309
 21
52.3078427158
  0
LINE
  5
228
100
AcDbEntity
  8
0
100
AcDbLine
 62
7
  6
BYLAYER
 10
7.3353359301
 20
52.6078427158
 11
16.5287226413
 21
52.6078427158
  0
LINE
  5
229
100
AcDbEntity
  8
0
100
AcDbLine
 62
7
  6
BYLAYER
 10
16.5335327774
 20
52.6078427158
 11
57.0353359301
 21
52.6078427158
  0
LWPOLYLINE
  5
22A
100
AcDbEntity
  8
0
100
AcDbPolyline
 62
7
  6
BYLAYER
 90
4
 70
0
 10
17.3353355097
 20
52.6007586119
 10
17.1079216298
 20
52.6018446702
 10
16.7703499919
 20
52.6060269066
 10
16.5286946061
 20
52.6078798128
  0
LINE
  5
22B
100
AcDbEntity
  8
0
100
AcDbLine
 62
7
  6
BYLAYER
 10
45.7853359301
 20
37.6027812404
 11
45.7853359301
 21
51.6129041912
  0
LINE
  5
22C
100
AcDbEntity
  8
0
100
AcDbLine
 62
7
  6
BYLAYER
 10
52.3353359301
 20
51.9078427158
 11
52.3353359301
 21
51.6357680973
  0
LINE
  5
22D
100
AcDbEntity
  8
0
100
AcDbLine
 62
7
  6
BYLAYER
 10
52.335317996
 20
37.3078431285
 11
52.3353359301
 21
37.5799173344
  0
LINE
  5
22E
100
AcDbEntity
  8
0
100
AcDbLine
 62
7
  6
BYLAYER
 10
55.7853359301
 20
51.647810918
 11
55.7853359301
 21
49.3575795506
  0
LINE
  5
22F
100
AcDbEntity
  8
0
100
AcDbLine
 62
7
  6
BYLAYER
 10
55.7853359301
 20
39.858105881
 11
55.7853359301
 21
37.5678745136
  0
LINE
  5
230
100
AcDbEntity
  8
0
100
AcDbLine
 62
7
  6
BYLAYER
 10
57.3353359301
 20
36.9078427158
 11
57.3353359301
 21
37.562463971
  0
LINE
  5
231
100
AcDbEntity
  8
0
100
AcDbLine
 62
7
  6
BYLAYER
 10
57.3353359301
 20
51.6532214607
 11
57.3353359301
 21
52.3078427158
  0
ARC
  5
232
100
AcDbEntity
  8
0
100
AcDbCircle
 62
7
  6
BYLAYER
 10
45.5514478747
 20
-57.753544688
 40
95.2847955412
100
AcDbArc
 50
84.3775294577
 51
85.2765745635
  0
ARC
  5
233
100
AcDbEntity
  8
0
100
AcDbCircle
 62
7
  6
BYLAYER
 10
45.6253240178
 20
146.1793834944
 40
94.4915195975
100
AcDbArc
 50
274.7183423519
 51
275.624813234
  0
ARC
  5
234
100
AcDbEntity
  8
0
100
AcDbCircle
 62
7
  6
BYLAYER
 10
-55.9925801919
 20
44.5784573195
 40
63.8446800043
100
AcDbArc
 50
0.0263711753
 51
6.9535971378
  0
ARC
  5
235
100
AcDbEntity
  8
0
100
AcDbCircle
 62
7
  6
BYLAYER
 10
-55.9922061933
 20
44.637205303
 40
63.8443059952
100
AcDbArc
 50
353.0463825471
 51
359.9736491398
  0
ARC
  5
236
100
AcDbEntity
  8
0
100
AcDbCircle
 62
7
  6
BYLAYER
 10
64.5853359301
 20
44.6078427158
 40
10.0
100
AcDbArc
 50
151.6423634237
 51
208.3576365763
  0
ARC
  5
237
100
AcDbEntity
  8
0
100
AcDbCircle
 62
7
  6
BYLAYER
 10
57.0353359301
 20
36.9078427158
 40
0.3
100
AcDbArc
 50
270.0
 51
360.0
  0
ARC
  5
238
100
AcDbEntity
  8
0
100
AcDbCircle
 62
7
  6
BYLAYER
 10
57.0353359301
 20
52.3078427158
 40
0.3
100
AcDbArc
 50
0.0
 51
90.0
  0
SPLINE
  5
239
100
AcDbEntity
  8
0
100
AcDbSpline
 62
7
  6
BYLAYER
 70
0
 71
3
 72
15
 73
11
 74
0
 42
0.0000001
 43
0.0000001
 44
0.0000000001
 40
0.0
 40
0.0
 40
0.0
 40
0.0
 40
0.1533222322
 40
0.3122655835
 40
0.4692608838
 40
0.6153985513
 40
0.7429429894
 40
0.8484629888
 40
0.9320223993
 40
1.0
 40
1.0
 40
1.0
 40
1.0
 10
54.8868063094
 20
52.142831702
 30
0.0
 10
54.884521361
 20
52.1710837913
 30
0.0
 10
54.8775909112
 20
52.2284602614
 30
0.0
 10
54.8603736545
 20
52.3135957016
 30
0.0
 10
54.8356376815
 20
52.3954939346
 30
0.0
 10
54.8048099865
 20
52.469121997
 30
0.0
 10
54.7687373976
 20
52.5295436115
 30
0.0
 10
54.7301431544
 20
52.5741434799
 30
0.0
 10
54.6902210955
 20
52.6012347577
 30
0.0
 10
54.6620873881
 20
52.6078419192
 30
0.0
 10
54.6495205208
 20
52.6078427157
 30
0.0
  0
SPLINE
  5
23A
100
AcDbEntity
  8
0
100
AcDbSpline
 62
7
  6
BYLAYER
 70
0
 71
3
 72
13
 73
9
 74
0
 42
0.0000001
 43
0.0000001
 44
0.0000000001
 40
0.0
 40
0.0
 40
0.0
 40
0.0
 40
0.1108954817
 40
0.1974647432
 40
0.3083851331
 40
0.444272093
 40
0.6050903743
 40
1.0
 40
1.0
 40
1.0
 40
1.0
 10
9.2870577166
 20
52.6078427158
 30
0.0
 10
9.2931167609
 20
52.6078416687
 30
0.0
 10
9.3025489874
 20
52.5993232359
 30
0.0
 10
9.3108053404
 20
52.5851605079
 30
0.0
 10
9.3182290451
 20
52.5683146834
 30
0.0
 10
9.3253091671
 20
52.5472381974
 30
0.0
 10
9.3352572094
 20
52.5107421878
 30
0.0
 10
9.3411532233
 20
52.4809278072
 30
0.0
 10
9.3448408852
 20
52.4596684206
 30
0.0
  0
SPLINE
  5
23B
100
AcDbEntity
  8
0
100
AcDbSpline
 62
7
  6
BYLAYER
 70
0
 71
3
 72
9
 73
5
 74
0
 42
0.0000001
 43
0.0000001
 44
0.0000000001
 40
0.0
 40
0.0
 40
0.0
 40
0.0
 40
0.4935316259
 40
1.0
 40
1.0
 40
1.0
 40
1.0
 10
16.5287226408
 20
52.6078427158
 30
0.0
 10
16.6614349626
 20
52.6078348367
 30
0.0
 10
16.9302674706
 20
52.6001785597
 30
0.0
 10
17.1991448734
 20
52.595437331
 30
0.0
 10
17.3353359303
 20
52.5954279378
 30
0.0
  0
SPLINE
  5
23C
100
AcDbEntity
  8
0
100
AcDbSpline
 62
7
  6
BYLAYER
 70
0
 71
3
 72
15
 73
11
 74
0
 42
0.0000001
 43
0.0000001
 44
0.0000000001
 40
0.0
 40
0.0
 40
0.0
 40
0.0
 40
0.0730015523
 40
0.1451145375
 40
0.2157344101
 40
0.2845491126
 40
0.4164124504
 40
0.5414989482
 40
0.7762845218
 40
1.0
 40
1.0
 40
1.0
 40
1.0
 10
52.3353359301
 20
51.9078427158
 30
0.0
 10
52.344196781
 20
51.9369401395
 30
0.0
 10
52.3638009351
 20
51.9942236231
 30
0.0
 10
52.4008083689
 20
52.0762851616
 30
0.0
 10
52.4443604083
 20
52.1530618811
 30
0.0
 10
52.5087374104
 20
52.2461223961
 30
0.0
 10
52.600312568
 20
52.3473251552
 30
0.0
 10
52.7616948703
 20
52.4747803176
 30
0.0
 10
52.9853577162
 20
52.5794913286
 30
0.0
 10
53.1773411553
 20
52.6078423951
 30
0.0
 10
53.270554013
 20
52.6078427158
 30
0.0
  0
SPLINE
  5
23D
100
AcDbEntity
  8
0
100
AcDbSpline
 62
7
  6
BYLAYER
 70
0
 71
3
 72
9
 73
5
 74
0
 42
0.0000001
 43
0.0000001
 44
0.0000000001
 40
0.0
 40
0.0
 40
0.0
 40
0.0
 40
0.5318644653
 40
1.0
 40
1.0
 40
1.0
 40
1.0
 10
7.3824919283
 20
52.3078427158
 30
0.0
 10
7.3792032314
 20
52.3349052074
 30
0.0
 10
7.3795124205
 20
52.3869488623
 30
0.0
 10
7.3945539899
 20
52.4367053365
 30
0.0
 10
7.4045577928
 20
52.4585155755
 30
0.0
  0
SPLINE
  5
23E
100
AcDbEntity
  8
0
100
AcDbSpline
 62
7
  6
BYLAYER
 70
0
 71
3
 72
11
 73
7
 74
0
 42
0.0000001
 43
0.0000001
 44
0.0000000001
 40
0.0
 40
0.0
 40
0.0
 40
0.0
 40
0.263144326
 40
0.5112134388
 40
0.7543532577
 40
1.0
 40
1.0
 40
1.0
 40
1.0
 10
7.4045577928
 20
52.4585155755
 30
0.0
 10
7.4154809507
 20
52.4823301874
 30
0.0
 10
7.443927006
 20
52.5257371921
 30
0.0
 10
7.5032778256
 20
52.5735183519
 30
0.0
 10
7.5719454281
 20
52.6018399121
 30
0.0
 10
7.6208778812
 20
52.6078427158
 30
0.0
 10
7.6453359301
 20
52.6078427158
 30
0.0
  0
SPLINE
  5
23F
100
AcDbEntity
  8
0
100
AcDbSpline
 62
7
  6
BYLAYER
 70
0
 71
3
 72
13
 73
9
 74
0
 42
0.0000001
 43
0.0000001
 44
0.0000000001
 40
0.0
 40
0.0
 40
0.0
 40
0.0
 40
0.395509846
 40
0.5569388746
 40
0.6929545356
 40
0.8035852885
 40
0.8896138772
 40
1.0
 40
1.0
 40
1.0
 40
1.0
 10
9.3448408664
 20
36.7560179687
 30
0.0
 10
9.3411533645
 20
36.7347109215
 30
0.0
 10
9.335255812
 20
36.7048094881
 30
0.0
 10
9.325336124
 20
36.6682056766
 30
0.0
 10
9.3182701027
 20
36.6470798677
 30
0.0
 10
9.3108591542
 20
36.6302650812
 30
0.0
 10
9.3025701739
 20
36.6161580465
 30
0.0
 10
9.2930926084
 20
36.6078426604
 30
0.0
 10
9.2870574479
 20
36.6078427158
 30
0.0
  0
SPLINE
  5
240
100
AcDbEntity
  8
0
100
AcDbSpline
 62
7
  6
BYLAYER
 70
0
 71
3
 72
12
 73
8
 74
0
 42
0.0000001
 43
0.0000001
 44
0.0000000001
 40
0.0
 40
0.0
 40
0.0
 40
0.0
 40
0.2850422832
 40
0.5565106023
 40
0.8006364425
 40
0.9069953882
 40
1.0
 40
1.0
 40
1.0
 40
1.0
 10
9.5394526006
 20
37.3078434638
 30
0.0
 10
9.5185955134
 20
37.2562300444
 30
0.0
 10
9.477835463
 20
37.1554722965
 30
0.0
 10
9.4212354067
 20
37.0097184654
 30
0.0
 10
9.3806660618
 20
36.8951485631
 30
0.0
 10
9.3565612852
 20
36.8119338228
 30
0.0
 10
9.3479445356
 20
36.7739143268
 30
0.0
 10
9.3448392566
 20
36.7560180745
 30
0.0
  0
SPLINE
  5
241
100
AcDbEntity
  8
0
100
AcDbSpline
 62
7
  6
BYLAYER
 70
0
 71
3
 72
9
 73
5
 74
0
 42
0.0000001
 43
0.0000001
 44
0.0000000001
 40
0.0
 40
0.0
 40
0.0
 40
0.0
 40
0.5064660227
 40
1.0
 40
1.0
 40
1.0
 40
1.0
 10
17.3353359274
 20
36.6202574939
 30
0.0
 10
17.1991455035
 20
36.6202426672
 30
0.0
 10
16.9302680902
 20
36.6155076274
 30
0.0
 10
16.6614355942
 20
36.6078557057
 30
0.0
 10
16.5287226409
 20
36.6078427158
 30
0.0
  0
SPLINE
  5
242
100
AcDbEntity
  8
0
100
AcDbSpline
 62
7
  6
BYLAYER
 70
0
 71
3
 72
9
 73
5
 74
0
 42
0.0000001
 43
0.0000001
 44
0.0000000001
 40
0.0
 40
0.0
 40
0.0
 40
0.0
 40
0.4935290487
 40
1.0
 40
1.0
 40
1.0
 40
1.0
 10
18.1419492191
 20
36.6078427158
 30
0.0
 10
18.0092375891
 20
36.6078555208
 30
0.0
 10
17.740405147
 20
36.6155101411
 30
0.0
 10
17.4715276788
 20
36.6202449554
 30
0.0
 10
17.3353359274
 20
36.6202574939
 30
0.0
  0
SPLINE
  5
243
100
AcDbEntity
  8
0
100
AcDbSpline
 62
7
  6
BYLAYER
 70
0
 71
3
 72
13
 73
9
 74
0
 42
0.0000001
 43
0.0000001
 44
0.0000000001
 40
0.0
 40
0.0
 40
0.0
 40
0.0
 40
0.2424023859
 40
0.3723550875
 40
0.5042706712
 40
0.6354664967
 40
0.7634667998
 40
1.0
 40
1.0
 40
1.0
 40
1.0
 10
8.9948627309
 20
36.9078427158
 30
0.0
 10
8.9948627309
 20
36.8704034028
 30
0.0
 10
9.0055735688
 20
36.8121391967
 30
0.0
 10
9.0410738719
 20
36.7424068706
 30
0.0
 10
9.0787927001
 20
36.6942606575
 30
0.0
 10
9.125684136
 20
36.6554497372
 30
0.0
 10
9.1934419226
 20
36.6189947069
 30
0.0
 10
9.2505245881
 20
36.607842716
 30
0.0
 10
9.2870573991
 20
36.6078427158
 30
0.0
  0
SPLINE
  5
244
100
AcDbEntity
  8
0
100
AcDbSpline
 62
7
  6
BYLAYER
 70
0
 71
3
 72
13
 73
9
 74
0
 42
0.0000001
 43
0.0000001
 44
0.0000000001
 40
0.0
 40
0.0
 40
0.0
 40
0.0
 40
0.2170065456
 40
0.3403987269
 40
0.4711676754
 40
0.6064186997
 40
0.7423149481
 40
1.0
 40
1.0
 40
1.0
 40
1.0
 10
9.052920616
 20
36.9925137381
 30
0.0
 10
9.0579079023
 20
36.9640266544
 30
0.0
 10
9.075472652
 20
36.9206767912
 30
0.0
 10
9.1134575661
 20
36.8704751064
 30
0.0
 10
9.1512315542
 20
36.8345121761
 30
0.0
 10
9.1956600013
 20
36.8042071179
 30
0.0
 10
9.2590817403
 20
36.7730970873
 30
0.0
 10
9.3107234904
 20
36.7599372281
 30
0.0
 10
9.3448405623
 20
36.7560170048
 30
0.0
  0
SPLINE
  5
245
100
AcDbEntity
  8
0
100
AcDbSpline
 62
7
  6
BYLAYER
 70
0
 71
3
 72
13
 73
9
 74
0
 42
0.0000001
 43
0.0000001
 44
0.0000000001
 40
0.0
 40
0.0
 40
0.0
 40
0.0
 40
0.0691498705
 40
0.1600136386
 40
0.2702716606
 40
0.3968162063
 40
0.6856699823
 40
1.0
 40
1.0
 40
1.0
 40
1.0
 10
9.052920616
 20
36.9925137381
 30
0.0
 10
9.0609955676
 20
37.0032167885
 30
0.0
 10
9.0832141462
 20
37.0251970757
 30
0.0
 10
9.124295064
 20
37.0577183186
 30
0.0
 10
9.1765933585
 20
37.0938732295
 30
0.0
 10
9.2625772084
 20
37.1486015745
 30
0.0
 10
9.3846047378
 20
37.220282111
 30
0.0
 10
9.486459501
 20
37.2777438145
 30
0.0
 10
9.5394538598
 20
37.3078427158
 30
0.0
  0
SPLINE
  5
246
100
AcDbEntity
  8
0
100
AcDbSpline
 62
7
  6
BYLAYER
 70
0
 71
3
 72
13
 73
9
 74
0
 42
0.0000001
 43
0.0000001
 44
0.0000000001
 40
0.0
 40
0.0
 40
0.0
 40
0.0
 40
0.3142809406
 40
0.6031596435
 40
0.7297350723
 40
0.8400086129
 40
0.9308635389
 40
1.0
 40
1.0
 40
1.0
 40
1.0
 10
9.5394538598
 20
51.9078427158
 30
0.0
 10
9.4864751471
 20
51.9379499039
 30
0.0
 10
9.384614615
 20
51.9953919636
 30
0.0
 10
9.2625877423
 20
52.0670764321
 30
0.0
 10
9.1765923105
 20
52.1218123777
 30
0.0
 10
9.1242884692
 20
52.157971963
 30
0.0
 10
9.083208539
 20
52.1904927107
 30
0.0
 10
9.0609946843
 20
52.2124712322
 30
0.0
 10
9.052920616
 20
52.2231716935
 30
0.0
  0
SPLINE
  5
247
100
AcDbEntity
  8
0
100
AcDbSpline
 62
7
  6
BYLAYER
 70
0
 71
3
 72
11
 73
7
 74
0
 42
0.0000001
 43
0.0000001
 44
0.0000000001
 40
0.0
 40
0.0
 40
0.0
 40
0.0
 40
0.3640944165
 40
0.5164043075
 40
0.64864472
 40
1.0
 40
1.0
 40
1.0
 40
1.0
 10
9.052920616
 20
52.2231716935
 30
0.0
 10
9.0491514532
 20
52.2355224053
 30
0.0
 10
9.0431455232
 20
52.25281637
 30
0.0
 10
9.0331186754
 20
52.2737206368
 30
0.0
 10
9.0219661585
 20
52.2926855691
 30
0.0
 10
9.0073239644
 20
52.3078391579
 30
0.0
 10
8.9948627309
 20
52.3078427158
 30
0.0
  0
SPLINE
  5
248
100
AcDbEntity
  8
0
100
AcDbSpline
 62
7
  6
BYLAYER
 70
0
 71
3
 72
11
 73
7
 74
0
 42
0.0000001
 43
0.0000001
 44
0.0000000001
 40
0.0
 40
0.0
 40
0.0
 40
0.0
 40
0.3532735533
 40
0.4856222945
 40
0.6374514868
 40
1.0
 40
1.0
 40
1.0
 40
1.0
 10
8.9948627309
 20
36.907841263
 30
0.0
 10
9.0073830177
 20
36.9078424962
 30
0.0
 10
9.021945128
 20
36.923239592
 30
0.0
 10
9.0331438104
 20
36.9422032418
 30
0.0
 10
9.0431709937
 20
36.9630169778
 30
0.0
 10
9.0491723594
 20
36.980222509
 30
0.0
 10
9.052920818
 20
36.9925125791
 30
0.0
  0
SPLINE
  5
249
100
AcDbEntity
  8
0
100
AcDbSpline
 62
7
  6
BYLAYER
 70
0
 71
3
 72
13
 73
9
 74
0
 42
0.0000001
 43
0.0000001
 44
0.0000000001
 40
0.0
 40
0.0
 40
0.0
 40
0.0
 40
0.2217136768
 40
0.3466971289
 40
0.4782108231
 40
0.6131052983
 40
0.7475972135
 40
1.0
 40
1.0
 40
1.0
 40
1.0
 10
9.052920616
 20
52.2231716935
 30
0.0
 10
9.0580159238
 20
52.2522757898
 30
0.0
 10
9.0761265201
 20
52.2963974644
 30
0.0
 10
9.1150863322
 20
52.3470338744
 30
0.0
 10
9.1533487363
 20
52.3828638485
 30
0.0
 10
9.1978906459
 20
52.4127499761
 30
0.0
 10
9.260660612
 20
52.443037372
 30
0.0
 10
9.3114238976
 20
52.4558286842
 30
0.0
 10
9.3448405657
 20
52.4596684272
 30
0.0
  0
SPLINE
  5
24A
100
AcDbEntity
  8
0
100
AcDbSpline
 62
7
  6
BYLAYER
 70
0
 71
3
 72
13
 73
9
 74
0
 42
0.0000001
 43
0.0000001
 44
0.0000000001
 40
0.0
 40
0.0
 40
0.0
 40
0.0
 40
0.2424018287
 40
0.3723543655
 40
0.5042698867
 40
0.635465768
 40
0.7634662318
 40
1.0
 40
1.0
 40
1.0
 40
1.0
 10
8.9948625891
 20
52.3078427158
 30
0.0
 10
8.9948625762
 20
52.3452819388
 30
0.0
 10
9.005573346
 20
52.403546026
 30
0.0
 10
9.0410734991
 20
52.4732782818
 30
0.0
 10
9.0787922402
 20
52.5214245207
 30
0.0
 10
9.1256836387
 20
52.5602355145
 30
0.0
 10
9.1934414847
 20
52.5966906762
 30
0.0
 10
9.2505242625
 20
52.6078427154
 30
0.0
 10
9.2870571572
 20
52.6078427159
 30
0.0
  0
SPLINE
  5
24B
100
AcDbEntity
  8
0
100
AcDbSpline
 62
7
  6
BYLAYER
 70
0
 71
3
 72
9
 73
5
 74
0
 42
0.0000001
 43
0.0000001
 44
0.0000000001
 40
0.0
 40
0.0
 40
0.0
 40
0.0
 40
0.5317941437
 40
1.0
 40
1.0
 40
1.0
 40
1.0
 10
7.3824919283
 20
36.9078427158
 30
0.0
 10
7.3792100867
 20
36.8808366358
 30
0.0
 10
7.3795276507
 20
36.8288949045
 30
0.0
 10
7.3945172521
 20
36.7792350404
 30
0.0
 10
7.4044769386
 20
36.7574521719
 30
0.0
  0
SPLINE
  5
24C
100
AcDbEntity
  8
0
100
AcDbSpline
 62
7
  6
BYLAYER
 70
0
 71
3
 72
9
 73
5
 74
0
 42
0.0000001
 43
0.0000001
 44
0.0000000001
 40
0.0
 40
0.0
 40
0.0
 40
0.0
 40
0.2580676364
 40
1.0
 40
1.0
 40
1.0
 40
1.0
 10
7.4044769386
 20
36.7574521719
 30
0.0
 10
7.407008931
 20
36.7519144417
 30
0.0
 10
7.417546786
 20
36.7307961013
 30
0.0
 10
7.4310100072
 20
36.7111341512
 30
0.0
 10
7.4423841677
 20
36.6978267581
 30
0.0
  0
SPLINE
  5
24D
100
AcDbEntity
  8
0
100
AcDbSpline
 62
7
  6
BYLAYER
 70
0
 71
3
 72
11
 73
7
 74
0
 42
0.0000001
 43
0.0000001
 44
0.0000000001
 40
0.0
 40
0.0
 40
0.0
 40
0.0
 40
0.2542671323
 40
0.5024529627
 40
0.7497202032
 40
1.0
 40
1.0
 40
1.0
 40
1.0
 10
7.4423841677
 20
36.6978267581
 30
0.0
 10
7.4549771079
 20
36.683093433
 30
0.0
 10
7.4834290969
 20
36.656833972
 30
0.0
 10
7.5335169858
 20
36.6283947656
 30
0.0
 10
7.5882146649
 20
36.6114781325
 30
0.0
 10
7.6262580988
 20
36.6078427158
 30
0.0
 10
7.6453359301
 20
36.6078427158
 30
0.0
  0
SPLINE
  5
24E
100
AcDbEntity
  8
0
100
AcDbSpline
 62
7
  6
BYLAYER
 70
0
 71
3
 72
15
 73
11
 74
0
 42
0.0000001
 43
0.0000001
 44
0.0000000001
 40
0.0
 40
0.0
 40
0.0
 40
0.0
 40
0.0730051681
 40
0.1451220983
 40
0.21574573
 40
0.2845647674
 40
0.4164360881
 40
0.5415288938
 40
0.7763123894
 40
1.0
 40
1.0
 40
1.0
 40
1.0
 10
52.335318068
 20
37.3078429222
 30
0.0
 10
52.3441756683
 20
37.2787475071
 30
0.0
 10
52.3638037335
 20
37.2214779932
 30
0.0
 10
52.4007986282
 20
37.1394211037
 30
0.0
 10
52.4443446124
 20
37.0626491914
 30
0.0
 10
52.5087147585
 20
36.9695958036
 30
0.0
 10
52.6002745637
 20
36.8683955612
 30
0.0
 10
52.7616252413
 20
36.7409406064
 30
0.0
 10
52.9852277287
 20
36.6362110027
 30
0.0
 10
53.1771709586
 20
36.6078430552
 30
0.0
 10
53.2703588003
 20
36.6078427158
 30
0.0
  0
SPLINE
  5
24F
100
AcDbEntity
  8
0
100
AcDbSpline
 62
7
  6
BYLAYER
 70
0
 71
3
 72
17
 73
13
 74
0
 42
0.0000001
 43
0.0000001
 44
0.0000000001
 40
0.0
 40
0.0
 40
0.0
 40
0.0
 40
0.3568956039
 40
0.5318492779
 40
0.6892193441
 40
0.8181284238
 40
0.8700396355
 40
0.9128725053
 40
0.9463606387
 40
0.9711250286
 40
0.988297622
 40
1.0
 40
1.0
 40
1.0
 40
1.0
 10
53.3977441048
 20
37.2073548918
 30
0.0
 10
53.3911742998
 20
37.1337723177
 30
0.0
 10
53.3790329519
 20
37.0242967365
 30
0.0
 10
53.3575681242
 20
36.8832379722
 30
0.0
 10
53.3401424666
 20
36.7893504782
 30
0.0
 10
53.3241619895
 20
36.7211447135
 30
0.0
 10
53.3110294957
 20
36.6767371075
 30
0.0
 10
53.302229629
 20
36.6516798851
 30
0.0
 10
53.2938628615
 20
36.6324683714
 30
0.0
 10
53.2859188045
 20
36.618963613
 30
0.0
 10
53.2786150867
 20
36.610488637
 30
0.0
 10
53.2727819602
 20
36.6078431075
 30
0.0
 10
53.2703596371
 20
36.6078427159
 30
0.0
  0
SPLINE
  5
250
100
AcDbEntity
  8
0
100
AcDbSpline
 62
7
  6
BYLAYER
 70
0
 71
3
 72
15
 73
11
 74
0
 42
0.0000001
 43
0.0000001
 44
0.0000000001
 40
0.0
 40
0.0
 40
0.0
 40
0.0
 40
0.1533236262
 40
0.3122702936
 40
0.4692701844
 40
0.615412239
 40
0.7429591063
 40
0.8484779727
 40
0.932031666
 40
1.0
 40
1.0
 40
1.0
 40
1.0
 10
54.8868061425
 20
37.0728510682
 30
0.0
 10
54.8845188681
 20
37.0445992877
 30
0.0
 10
54.8775841138
 20
36.9872232626
 30
0.0
 10
54.8603617593
 20
36.9020883234
 30
0.0
 10
54.835622255
 20
36.8201900271
 30
0.0
 10
54.8047928129
 20
36.7465616394
 30
0.0
 10
54.7687205553
 20
36.6861397911
 30
0.0
 10
54.7301287347
 20
36.6415400905
 30
0.0
 10
54.6902108375
 20
36.6144491667
 30
0.0
 10
54.6620799491
 20
36.607842718
 30
0.0
 10
54.6495149624
 20
36.6078427158
 30
0.0
  0
SPLINE
  5
251
100
AcDbEntity
  8
0
100
AcDbSpline
 62
7
  6
BYLAYER
 70
0
 71
3
 72
23
 73
19
 74
0
 42
0.0000001
 43
0.0000001
 44
0.0000000001
 40
0.0
 40
0.0
 40
0.0
 40
0.0
 40
0.2178423077
 40
0.4147522978
 40
0.5872524671
 40
0.6634538546
 40
0.7325205131
 40
0.7941431674
 40
0.848076878
 40
0.8940969983
 40
0.9320082362
 40
0.9616651767
 40
0.9733543013
 40
0.9829314373
 40
0.9903902896
 40
0.9957251565
 40
0.9989303109
 40
1.0
 40
1.0
 40
1.0
 40
1.0
 10
54.8868054809
 20
37.0728511257
 30
0.0
 10
55.0641678036
 20
37.0552412414
 30
0.0
 10
55.4020795389
 20
37.0239840972
 30
0.0
 10
55.8810367718
 20
36.9856513898
 30
0.0
 10
56.2447746334
 20
36.9606152076
 30
0.0
 10
56.5042866742
 20
36.9448125276
 30
0.0
 10
56.6732965967
 20
36.9353487462
 30
0.0
 10
56.8241536531
 20
36.9276074044
 30
0.0
 10
56.9562084301
 20
36.9214297825
 30
0.0
 10
57.0689060544
 20
36.916649093
 30
0.0
 10
57.1617743035
 20
36.9131052545
 30
0.0
 10
57.226583887
 20
36.9108904363
 30
0.0
 10
57.2682282164
 20
36.9096162066
 30
0.0
 10
57.2917214285
 20
36.9089184832
 30
0.0
 10
57.3100166304
 20
36.9084794865
 30
0.0
 10
57.3231062102
 20
36.9080345452
 30
0.0
 10
57.3309601836
 20
36.9080624499
 30
0.0
 10
57.3344636455
 20
36.9077713499
 30
0.0
 10
57.3353359301
 20
36.9078427158
 30
0.0
  0
SPLINE
  5
252
100
AcDbEntity
  8
0
100
AcDbSpline
 62
7
  6
BYLAYER
 70
0
 71
3
 72
12
 73
8
 74
0
 42
0.0000001
 43
0.0000001
 44
0.0000000001
 40
0.0
 40
0.0
 40
0.0
 40
0.0
 40
0.0919326506
 40
0.2070360772
 40
0.4634942414
 40
0.7313421945
 40
1.0
 40
1.0
 40
1.0
 40
1.0
 10
52.3353269866
 20
37.3078431001
 30
0.0
 10
52.3680043534
 20
37.3064861686
 30
0.0
 10
52.4415335761
 20
37.3019991051
 30
0.0
 10
52.6058824917
 20
37.2885752257
 30
0.0
 10
52.8321598492
 20
37.2651017748
 30
0.0
 10
53.1125403735
 20
37.2340808296
 30
0.0
 10
53.3024904913
 20
37.2151969215
 30
0.0
 10
53.3977449058
 20
37.2073577736
 30
0.0
  0
SPLINE
  5
253
100
AcDbEntity
  8
0
100
AcDbSpline
 62
7
  6
BYLAYER
 70
0
 71
3
 72
9
 73
5
 74
0
 42
0.0000001
 43
0.0000001
 44
0.0000000001
 40
0.0
 40
0.0
 40
0.0
 40
0.0
 40
0.5064658827
 40
1.0
 40
1.0
 40
1.0
 40
1.0
 10
17.3353359303
 20
52.5954279378
 30
0.0
 10
17.4715263175
 20
52.5954393217
 30
0.0
 10
17.7404037415
 20
52.6001769755
 30
0.0
 10
18.0092362275
 20
52.6078333098
 30
0.0
 10
18.1419492194
 20
52.6078427158
 30
0.0
  0
SPLINE
  5
254
100
AcDbEntity
  8
0
100
AcDbSpline
 62
7
  6
BYLAYER
 70
0
 71
3
 72
12
 73
8
 74
0
 42
0.0000001
 43
0.0000001
 44
0.0000000001
 40
0.0
 40
0.0
 40
0.0
 40
0.0
 40
0.2686618311
 40
0.5365100069
 40
0.7929649456
 40
0.9080670062
 40
1.0
 40
1.0
 40
1.0
 40
1.0
 10
53.3979438137
 20
52.0083680759
 30
0.0
 10
53.3026711326
 20
52.000522707
 30
0.0
 10
53.1126860037
 20
51.9816270816
 30
0.0
 10
52.8322550618
 20
51.9505946741
 30
0.0
 10
52.6059385181
 20
51.9271152291
 30
0.0
 10
52.4415614607
 20
51.9136881736
 30
0.0
 10
52.3680193237
 20
51.9092000005
 30
0.0
 10
52.3353359309
 20
51.9078426978
 30
0.0
  0
SPLINE
  5
255
100
AcDbEntity
  8
0
100
AcDbSpline
 62
7
  6
BYLAYER
 70
0
 71
3
 72
23
 73
19
 74
0
 42
0.0000001
 43
0.0000001
 44
0.0000000001
 40
0.0
 40
0.0
 40
0.0
 40
0.0
 40
0.0010696877
 40
0.0042748415
 40
0.0096097119
 40
0.0170685751
 40
0.0266457323
 40
0.0383348857
 40
0.0679918713
 40
0.1059031755
 40
0.151923397
 40
0.2058571881
 40
0.2674799319
 40
0.3365466366
 40
0.4127480086
 40
0.5852480821
 40
0.782157986
 40
1.0
 40
1.0
 40
1.0
 40
1.0
 10
57.3353359301
 20
52.3078427159
 30
0.0
 10
57.3344637825
 20
52.3079157083
 30
0.0
 10
57.3309600187
 20
52.30761975
 30
0.0
 10
57.3231063925
 20
52.307650615
 30
0.0
 10
57.310016692
 20
52.3072014133
 30
0.0
 10
57.2917216336
 20
52.3067609452
 30
0.0
 10
57.2682284645
 20
52.3060597633
 30
0.0
 10
57.2265842907
 20
52.3047806248
 30
0.0
 10
57.1617749246
 20
52.3025585186
 30
0.0
 10
57.068906984
 20
52.2990058476
 30
0.0
 10
56.9562097091
 20
52.2942160619
 30
0.0
 10
56.8241553131
 20
52.2880297966
 30
0.0
 10
56.6732986949
 20
52.2802808692
 30
0.0
 10
56.5042892572
 20
52.2708112081
 30
0.0
 10
56.2447779547
 20
52.255003677
 30
0.0
 10
55.881040638
 20
52.2299704512
 30
0.0
 10
55.4020830144
 20
52.1916570437
 30
0.0
 10
55.0641698056
 20
52.1604254445
 30
0.0
 10
54.886806254
 20
52.1428330329
 30
0.0
  0
SPLINE
  5
256
100
AcDbEntity
  8
0
100
AcDbSpline
 62
7
  6
BYLAYER
 70
0
 71
3
 72
12
 73
8
 74
0
 42
0.0000001
 43
0.0000001
 44
0.0000000001
 40
0.0
 40
0.0
 40
0.0
 40
0.0
 40
0.0930016403
 40
0.1993617034
 40
0.4434886148
 40
0.7149462297
 40
1.0
 40
1.0
 40
1.0
 40
1.0
 10
9.3448388572
 20
52.4596682874
 30
0.0
 10
9.3479439193
 20
52.4417725615
 30
0.0
 10
9.3565606906
 20
52.4037533784
 30
0.0
 10
9.3806655121
 20
52.3205386983
 30
0.0
 10
9.4212339179
 20
52.2059700539
 30
0.0
 10
9.4778342338
 20
52.0602157012
 30
0.0
 10
9.5185944916
 20
51.9594577147
 30
0.0
 10
9.5394523033
 20
51.9078420869
 30
0.0
  0
SPLINE
  5
257
100
AcDbEntity
  8
0
100
AcDbSpline
 62
7
  6
BYLAYER
 70
0
 71
3
 72
17
 73
13
 74
0
 42
0.0000001
 43
0.0000001
 44
0.0000000001
 40
0.0
 40
0.0
 40
0.0
 40
0.0
 40
0.3568629822
 40
0.5318128834
 40
0.6891875333
 40
0.8181072188
 40
0.8700244816
 40
0.912862971
 40
0.9463556682
 40
0.9711232218
 40
0.9882973748
 40
1.0
 40
1.0
 40
1.0
 40
1.0
 10
53.3979571546
 20
52.0083692887
 30
0.0
 10
53.3913845364
 20
52.0819406445
 30
0.0
 10
53.379239434
 20
52.191401946
 30
0.0
 10
53.3577711331
 20
52.3324453643
 30
0.0
 10
53.3403427638
 20
52.4263292695
 30
0.0
 10
53.3243603215
 20
52.4945350115
 30
0.0
 10
53.3112265163
 20
52.5389443084
 30
0.0
 10
53.3024257913
 20
52.564003198
 30
0.0
 10
53.2940583956
 20
52.5832161599
 30
0.0
 10
53.2861138856
 20
52.5967218587
 30
0.0
 10
53.278810164
 20
52.6051973207
 30
0.0
 10
53.2729767149
 20
52.6078427294
 30
0.0
 10
53.2705544773
 20
52.6078427186
 30
0.0
  0
ENDSEC
  0
SECTION
  2
OBJECTS
  0
DICTIONARY
  5
C
100
AcDbDictionary
280
0
281
1
  3
ACAD_GROUP
350
D
  3
ACAD_MLINESTYLE
350
17
  3
ACAD_LAYOUT
350
1A
  3
ACAD_PLOTSETTINGS
350
19
  3
ACAD_PLOTSTYLENAME
350
E
  0
DICTIONARY
  5
D
102
{ACAD_REACTORS
330
C
102
}
100
AcDbDictionary
280
0
281
1
  0
ACDBDICTIONARYWDFLT
  5
E
102
{ACAD_REACTORS
330
C
102
}
100
AcDbDictionary
281
1
  3
Normal
350
F
100
AcDbDictionaryWithDefault
340
F
  0
DICTIONARY
  5
17
102
{ACAD_REACTORS
330
C
102
}
100
AcDbDictionary
280
0
281
1
  3
Standard
350
18
  0
DICTIONARY
  5
19
102
{ACAD_REACTORS
330
C
102
}
100
AcDbDictionary
281
1
  0
DICTIONARY
  5
1A
102
{ACAD_REACTORS
330
C
102
}
100
AcDbDictionary
281
1
  3
Model
350
258
  3
Layout1
350
259
  0
ACDBPLACEHOLDER
  5
F
102
{ACAD_REACTORS
330
E
102
}
  0
MLINESTYLE
  5
18
102
{ACAD_REACTORS
330
17
102
}
100
AcDbMlineStyle
  2
STANDARD
 70
0
  3

 62
256
 51
90.0
 52
90.0
 71
2
 49
0.5
 62
256
  6
BYLAYER
 49
-0.5
 62
256
  6
BYLAYER
  0
LAYOUT
  5
258
102
{ACAD_REACTORS
330
1A
102
}
100
AcDbPlotSettings
  1

  2
none_device
  4

  6

 40
0.0
 41
0.0
 42
0.0
 43
0.0
 44
210.0
 45
297.0
 46
0.0
 47
0.0
 48
0.0
 49
0.0
140
0.0
141
0.0
142
1.0
143
1.0
 70
1024
 72
1
 73
0
 74
0
  7

 75
0
147
1.0
148
0.0
149
0.0
100
AcDbLayout
  1
Model
 70
0
 71
0
 10
0.0
 20
0.0
 11
210.0
 21
297.0
 12
0.0
 22
0.0
 32
0.0
 14
0.0
 24
0.0
 34
0.0
 15
0.0
 25
0.0
 35
0.0
146
0.0
 13
0.0
 23
0.0
 33
0.0
 16
1.0
 26
0.0
 36
0.0
 17
0.0
 27
1.0
 37
0.0
 76
0
330
210
345
0
346
0
  0
LAYOUT
  5
259
102
{ACAD_REACTORS
330
1A
102
}
100
AcDbPlotSettings
  1

  2
none_device
  4

  6

 40
0.0
 41
0.0
 42
0.0
 43
0.0
 44
210.0
 45
297.0
 46
0.0
 47
0.0
 48
0.0
 49
0.0
140
0.0
141
0.0
142
1.0
143
1.0
 70
0
 72
1
 73
0
 74
0
  7

 75
0
147
1.0
148
0.0
149
0.0
100
AcDbLayout
  1
Layout1
 70
0
 71
1
 10
0.0
 20
0.0
 11
210.0
 21
297.0
 12
0.0
 22
0.0
 32
0.0
 14
0.0
 24
0.0
 34
0.0
 15
0.0
 25
0.0
 35
0.0
146
0.0
 13
0.0
 23
0.0
 33
0.0
 16
1.0
 26
0.0
 36
0.0
 17
0.0
 27
1.0
 37
0.0
 76
0
330
211
345
0
346
0
  0
ENDSEC
  0
EOF
