999
DXF file: C:\Users\sesa63760\Dev\_Creo\CAD\MCADID0000550_3D-CAD\drw0001_7.dxf
999
Pro/ENGINEER 2019471 by Parametric Technology Corporation
  0
SECTION
  2
HEADER
  9
$ACADVER
  1
AC1024
  9
$DWGCODEPAGE
  3
ANSI_1252
  9
$EXTMAX
 10
266.4596364381
 20
376.8500572482
 30
0.0
  9
$EXTMIN
 10
0.0
 20
0.0
 30
0.0
  9
$LIMMIN
 10
0.0
 20
0.0
  9
$LIMMAX
 10
266.4596364381
 20
376.8500572482
  9
$VIEWCTR
 10
133.229818219
 20
188.4250286241
  9
$VIEWSIZE
 40
376.8500572482
  9
$CLAYER
  8
0
  9
$LTSCALE
 40
24.5650407688
  9
$CELTYPE
  6
BYLAYER
  9
$DIMSCALE
 40
1.0
  9
$DIMASZ
 40
3.172138529
  9
$DIMEXO
 40
1.0
  9
$DIMDLI
 40
16.9722099857
  9
$DIMEXE
 40
1.0
  9
$DIMCEN
 40
4.019733944
  9
$DIMLFAC
 40
1.0
  9
$DIMBLK
  1
_FILLED
  9
$DIMALT
 70
0
  9
$DIMALTF
 40
0.0393700787
  9
$DIMTXT
 40
4.4409939406
  9
$DIMTOL
 70
1
  9
$DIMLIM
 70
0
  9
$DIMTFAC
 40
1.0
  9
$DIMTP
 40
0.01
  9
$DIMTM
 40
0.01
  9
$DIMGAP
 40
0.625
  9
$DIMDSEP
 70
46
  9
$AUNITS
 70
0
  9
$PDMODE
 70
3
  9
$PDSIZE
 40
0.3125
  9
$HANDSEED
  5
2BF
  9
$TILEMODE
 70
1
  9
$MEASUREMENT
 70
1
  9
$INSUNITS
 70
4
  0
ENDSEC
  0
SECTION
  2
CLASSES
  0
CLASS
  1
ACDBDICTIONARYWDFLT
  2
AcDbDictionaryWithDefault
  3
AutoCAD 2000
 90
0
 91
1
280
0
281
0
  0
CLASS
  1
ACDBPLACEHOLDER
  2
AcDbPlaceHolder
  3
AutoCAD 2000
 90
0
 91
1
280
0
281
0
  0
CLASS
  1
LAYOUT
  2
AcDbLayout
  3
AutoCAD 2000
 90
0
 91
0
280
0
281
0
  0
ENDSEC
  0
SECTION
  2
TABLES
  0
TABLE
  2
VPORT
  5
8
100
AcDbSymbolTable
 70
2
  0
VPORT
  5
1F4
100
AcDbSymbolTableRecord
100
AcDbViewportTableRecord
  2
*ACTIVE
 70
0
 10
0.0
 20
0.0
 11
1.0
 21
1.0
 12
133.229818219
 22
188.4250286241
 13
0.0
 23
0.0
 14
1.0
 24
1.0
 15
0.0
 25
0.0
 16
0.0
 26
0.0
 36
1.0
 17
0.0
 27
0.0
 37
0.0
 40
376.8500572482
 41
0.7070707071
 42
50.0
 43
0.0
 44
0.0
 50
0.0
 51
0.0
 71
0
 72
100
 73
1
 74
1
 75
0
 76
0
 77
0
 78
0
  0
ENDTAB
  0
TABLE
  2
LTYPE
  5
5
100
AcDbSymbolTable
 70
6
  0
LTYPE
  5
14
100
AcDbSymbolTableRecord
100
AcDbLinetypeTableRecord
  2
BYBLOCK
 70
0
  3

 72
65
 73
0
 40
0.0
  0
LTYPE
  5
15
100
AcDbSymbolTableRecord
100
AcDbLinetypeTableRecord
  2
BYLAYER
 70
0
  3

 72
65
 73
0
 40
0.0
  0
LTYPE
  5
16
100
AcDbSymbolTableRecord
100
AcDbLinetypeTableRecord
  2
CONTINUOUS
 70
64
  3
Solid line
 72
65
 73
0
 40
0.0
  0
LTYPE
  5
1F5
100
AcDbSymbolTableRecord
100
AcDbLinetypeTableRecord
  2
CENTER
 70
64
  3
____ _ ____ _ ____ _ ____ _ ____ _ ____ _ ____
 72
65
 73
4
 40
0.6
 49
0.375
 74
0
 49
-0.075
 74
0
 49
0.075
 74
0
 49
-0.075
 74
0
  0
LTYPE
  5
1F6
100
AcDbSymbolTableRecord
100
AcDbLinetypeTableRecord
  2
HIDDEN
 70
64
  3
- - - - - - - - - - - - - - - - - - - -
 72
65
 73
2
 40
0.2
 49
0.1
 74
0
 49
-0.1
 74
0
  0
LTYPE
  5
1F7
100
AcDbSymbolTableRecord
100
AcDbLinetypeTableRecord
  2
PHANTOM
 70
64
  3
_____ _ _ _____ _ _ _____ _ _ _____
 72
65
 73
6
 40
0.8
 49
0.45
 74
0
 49
-0.05
 74
0
 49
0.1
 74
0
 49
-0.05
 74
0
 49
0.1
 74
0
 49
-0.05
 74
0
  0
LTYPE
  5
1F8
100
AcDbSymbolTableRecord
100
AcDbLinetypeTableRecord
  2
DOT
 70
64
  3
. . . . . . . . . . . . . . . . . . . .
 72
65
 73
2
 40
0.2
 49
0.1
 74
0
 49
-0.1
 74
0
  0
LTYPE
  5
1F9
100
AcDbSymbolTableRecord
100
AcDbLinetypeTableRecord
  2
DASHED
 70
64
  3
- - - - - - - - - - - - - - - - - - - -
 72
65
 73
2
 40
0.2
 49
0.1
 74
0
 49
-0.1
 74
0
  0
ENDTAB
  0
TABLE
  2
LAYER
  5
2
100
AcDbSymbolTable
 70
36
  0
LAYER
  5
10
100
AcDbSymbolTableRecord
100
AcDbLayerTableRecord
  2
0
 70
0
 62
7
  6
CONTINUOUS
370
-3
390
F
  0
LAYER
  5
1FA
100
AcDbSymbolTableRecord
100
AcDbLayerTableRecord
  2
DEFAULT_1
 70
0
 62
7
  6
CENTER
370
-3
390
F
  0
LAYER
  5
1FB
100
AcDbSymbolTableRecord
100
AcDbLayerTableRecord
  2
DEFAULT_2
 70
0
 62
8
  6
HIDDEN
370
-3
390
F
  0
LAYER
  5
1FC
100
AcDbSymbolTableRecord
100
AcDbLayerTableRecord
  2
DEFAULT_3
 70
0
 62
7
  6
PHANTOM
370
-3
390
F
  0
LAYER
  5
1FD
100
AcDbSymbolTableRecord
100
AcDbLayerTableRecord
  2
00_COMPONENTS
 70
0
 62
7
  6
CONTINUOUS
370
-3
390
F
  0
LAYER
  5
1FE
100
AcDbSymbolTableRecord
100
AcDbLayerTableRecord
  2
01_1_DEFAULT_DATUMS
 70
0
 62
7
  6
CONTINUOUS
370
-3
390
F
  0
LAYER
  5
1FF
100
AcDbSymbolTableRecord
100
AcDbLayerTableRecord
  2
01_PLANES
 70
0
 62
7
  6
CONTINUOUS
370
-3
390
F
  0
LAYER
  5
200
100
AcDbSymbolTableRecord
100
AcDbLayerTableRecord
  2
02_COORD_SYS
 70
0
 62
7
  6
CONTINUOUS
370
-3
390
F
  0
LAYER
  5
201
100
AcDbSymbolTableRecord
100
AcDbLayerTableRecord
  2
03_AXES
 70
0
 62
7
  6
CONTINUOUS
370
-3
390
F
  0
LAYER
  5
202
100
AcDbSymbolTableRecord
100
AcDbLayerTableRecord
  2
04_POINTS
 70
0
 62
7
  6
CONTINUOUS
370
-3
390
F
  0
LAYER
  5
203
100
AcDbSymbolTableRecord
100
AcDbLayerTableRecord
  2
05_CURVES
 70
0
 62
7
  6
CONTINUOUS
370
-3
390
F
  0
LAYER
  5
204
100
AcDbSymbolTableRecord
100
AcDbLayerTableRecord
  2
06_SURFS
 70
0
 62
7
  6
CONTINUOUS
370
-3
390
F
  0
LAYER
  5
205
100
AcDbSymbolTableRecord
100
AcDbLayerTableRecord
  2
07_COSMETICS
 70
0
 62
7
  6
CONTINUOUS
370
-3
390
F
  0
LAYER
  5
206
100
AcDbSymbolTableRecord
100
AcDbLayerTableRecord
  2
10_NOTES
 70
0
 62
7
  6
CONTINUOUS
370
-3
390
F
  0
LAYER
  5
207
100
AcDbSymbolTableRecord
100
AcDbLayerTableRecord
  2
11_NOTES_PUB
 70
0
 62
7
  6
CONTINUOUS
370
-3
390
F
  0
LAYER
  5
208
100
AcDbSymbolTableRecord
100
AcDbLayerTableRecord
  2
13_REF_GTOL
 70
0
 62
7
  6
CONTINUOUS
370
-3
390
F
  0
LAYER
  5
209
100
AcDbSymbolTableRecord
100
AcDbLayerTableRecord
  2
16_MISC
 70
0
 62
7
  6
CONTINUOUS
370
-3
390
F
  0
LAYER
  5
20A
100
AcDbSymbolTableRecord
100
AcDbLayerTableRecord
  2
17_NO_PRINT
 70
0
 62
7
  6
CONTINUOUS
370
-3
390
F
  0
LAYER
  5
20B
100
AcDbSymbolTableRecord
100
AcDbLayerTableRecord
  2
18_DATUM_CAMS_JOINTS
 70
0
 62
7
  6
CONTINUOUS
370
-3
390
F
  0
LAYER
  5
20C
100
AcDbSymbolTableRecord
100
AcDbLayerTableRecord
  2
19_DATUM_FUNCTIONAL
 70
0
 62
7
  6
CONTINUOUS
370
-3
390
F
  0
LAYER
  5
20D
100
AcDbSymbolTableRecord
100
AcDbLayerTableRecord
  2
20_DATUM_KINEMATIC_SCHEME
 70
0
 62
7
  6
CONTINUOUS
370
-3
390
F
  0
ENDTAB
  0
TABLE
  2
STYLE
  5
3
100
AcDbSymbolTable
 70
1
  0
STYLE
  5
11
100
AcDbSymbolTableRecord
100
AcDbTextStyleTableRecord
  2
STANDARD
 70
0
 40
0.0
 41
0.8
 50
0.0
 71
0
 42
0.2
  3
txt
  4

  0
STYLE
  5
20E
100
AcDbSymbolTableRecord
100
AcDbTextStyleTableRecord
  2
TEXTSTYLE_1
 70
0
 40
0.0
 41
0.8
 50
0.0
 71
0
 42
0.2
  3
gdt
  4

  0
ENDTAB
  0
TABLE
  2
VIEW
  5
6
100
AcDbSymbolTable
 70
0
  0
ENDTAB
  0
TABLE
  2
UCS
  5
7
100
AcDbSymbolTable
 70
0
  0
ENDTAB
  0
TABLE
  2
APPID
  5
9
100
AcDbSymbolTable
 70
1
  0
APPID
  5
20F
100
AcDbSymbolTableRecord
100
AcDbRegAppTableRecord
  2
ACAD
 70
0
  0
ENDTAB
  0
TABLE
  2
BLOCK_RECORD
  5
1
100
AcDbSymbolTable
 70
0
  0
BLOCK_RECORD
  5
210
100
AcDbSymbolTableRecord
100
AcDbBlockTableRecord
  2
*Model_Space
  0
BLOCK_RECORD
  5
211
100
AcDbSymbolTableRecord
100
AcDbBlockTableRecord
  2
*Paper_Space
  0
BLOCK_RECORD
  5
212
100
AcDbSymbolTableRecord
100
AcDbBlockTableRecord
  2
_FILLED
  0
ENDTAB
  0
TABLE
  2
DIMSTYLE
  5
A
100
AcDbSymbolTable
 70
1
100
AcDbDimStyleTable
 71
0
  0
DIMSTYLE
105
213
100
AcDbSymbolTableRecord
100
AcDbDimStyleTableRecord
  2
STANDARD
 70
0
  3

  4

 40
1.0
 41
3.172138529
 42
1.0
 43
0.38
 44
1.0
 45
0.0
 46
0.0
 47
0.01
 48
0.01
140
4.4409939406
141
0.09
142
0.0
143
25.4
144
1.0
145
0.0
146
1.0
147
0.625
 71
1
 72
0
 73
0
 74
0
 75
0
 76
0
 77
1
 78
8
 79
2
170
0
171
1
172
0
173
0
174
0
175
0
176
0
177
0
178
0
270
2
179
2
271
2
272
2
273
2
274
2
275
0
280
0
281
0
282
0
283
1
284
8
285
0
286
0
287
3
288
0
340
11
278
46
341
212
342
212
343
212
344
212
  0
ENDTAB
  0
ENDSEC
  0
SECTION
  2
BLOCKS
  0
BLOCK
  5
20
100
AcDbEntity
  8
0
100
AcDbBlockBegin
  2
*Model_Space
 70
0
 10
0.0
 20
0.0
 30
0.0
  3
*Model_Space
  1

  0
ENDBLK
  5
21
100
AcDbEntity
  8
0
100
AcDbBlockEnd
  0
BLOCK
  5
1C
100
AcDbEntity
  8
0
100
AcDbBlockBegin
  2
*Paper_Space
 70
0
 10
0.0
 20
0.0
 30
0.0
  3
*Paper_Space
  1

  0
ENDBLK
  5
1D
100
AcDbEntity
  8
0
100
AcDbBlockEnd
  0
BLOCK
  5
214
100
AcDbEntity
  8
0
100
AcDbBlockBegin
  2
_FILLED
 70
64
 10
0.0
 20
0.0
  3
_FILLED
  1

  0
SOLID
  5
215
100
AcDbEntity
  8
0
  6
BYBLOCK
 62
0
100
AcDbTrace
 10
0.0
 20
0.0
 11
-1.0
 21
0.25
 12
-1.0
 22
-0.25
 13
-1.0
 23
-0.25
  0
ENDBLK
  5
216
100
AcDbEntity
  8
0
  6
BYBLOCK
 62
0
100
AcDbBlockEnd
  0
ENDSEC
  0
SECTION
  2
ENTITIES
  0
LINE
  5
217
100
AcDbEntity
  8
0
100
AcDbLine
 62
7
  6
CONTINUOUS
 10
28.2891672257
 20
163.497550184
 11
28.2891672257
 21
220.697550184
  0
LINE
  5
218
100
AcDbEntity
  8
0
100
AcDbLine
 62
7
  6
CONTINUOUS
 10
31.4013264508
 20
163.497550184
 11
31.4013264508
 21
220.697550184
  0
LINE
  5
219
100
AcDbEntity
  8
0
100
AcDbLine
 62
7
  6
CONTINUOUS
 10
32.0891672257
 20
163.497550184
 11
32.0891672257
 21
220.697550184
  0
LINE
  5
21A
100
AcDbEntity
  8
0
100
AcDbLine
 62
7
  6
CONTINUOUS
 10
33.0394738677
 20
163.497550184
 11
33.0394738677
 21
220.697550184
  0
LINE
  5
21B
100
AcDbEntity
  8
0
100
AcDbLine
 62
7
  6
CONTINUOUS
 10
35.7891672257
 20
163.497550184
 11
35.7891672257
 21
166.997550184
  0
LINE
  5
21C
100
AcDbEntity
  8
0
100
AcDbLine
 62
7
  6
CONTINUOUS
 10
35.7891672257
 20
217.197550184
 11
35.7891672257
 21
220.697550184
  0
LINE
  5
21D
100
AcDbEntity
  8
0
100
AcDbLine
 62
7
  6
CONTINUOUS
 10
41.7891672257
 20
220.697550184
 11
41.7891672257
 21
217.197550184
  0
LINE
  5
21E
100
AcDbEntity
  8
0
100
AcDbLine
 62
7
  6
CONTINUOUS
 10
41.7891672257
 20
166.997550184
 11
41.7891672257
 21
163.497550184
  0
LINE
  5
21F
100
AcDbEntity
  8
0
100
AcDbLine
 62
7
  6
CONTINUOUS
 10
44.7391672257
 20
161.497550184
 11
44.7391672257
 21
163.497550184
  0
LINE
  5
220
100
AcDbEntity
  8
0
100
AcDbLine
 62
7
  6
CONTINUOUS
 10
45.6743880634
 20
212.3724674017
 11
41.3154891199
 21
204.8226329664
  0
LINE
  5
221
100
AcDbEntity
  8
0
100
AcDbLine
 62
7
  6
CONTINUOUS
 10
51.0391672257
 20
159.997550184
 11
51.0391672257
 21
161.497550184
  0
LINE
  5
222
100
AcDbEntity
  8
0
100
AcDbLine
 62
7
  6
CONTINUOUS
 10
51.5391672257
 20
157.997550184
 11
51.5391672257
 21
159.997550184
  0
LINE
  5
223
100
AcDbEntity
  8
0
100
AcDbLine
 62
7
  6
CONTINUOUS
 10
41.3154891199
 20
179.3724674017
 11
45.6743880634
 21
171.8226329664
  0
LINE
  5
224
100
AcDbEntity
  8
0
100
AcDbLine
 62
7
  6
CONTINUOUS
 10
58.5391672257
 20
159.997550184
 11
58.5391672257
 21
157.997550184
  0
LINE
  5
225
100
AcDbEntity
  8
0
100
AcDbLine
 62
7
  6
CONTINUOUS
 10
59.0391672257
 20
161.497550184
 11
59.0391672257
 21
159.997550184
  0
LINE
  5
226
100
AcDbEntity
  8
0
100
AcDbLine
 62
7
  6
CONTINUOUS
 10
45.6743880634
 20
188.3724674017
 11
41.3154891199
 21
180.8226329664
  0
LINE
  5
227
100
AcDbEntity
  8
0
100
AcDbLine
 62
7
  6
CONTINUOUS
 10
49.0392019744
 20
211.2521051226
 11
44.1346122872
 21
206.3475154353
  0
LINE
  5
228
100
AcDbEntity
  8
0
100
AcDbLine
 62
7
  6
CONTINUOUS
 10
41.3154891199
 20
203.3724674017
 11
45.6743880634
 21
195.8226329664
  0
LINE
  5
229
100
AcDbEntity
  8
0
100
AcDbLine
 62
7
  6
CONTINUOUS
 10
63.7891672257
 20
157.997550184
 11
63.5391672257
 21
159.415370639
  0
LINE
  5
22A
100
AcDbEntity
  8
0
100
AcDbLine
 62
7
  6
CONTINUOUS
 10
63.5391672257
 20
161.497550184
 11
63.5391672257
 21
159.415370639
  0
LINE
  5
22B
100
AcDbEntity
  8
0
100
AcDbLine
 62
7
  6
CONTINUOUS
 10
67.7891672257
 20
176.497550184
 11
67.7891672257
 21
192.497550184
  0
LINE
  5
22C
100
AcDbEntity
  8
0
100
AcDbLine
 62
7
  6
CONTINUOUS
 10
68.2891672257
 20
186.4975387227
 11
68.2891672257
 21
182.4975616454
  0
LINE
  5
22D
100
AcDbEntity
  8
0
100
AcDbLine
 62
7
  6
CONTINUOUS
 10
56.903946388
 20
195.8226329664
 11
61.2628453315
 21
203.3724674017
  0
LINE
  5
22E
100
AcDbEntity
  8
0
100
AcDbLine
 62
7
  6
CONTINUOUS
 10
61.2628453315
 20
180.8226329664
 11
56.903946388
 21
188.3724674017
  0
LINE
  5
22F
100
AcDbEntity
  8
0
100
AcDbLine
 62
7
  6
CONTINUOUS
 10
70.2891672257
 20
190.997550184
 11
70.2891672257
 21
177.997550184
  0
LINE
  5
230
100
AcDbEntity
  8
0
100
AcDbLine
 62
7
  6
CONTINUOUS
 10
73.5391672257
 20
161.497550184
 11
73.5391672257
 21
159.415370639
  0
LINE
  5
231
100
AcDbEntity
  8
0
100
AcDbLine
 62
7
  6
CONTINUOUS
 10
56.903946388
 20
171.8226329664
 11
61.2628453315
 21
179.3724674017
  0
LINE
  5
232
100
AcDbEntity
  8
0
100
AcDbLine
 62
7
  6
CONTINUOUS
 10
53.539132477
 20
196.9429952455
 11
58.4437221642
 21
201.8475849328
  0
LINE
  5
233
100
AcDbEntity
  8
0
100
AcDbLine
 62
7
  6
CONTINUOUS
 10
77.2891672257
 20
157.997550184
 11
77.0391672257
 21
159.415370639
  0
LINE
  5
234
100
AcDbEntity
  8
0
100
AcDbLine
 62
7
  6
CONTINUOUS
 10
77.0391672257
 20
161.497550184
 11
77.0391672257
 21
159.415370639
  0
LINE
  5
235
100
AcDbEntity
  8
0
100
AcDbLine
 62
7
  6
CONTINUOUS
 10
73.5391672257
 20
159.415370639
 11
73.2891672257
 21
157.997550184
  0
LINE
  5
236
100
AcDbEntity
  8
0
100
AcDbLine
 62
7
  6
CONTINUOUS
 10
67.7891672257
 20
176.497550184
 11
76.21982416
 21
169.4318567534
  0
LINE
  5
237
100
AcDbEntity
  8
0
100
AcDbLine
 62
7
  6
CONTINUOUS
 10
70.2891672257
 20
177.997550184
 11
71.7891672257
 21
176.497550184
  0
LINE
  5
238
100
AcDbEntity
  8
0
100
AcDbLine
 62
7
  6
CONTINUOUS
 10
61.2628453315
 20
204.8226329664
 11
56.903946388
 21
212.3724674017
  0
LINE
  5
239
100
AcDbEntity
  8
0
100
AcDbLine
 62
7
  6
CONTINUOUS
 10
87.0391672257
 20
161.497550184
 11
87.0391672257
 21
159.415370639
  0
LINE
  5
23A
100
AcDbEntity
  8
0
100
AcDbLine
 62
7
  6
CONTINUOUS
 10
87.2891672257
 20
177.997550184
 11
87.2891672257
 21
190.997550184
  0
LINE
  5
23B
100
AcDbEntity
  8
0
100
AcDbLine
 62
7
  6
CONTINUOUS
 10
89.2891672257
 20
182.4975616454
 11
89.2891672257
 21
186.4975387227
  0
LINE
  5
23C
100
AcDbEntity
  8
0
100
AcDbLine
 62
7
  6
CONTINUOUS
 10
89.7891672257
 20
176.497550184
 11
89.7891672257
 21
192.497550184
  0
LINE
  5
23D
100
AcDbEntity
  8
0
100
AcDbLine
 62
7
  6
CONTINUOUS
 10
71.7891672257
 20
192.497550184
 11
70.2891672257
 21
190.997550184
  0
LINE
  5
23E
100
AcDbEntity
  8
0
100
AcDbLine
 62
7
  6
CONTINUOUS
 10
76.21982416
 20
199.5632436147
 11
67.7891672257
 21
192.497550184
  0
LINE
  5
23F
100
AcDbEntity
  8
0
100
AcDbLine
 62
7
  6
CONTINUOUS
 10
92.3391672257
 20
161.497550184
 11
92.3391672257
 21
163.497550184
  0
LINE
  5
240
100
AcDbEntity
  8
0
100
AcDbLine
 62
7
  6
CONTINUOUS
 10
94.7891672257
 20
163.497550184
 11
94.7891672257
 21
166.997550184
  0
LINE
  5
241
100
AcDbEntity
  8
0
100
AcDbLine
 62
7
  6
CONTINUOUS
 10
94.7891672257
 20
217.197550184
 11
94.7891672257
 21
220.697550184
  0
LINE
  5
242
100
AcDbEntity
  8
0
100
AcDbLine
 62
7
  6
CONTINUOUS
 10
87.0391672257
 20
159.415370639
 11
86.7891672257
 21
157.997550184
  0
LINE
  5
243
100
AcDbEntity
  8
0
100
AcDbLine
 62
7
  6
CONTINUOUS
 10
101.2891672257
 20
166.497550184
 11
101.2891672257
 21
217.697550184
  0
LINE
  5
244
100
AcDbEntity
  8
0
100
AcDbLine
 62
7
  6
CONTINUOUS
 10
103.2891672257
 20
215.897550184
 11
103.2891672257
 21
168.297550184
  0
LINE
  5
245
100
AcDbEntity
  8
0
100
AcDbLine
 62
7
  6
CONTINUOUS
 10
104.7891672257
 20
182.597550184
 11
104.7891672257
 21
174.597550184
  0
LINE
  5
246
100
AcDbEntity
  8
0
100
AcDbLine
 62
7
  6
CONTINUOUS
 10
86.7891672257
 20
157.997550184
 11
77.2891672257
 21
157.997550184
  0
LINE
  5
247
100
AcDbEntity
  8
0
100
AcDbLine
 62
7
  6
CONTINUOUS
 10
73.2891672257
 20
157.997550184
 11
63.7891672257
 21
157.997550184
  0
LINE
  5
248
100
AcDbEntity
  8
0
100
AcDbLine
 62
7
  6
CONTINUOUS
 10
58.5391672257
 20
157.997550184
 11
51.5391672257
 21
157.997550184
  0
LINE
  5
249
100
AcDbEntity
  8
0
100
AcDbLine
 62
7
  6
CONTINUOUS
 10
59.0391672257
 20
159.997550184
 11
51.0391672257
 21
159.997550184
  0
LINE
  5
24A
100
AcDbEntity
  8
0
100
AcDbLine
 62
7
  6
CONTINUOUS
 10
87.2891672257
 20
190.997550184
 11
85.7891672257
 21
192.497550184
  0
LINE
  5
24B
100
AcDbEntity
  8
0
100
AcDbLine
 62
7
  6
CONTINUOUS
 10
106.7891672257
 20
210.347550184
 11
106.7891672257
 21
200.847550184
  0
LINE
  5
24C
100
AcDbEntity
  8
0
100
AcDbLine
 62
7
  6
CONTINUOUS
 10
106.7891672257
 20
196.847550184
 11
106.7891672257
 21
187.347550184
  0
LINE
  5
24D
100
AcDbEntity
  8
0
100
AcDbLine
 62
7
  6
CONTINUOUS
 10
106.7891672257
 20
182.097550184
 11
106.7891672257
 21
175.097550184
  0
LINE
  5
24E
100
AcDbEntity
  8
0
100
AcDbLine
 62
7
  6
CONTINUOUS
 10
85.7891672257
 20
176.497550184
 11
87.2891672257
 21
177.997550184
  0
LINE
  5
24F
100
AcDbEntity
  8
0
100
AcDbLine
 62
7
  6
CONTINUOUS
 10
92.3391672257
 20
161.497550184
 11
44.7391672257
 21
161.497550184
  0
LINE
  5
250
100
AcDbEntity
  8
0
100
AcDbLine
 62
7
  6
CONTINUOUS
 10
28.2891736064
 20
163.497550184
 11
115.2891672257
 21
163.497550184
  0
LINE
  5
251
100
AcDbEntity
  8
0
100
AcDbLine
 62
7
  6
CONTINUOUS
 10
120.7891672257
 20
163.497550184
 11
219.0891672257
 21
163.497550184
  0
LINE
  5
252
100
AcDbEntity
  8
0
100
AcDbLine
 62
7
  6
CONTINUOUS
 10
120.7891672257
 20
163.697550184
 11
115.2891672257
 21
163.697550184
  0
LINE
  5
253
100
AcDbEntity
  8
0
100
AcDbLine
 62
7
  6
CONTINUOUS
 10
115.2891672257
 20
166.497550184
 11
101.2891672257
 21
166.497550184
  0
LINE
  5
254
100
AcDbEntity
  8
0
100
AcDbLine
 62
7
  6
CONTINUOUS
 10
120.7891672257
 20
166.497550184
 11
171.6889796854
 21
166.497550184
  0
LINE
  5
255
100
AcDbEntity
  8
0
100
AcDbLine
 62
7
  6
CONTINUOUS
 10
120.7891672257
 20
166.697550184
 11
115.2891672257
 21
166.697550184
  0
LINE
  5
256
100
AcDbEntity
  8
0
100
AcDbLine
 62
7
  6
CONTINUOUS
 10
219.0891672257
 20
167.097550184
 11
220.6891672257
 21
167.097550184
  0
LINE
  5
257
100
AcDbEntity
  8
0
100
AcDbLine
 62
7
  6
CONTINUOUS
 10
213.2891672257
 20
167.497550184
 11
177.9891672257
 21
167.497550184
  0
LINE
  5
258
100
AcDbEntity
  8
0
100
AcDbLine
 62
7
  6
CONTINUOUS
 10
103.2891672257
 20
168.297550184
 11
101.2891672257
 21
168.297550184
  0
LINE
  5
259
100
AcDbEntity
  8
0
100
AcDbLine
 62
7
  6
CONTINUOUS
 10
89.7891672257
 20
192.497550184
 11
81.3585102914
 21
199.5632436147
  0
LINE
  5
25A
100
AcDbEntity
  8
0
100
AcDbLine
 62
7
  6
CONTINUOUS
 10
115.2891672257
 20
220.697550184
 11
115.2891672257
 21
163.497550184
  0
LINE
  5
25B
100
AcDbEntity
  8
0
100
AcDbLine
 62
7
  6
CONTINUOUS
 10
81.3585102914
 20
169.4318567534
 11
89.7891672257
 21
176.497550184
  0
LINE
  5
25C
100
AcDbEntity
  8
0
100
AcDbLine
 62
7
  6
CONTINUOUS
 10
177.9891672257
 20
168.497550184
 11
219.0891672257
 21
168.497550184
  0
LINE
  5
25D
100
AcDbEntity
  8
0
100
AcDbLine
 62
7
  6
CONTINUOUS
 10
97.7891672257
 20
169.997550184
 11
101.2891672257
 21
169.997550184
  0
LINE
  5
25E
100
AcDbEntity
  8
0
100
AcDbLine
 62
7
  6
CONTINUOUS
 10
55.6480661693
 20
171.097550184
 11
46.9302682822
 21
171.097550184
  0
LINE
  5
25F
100
AcDbEntity
  8
0
100
AcDbLine
 62
7
  6
CONTINUOUS
 10
177.9891672257
 20
173.097550184
 11
213.2891672257
 21
173.097550184
  0
LINE
  5
260
100
AcDbEntity
  8
0
100
AcDbLine
 62
7
  6
CONTINUOUS
 10
104.7891672257
 20
174.597550184
 11
103.2891672257
 21
174.597550184
  0
LINE
  5
261
100
AcDbEntity
  8
0
100
AcDbLine
 62
7
  6
CONTINUOUS
 10
106.7891672257
 20
175.097550184
 11
104.7891672257
 21
175.097550184
  0
LINE
  5
262
100
AcDbEntity
  8
0
100
AcDbLine
 62
7
  6
CONTINUOUS
 10
120.7891672257
 20
163.497550184
 11
120.7891672257
 21
220.697550184
  0
LINE
  5
263
100
AcDbEntity
  8
0
100
AcDbLine
 62
7
  6
CONTINUOUS
 10
71.7891672257
 20
176.497550184
 11
85.7891672257
 21
176.497550184
  0
LINE
  5
264
100
AcDbEntity
  8
0
100
AcDbLine
 62
7
  6
CONTINUOUS
 10
213.2891672257
 20
177.097550184
 11
177.9891672257
 21
177.097550184
  0
LINE
  5
265
100
AcDbEntity
  8
0
100
AcDbLine
 62
7
  6
CONTINUOUS
 10
104.7891672257
 20
182.097550184
 11
106.7891672257
 21
182.097550184
  0
LINE
  5
266
100
AcDbEntity
  8
0
100
AcDbLine
 62
7
  6
CONTINUOUS
 10
67.7891672257
 20
182.497550184
 11
68.2891672257
 21
182.497550184
  0
LINE
  5
267
100
AcDbEntity
  8
0
100
AcDbLine
 62
7
  6
CONTINUOUS
 10
89.2891672257
 20
182.497550184
 11
89.7891672257
 21
182.497550184
  0
LINE
  5
268
100
AcDbEntity
  8
0
100
AcDbLine
 62
7
  6
CONTINUOUS
 10
103.2891672257
 20
182.597550184
 11
104.7891672257
 21
182.597550184
  0
LINE
  5
269
100
AcDbEntity
  8
0
100
AcDbLine
 62
7
  6
CONTINUOUS
 10
68.2891672257
 20
182.997550184
 11
70.2891672257
 21
182.997550184
  0
LINE
  5
26A
100
AcDbEntity
  8
0
100
AcDbLine
 62
7
  6
CONTINUOUS
 10
87.2891672257
 20
182.997550184
 11
89.2891672257
 21
182.997550184
  0
LINE
  5
26B
100
AcDbEntity
  8
0
100
AcDbLine
 62
7
  6
CONTINUOUS
 10
68.2891672257
 20
185.997550184
 11
70.2891672257
 21
185.997550184
  0
LINE
  5
26C
100
AcDbEntity
  8
0
100
AcDbLine
 62
7
  6
CONTINUOUS
 10
87.2891672257
 20
185.997550184
 11
89.2891672257
 21
185.997550184
  0
LINE
  5
26D
100
AcDbEntity
  8
0
100
AcDbLine
 62
7
  6
CONTINUOUS
 10
67.7891672257
 20
186.497550184
 11
68.2891672257
 21
186.497550184
  0
LINE
  5
26E
100
AcDbEntity
  8
0
100
AcDbLine
 62
7
  6
CONTINUOUS
 10
89.2891672257
 20
186.497550184
 11
89.7891672257
 21
186.497550184
  0
LINE
  5
26F
100
AcDbEntity
  8
0
100
AcDbLine
 62
7
  6
CONTINUOUS
 10
103.2891672257
 20
187.097550184
 11
105.3713467708
 21
187.097550184
  0
LINE
  5
270
100
AcDbEntity
  8
0
100
AcDbLine
 62
7
  6
CONTINUOUS
 10
220.6891672257
 20
187.597550184
 11
239.0891672257
 21
187.597550184
  0
LINE
  5
271
100
AcDbEntity
  8
0
100
AcDbLine
 62
7
  6
CONTINUOUS
 10
46.9302682822
 20
189.097550184
 11
55.6480661693
 21
189.097550184
  0
LINE
  5
272
100
AcDbEntity
  8
0
100
AcDbLine
 62
7
  6
CONTINUOUS
 10
106.7891672257
 20
187.347550184
 11
105.3713467708
 21
187.097550184
  0
LINE
  5
273
100
AcDbEntity
  8
0
100
AcDbLine
 62
7
  6
CONTINUOUS
 10
85.7891672257
 20
192.497550184
 11
71.7891672257
 21
192.497550184
  0
LINE
  5
274
100
AcDbEntity
  8
0
100
AcDbLine
 62
7
  6
CONTINUOUS
 10
55.6480661693
 20
195.097550184
 11
46.9302682822
 21
195.097550184
  0
LINE
  5
275
100
AcDbEntity
  8
0
100
AcDbLine
 62
7
  6
CONTINUOUS
 10
220.6891672257
 20
196.597550184
 11
239.0891672257
 21
196.597550184
  0
LINE
  5
276
100
AcDbEntity
  8
0
100
AcDbLine
 62
7
  6
CONTINUOUS
 10
103.2891672257
 20
197.097550184
 11
105.3713467708
 21
197.097550184
  0
LINE
  5
277
100
AcDbEntity
  8
0
100
AcDbLine
 62
7
  6
CONTINUOUS
 10
105.3713467708
 20
197.097550184
 11
106.7891672257
 21
196.847550184
  0
LINE
  5
278
100
AcDbEntity
  8
0
100
AcDbLine
 62
7
  6
CONTINUOUS
 10
103.2891672257
 20
200.597550184
 11
105.3713467708
 21
200.597550184
  0
LINE
  5
279
100
AcDbEntity
  8
0
100
AcDbLine
 62
7
  6
CONTINUOUS
 10
106.7891672257
 20
200.847550184
 11
105.3713467708
 21
200.597550184
  0
LINE
  5
27A
100
AcDbEntity
  8
0
100
AcDbLine
 62
7
  6
CONTINUOUS
 10
177.9891672257
 20
207.097550184
 11
213.2891672257
 21
207.097550184
  0
LINE
  5
27B
100
AcDbEntity
  8
0
100
AcDbLine
 62
7
  6
CONTINUOUS
 10
103.2891672257
 20
210.597550184
 11
105.3713467708
 21
210.597550184
  0
LINE
  5
27C
100
AcDbEntity
  8
0
100
AcDbLine
 62
7
  6
CONTINUOUS
 10
213.2891672257
 20
211.097550184
 11
177.9891672257
 21
211.097550184
  0
LINE
  5
27D
100
AcDbEntity
  8
0
100
AcDbLine
 62
7
  6
CONTINUOUS
 10
105.3713467708
 20
210.597550184
 11
106.7891672257
 21
210.347550184
  0
LINE
  5
27E
100
AcDbEntity
  8
0
100
AcDbLine
 62
7
  6
CONTINUOUS
 10
160.7891672257
 20
220.697550184
 11
160.7891672257
 21
163.497550184
  0
LINE
  5
27F
100
AcDbEntity
  8
0
100
AcDbLine
 62
7
  6
CONTINUOUS
 10
46.9302682822
 20
213.097550184
 11
55.6480661693
 21
213.097550184
  0
LINE
  5
280
100
AcDbEntity
  8
0
100
AcDbLine
 62
7
  6
CONTINUOUS
 10
101.2891672257
 20
214.197550184
 11
97.7891672257
 21
214.197550184
  0
LINE
  5
281
100
AcDbEntity
  8
0
100
AcDbLine
 62
7
  6
CONTINUOUS
 10
177.9891672257
 20
215.697550184
 11
219.0891672257
 21
215.697550184
  0
LINE
  5
282
100
AcDbEntity
  8
0
100
AcDbLine
 62
7
  6
CONTINUOUS
 10
103.2891672257
 20
215.897550184
 11
101.2891672257
 21
215.897550184
  0
LINE
  5
283
100
AcDbEntity
  8
0
100
AcDbLine
 62
7
  6
CONTINUOUS
 10
177.9891672257
 20
216.697550184
 11
213.2891672257
 21
216.697550184
  0
LINE
  5
284
100
AcDbEntity
  8
0
100
AcDbLine
 62
7
  6
CONTINUOUS
 10
219.0891672257
 20
217.097550184
 11
220.6891672257
 21
217.097550184
  0
LINE
  5
285
100
AcDbEntity
  8
0
100
AcDbLine
 62
7
  6
CONTINUOUS
 10
120.7891672257
 20
217.497550184
 11
115.2891672257
 21
217.497550184
  0
LINE
  5
286
100
AcDbEntity
  8
0
100
AcDbLine
 62
7
  6
CONTINUOUS
 10
115.2891672257
 20
217.697550184
 11
101.2891672257
 21
217.697550184
  0
LINE
  5
287
100
AcDbEntity
  8
0
100
AcDbLine
 62
7
  6
CONTINUOUS
 10
120.7891672257
 20
217.697550184
 11
171.6889796854
 21
217.697550184
  0
LINE
  5
288
100
AcDbEntity
  8
0
100
AcDbLine
 62
7
  6
CONTINUOUS
 10
120.7891672257
 20
220.497550184
 11
115.2891672257
 21
220.497550184
  0
LINE
  5
289
100
AcDbEntity
  8
0
100
AcDbLine
 62
7
  6
CONTINUOUS
 10
28.2891736064
 20
220.697550184
 11
115.2891672257
 21
220.697550184
  0
LINE
  5
28A
100
AcDbEntity
  8
0
100
AcDbLine
 62
7
  6
CONTINUOUS
 10
120.7891672257
 20
220.697550184
 11
219.0891672257
 21
220.697550184
  0
LINE
  5
28B
100
AcDbEntity
  8
0
100
AcDbLine
 62
7
  6
CONTINUOUS
 10
171.6889796854
 20
220.697550184
 11
171.6889796854
 21
217.697550184
  0
LINE
  5
28C
100
AcDbEntity
  8
0
100
AcDbLine
 62
7
  6
CONTINUOUS
 10
171.6889796854
 20
166.497550184
 11
171.6889796854
 21
163.497550184
  0
LINE
  5
28D
100
AcDbEntity
  8
0
100
AcDbLine
 62
7
  6
CONTINUOUS
 10
177.9891672257
 20
163.497550184
 11
177.9891672257
 21
220.697550184
  0
LINE
  5
28E
100
AcDbEntity
  8
0
100
AcDbLine
 62
7
  6
CONTINUOUS
 10
171.6889796854
 20
166.497550184
 11
177.9891672257
 21
175.4073608491
  0
LINE
  5
28F
100
AcDbEntity
  8
0
100
AcDbLine
 62
7
  6
CONTINUOUS
 10
171.6889796854
 20
217.697550184
 11
177.9891672257
 21
208.787739519
  0
LINE
  5
290
100
AcDbEntity
  8
0
100
AcDbLine
 62
7
  6
CONTINUOUS
 10
200.4891672257
 20
220.697550184
 11
200.4891672257
 21
163.497550184
  0
LINE
  5
291
100
AcDbEntity
  8
0
100
AcDbLine
 62
7
  6
CONTINUOUS
 10
213.2891672257
 20
163.497550184
 11
213.2891672257
 21
177.097550184
  0
LINE
  5
292
100
AcDbEntity
  8
0
100
AcDbLine
 62
7
  6
CONTINUOUS
 10
213.2891672257
 20
207.097550184
 11
213.2891672257
 21
220.697550184
  0
LINE
  5
293
100
AcDbEntity
  8
0
100
AcDbLine
 62
7
  6
CONTINUOUS
 10
219.0891672257
 20
220.697550184
 11
219.0891672257
 21
163.497550184
  0
LINE
  5
294
100
AcDbEntity
  8
0
100
AcDbLine
 62
7
  6
CONTINUOUS
 10
220.6891672257
 20
217.0975363205
 11
220.6891672257
 21
167.0975640476
  0
LINE
  5
295
100
AcDbEntity
  8
0
100
AcDbLine
 62
7
  6
CONTINUOUS
 10
239.0891672257
 20
196.5975452739
 11
239.0891672257
 21
187.5975550942
  0
ARC
  5
296
100
AcDbEntity
  8
0
100
AcDbCircle
 62
7
  6
CONTINUOUS
 10
51.2891672257
 20
180.097550184
 40
10.0
100
AcDbArc
 50
235.8419327632
 51
244.1580672368
  0
ARC
  5
297
100
AcDbEntity
  8
0
100
AcDbCircle
 62
7
  6
CONTINUOUS
 10
51.2891672257
 20
180.097550184
 40
10.0
100
AcDbArc
 50
295.8419327632
 51
304.1580672368
  0
ARC
  5
298
100
AcDbEntity
  8
0
100
AcDbCircle
 62
7
  6
CONTINUOUS
 10
51.2891672257
 20
180.097550184
 40
10.0
100
AcDbArc
 50
355.8419327632
 51
4.1580672368
  0
ARC
  5
299
100
AcDbEntity
  8
0
100
AcDbCircle
 62
7
  6
CONTINUOUS
 10
51.2891672257
 20
180.097550184
 40
10.0
100
AcDbArc
 50
55.8419327632
 51
64.1580672368
  0
ARC
  5
29A
100
AcDbEntity
  8
0
100
AcDbCircle
 62
7
  6
CONTINUOUS
 10
51.2891672257
 20
180.097550184
 40
10.0
100
AcDbArc
 50
115.8419327632
 51
124.1580672368
  0
ARC
  5
29B
100
AcDbEntity
  8
0
100
AcDbCircle
 62
7
  6
CONTINUOUS
 10
51.2891672257
 20
180.097550184
 40
10.0
100
AcDbArc
 50
175.8419327632
 51
184.1580672368
  0
CIRCLE
  5
29C
100
AcDbEntity
  8
0
100
AcDbCircle
 62
7
  6
CONTINUOUS
 10
51.2891672257
 20
180.097550184
 40
7.5
  0
CIRCLE
  5
29D
100
AcDbEntity
  8
0
100
AcDbCircle
 62
7
  6
CONTINUOUS
 10
51.2891672257
 20
180.097550184
 40
6.0
  0
CIRCLE
  5
29E
100
AcDbEntity
  8
0
100
AcDbCircle
 62
7
  6
CONTINUOUS
 10
51.2891672257
 20
180.097550184
 40
5.25
  0
CIRCLE
  5
29F
100
AcDbEntity
  8
0
100
AcDbCircle
 62
7
  6
CONTINUOUS
 10
38.7891672257
 20
166.997550184
 40
3.0
  0
ARC
  5
2A0
100
AcDbEntity
  8
0
100
AcDbCircle
 62
7
  6
CONTINUOUS
 10
51.2891672257
 20
204.097550184
 40
10.0
100
AcDbArc
 50
115.8419327632
 51
124.1580672368
  0
ARC
  5
2A1
100
AcDbEntity
  8
0
100
AcDbCircle
 62
7
  6
CONTINUOUS
 10
51.2891672257
 20
204.097550184
 40
10.0
100
AcDbArc
 50
175.8419327632
 51
184.1580672368
  0
ARC
  5
2A2
100
AcDbEntity
  8
0
100
AcDbCircle
 62
7
  6
CONTINUOUS
 10
51.2891672257
 20
204.097550184
 40
10.0
100
AcDbArc
 50
235.8419327632
 51
244.1580672368
  0
ARC
  5
2A3
100
AcDbEntity
  8
0
100
AcDbCircle
 62
7
  6
CONTINUOUS
 10
51.2891672257
 20
204.097550184
 40
10.0
100
AcDbArc
 50
295.8419327632
 51
304.1580672368
  0
ARC
  5
2A4
100
AcDbEntity
  8
0
100
AcDbCircle
 62
7
  6
CONTINUOUS
 10
51.2891672257
 20
204.097550184
 40
10.0
100
AcDbArc
 50
355.8419327632
 51
4.1580672368
  0
ARC
  5
2A5
100
AcDbEntity
  8
0
100
AcDbCircle
 62
7
  6
CONTINUOUS
 10
51.2891672257
 20
204.097550184
 40
10.0
100
AcDbArc
 50
55.8419327632
 51
64.1580672368
  0
ARC
  5
2A6
100
AcDbEntity
  8
0
100
AcDbCircle
 62
7
  6
CONTINUOUS
 10
51.2891672257
 20
204.097550184
 40
7.5
100
AcDbArc
 50
162.5426751545
 51
287.4573248455
  0
ARC
  5
2A7
100
AcDbEntity
  8
0
100
AcDbCircle
 62
7
  6
CONTINUOUS
 10
51.2891672257
 20
204.097550184
 40
7.5
100
AcDbArc
 50
342.5426751545
 51
107.4573248455
  0
ARC
  5
2A8
100
AcDbEntity
  8
0
100
AcDbCircle
 62
7
  6
CONTINUOUS
 10
51.2891672257
 20
204.097550184
 40
6.75
100
AcDbArc
 50
144.8746877614
 51
305.1253122386
  0
ARC
  5
2A9
100
AcDbEntity
  8
0
100
AcDbCircle
 62
7
  6
CONTINUOUS
 10
51.2891672257
 20
204.097550184
 40
6.75
100
AcDbArc
 50
324.8746877614
 51
125.1253122386
  0
CIRCLE
  5
2AA
100
AcDbEntity
  8
0
100
AcDbCircle
 62
7
  6
CONTINUOUS
 10
51.2891672257
 20
204.097550184
 40
4.0
  0
CIRCLE
  5
2AB
100
AcDbEntity
  8
0
100
AcDbCircle
 62
7
  6
CONTINUOUS
 10
38.7891672257
 20
217.197550184
 40
3.0
  0
ARC
  5
2AC
100
AcDbEntity
  8
0
100
AcDbCircle
 62
7
  6
CONTINUOUS
 10
78.7891672257
 20
172.497550184
 40
4.0
100
AcDbArc
 50
230.0337869562
 51
309.9662130438
  0
ARC
  5
2AD
100
AcDbEntity
  8
0
100
AcDbCircle
 62
7
  6
CONTINUOUS
 10
98.2891672257
 20
166.497550184
 40
3.0
100
AcDbArc
 50
270.0
 51
360.0
  0
CIRCLE
  5
2AE
100
AcDbEntity
  8
0
100
AcDbCircle
 62
7
  6
CONTINUOUS
 10
97.7891672257
 20
166.997550184
 40
3.0
  0
CIRCLE
  5
2AF
100
AcDbEntity
  8
0
100
AcDbCircle
 62
7
  6
CONTINUOUS
 10
78.7891672257
 20
172.497550184
 40
3.0
  0
CIRCLE
  5
2B0
100
AcDbEntity
  8
0
100
AcDbCircle
 62
7
  6
CONTINUOUS
 10
90.2891672257
 20
213.497550184
 40
4.0
  0
ARC
  5
2B1
100
AcDbEntity
  8
0
100
AcDbCircle
 62
7
  6
CONTINUOUS
 10
78.7891672257
 20
196.497550184
 40
4.0
100
AcDbArc
 50
50.0337869562
 51
129.9662130438
  0
ARC
  5
2B2
100
AcDbEntity
  8
0
100
AcDbCircle
 62
7
  6
CONTINUOUS
 10
98.2891672257
 20
217.697550184
 40
3.0
100
AcDbArc
 50
0.0
 51
90.0
  0
CIRCLE
  5
2B3
100
AcDbEntity
  8
0
100
AcDbCircle
 62
7
  6
CONTINUOUS
 10
97.7891672257
 20
217.197550184
 40
3.0
  0
CIRCLE
  5
2B4
100
AcDbEntity
  8
0
100
AcDbCircle
 62
7
  6
CONTINUOUS
 10
78.7891672257
 20
196.497550184
 40
3.0
  0
SPLINE
  5
2B5
100
AcDbEntity
  8
0
100
AcDbSpline
 62
7
  6
CONTINUOUS
 70
0
 71
3
 72
25
 73
21
 74
0
 42
0.0000001
 43
0.0000001
 44
0.0000000001
 40
0.0
 40
0.0
 40
0.0
 40
0.0
 40
0.1293154793
 40
0.1935116852
 40
0.257216253
 40
0.3201776334
 40
0.3819541346
 40
0.4122347892
 40
0.4419789807
 40
0.4711760626
 40
0.4999990206
 40
0.5288219023
 40
0.5580192298
 40
0.587763659
 40
0.6180444095
 40
0.6798210242
 40
0.7427829973
 40
0.8064878662
 40
0.8706842581
 40
1.0
 40
1.0
 40
1.0
 40
1.0
 10
103.2911250083
 20
206.4087898286
 30
0.0
 10
103.5135241958
 20
206.5022523307
 30
0.0
 10
103.8431001035
 20
206.6504421807
 30
0.0
 10
104.2678611191
 20
206.873979329
 30
0.0
 10
104.5733702919
 20
207.0574153871
 30
0.0
 10
104.8596632465
 20
207.2621096676
 30
0.0
 10
105.0738781218
 20
207.4585641325
 30
0.0
 10
105.2158853105
 20
207.6366172507
 30
0.0
 10
105.3010017456
 20
207.7804668073
 30
0.0
 10
105.3578136162
 20
207.9352562048
 30
0.0
 10
105.3780774175
 20
208.0976130786
 30
0.0
 10
105.3577824587
 20
208.2599661691
 30
0.0
 10
105.3009468689
 20
208.4147472035
 30
0.0
 10
105.2158123235
 20
208.5585870577
 30
0.0
 10
105.0737878847
 20
208.7366270479
 30
0.0
 10
104.859563707
 20
208.9330726971
 30
0.0
 10
104.5732598222
 20
209.1377550494
 30
0.0
 10
104.2677450623
 20
209.3211853245
 30
0.0
 10
103.8429788019
 20
209.5447155252
 30
0.0
 10
103.5134009478
 20
209.6929029318
 30
0.0
 10
103.2910001233
 20
209.7863628032
 30
0.0
  0
SPLINE
  5
2B6
100
AcDbEntity
  8
0
100
AcDbSpline
 62
7
  6
CONTINUOUS
 70
0
 71
3
 72
25
 73
21
 74
0
 42
0.0000001
 43
0.0000001
 44
0.0000000001
 40
0.0
 40
0.0
 40
0.0
 40
0.0
 40
0.1293154793
 40
0.1935116852
 40
0.257216253
 40
0.3201776334
 40
0.3819541346
 40
0.4122347892
 40
0.4419789807
 40
0.4711760626
 40
0.4999990206
 40
0.5288219023
 40
0.5580192298
 40
0.587763659
 40
0.6180444095
 40
0.6798210242
 40
0.7427829973
 40
0.8064878662
 40
0.8706842581
 40
1.0
 40
1.0
 40
1.0
 40
1.0
 10
103.2911250083
 20
187.9087898286
 30
0.0
 10
103.5135241958
 20
188.0022523307
 30
0.0
 10
103.8431001035
 20
188.1504421807
 30
0.0
 10
104.2678611191
 20
188.373979329
 30
0.0
 10
104.5733702919
 20
188.5574153871
 30
0.0
 10
104.8596632465
 20
188.7621096676
 30
0.0
 10
105.0738781218
 20
188.9585641325
 30
0.0
 10
105.2158853105
 20
189.1366172507
 30
0.0
 10
105.3010017456
 20
189.2804668073
 30
0.0
 10
105.3578136162
 20
189.4352562048
 30
0.0
 10
105.3780774175
 20
189.5976130786
 30
0.0
 10
105.3577824587
 20
189.7599661691
 30
0.0
 10
105.3009468689
 20
189.9147472035
 30
0.0
 10
105.2158123235
 20
190.0585870577
 30
0.0
 10
105.0737878847
 20
190.2366270479
 30
0.0
 10
104.859563707
 20
190.4330726971
 30
0.0
 10
104.5732598222
 20
190.6377550494
 30
0.0
 10
104.2677450623
 20
190.8211853245
 30
0.0
 10
103.8429788019
 20
191.0447155252
 30
0.0
 10
103.5134009478
 20
191.1929029318
 30
0.0
 10
103.2910001233
 20
191.2863628032
 30
0.0
  0
SPLINE
  5
2B7
100
AcDbEntity
  8
0
100
AcDbSpline
 62
7
  6
CONTINUOUS
 70
0
 71
3
 72
25
 73
21
 74
0
 42
0.0000001
 43
0.0000001
 44
0.0000000001
 40
0.0
 40
0.0
 40
0.0
 40
0.0
 40
0.1293154793
 40
0.1935116852
 40
0.257216253
 40
0.3201776334
 40
0.3819541346
 40
0.4122347892
 40
0.4419789807
 40
0.4711760626
 40
0.4999990206
 40
0.5288219023
 40
0.5580192298
 40
0.587763659
 40
0.6180444095
 40
0.6798210242
 40
0.7427829973
 40
0.8064878662
 40
0.8706842581
 40
1.0
 40
1.0
 40
1.0
 40
1.0
 10
103.2911250083
 20
201.4087898286
 30
0.0
 10
103.5135241958
 20
201.5022523307
 30
0.0
 10
103.8431001035
 20
201.6504421807
 30
0.0
 10
104.2678611191
 20
201.873979329
 30
0.0
 10
104.5733702919
 20
202.0574153871
 30
0.0
 10
104.8596632465
 20
202.2621096676
 30
0.0
 10
105.0738781218
 20
202.4585641325
 30
0.0
 10
105.2158853105
 20
202.6366172507
 30
0.0
 10
105.3010017456
 20
202.7804668073
 30
0.0
 10
105.3578136162
 20
202.9352562048
 30
0.0
 10
105.3780774175
 20
203.0976130786
 30
0.0
 10
105.3577824587
 20
203.2599661691
 30
0.0
 10
105.3009468689
 20
203.4147472035
 30
0.0
 10
105.2158123235
 20
203.5585870577
 30
0.0
 10
105.0737878847
 20
203.7366270479
 30
0.0
 10
104.859563707
 20
203.9330726971
 30
0.0
 10
104.5732598222
 20
204.1377550494
 30
0.0
 10
104.2677450623
 20
204.3211853245
 30
0.0
 10
103.8429788019
 20
204.5447155252
 30
0.0
 10
103.5134009478
 20
204.6929029318
 30
0.0
 10
103.2910001233
 20
204.7863628032
 30
0.0
  0
SPLINE
  5
2B8
100
AcDbEntity
  8
0
100
AcDbSpline
 62
7
  6
CONTINUOUS
 70
0
 71
3
 72
25
 73
21
 74
0
 42
0.0000001
 43
0.0000001
 44
0.0000000001
 40
0.0
 40
0.0
 40
0.0
 40
0.0
 40
0.1293154793
 40
0.1935116852
 40
0.257216253
 40
0.3201776334
 40
0.3819541346
 40
0.4122347892
 40
0.4419789807
 40
0.4711760626
 40
0.4999990206
 40
0.5288219023
 40
0.5580192298
 40
0.587763659
 40
0.6180444095
 40
0.6798210242
 40
0.7427829973
 40
0.8064878662
 40
0.8706842581
 40
1.0
 40
1.0
 40
1.0
 40
1.0
 10
103.2911250083
 20
192.9087898286
 30
0.0
 10
103.5135241958
 20
193.0022523307
 30
0.0
 10
103.8431001035
 20
193.1504421807
 30
0.0
 10
104.2678611191
 20
193.373979329
 30
0.0
 10
104.5733702919
 20
193.5574153871
 30
0.0
 10
104.8596632465
 20
193.7621096676
 30
0.0
 10
105.0738781218
 20
193.9585641325
 30
0.0
 10
105.2158853105
 20
194.1366172507
 30
0.0
 10
105.3010017456
 20
194.2804668073
 30
0.0
 10
105.3578136162
 20
194.4352562048
 30
0.0
 10
105.3780774175
 20
194.5976130786
 30
0.0
 10
105.3577824587
 20
194.7599661691
 30
0.0
 10
105.3009468689
 20
194.9147472035
 30
0.0
 10
105.2158123235
 20
195.0585870577
 30
0.0
 10
105.0737878847
 20
195.2366270479
 30
0.0
 10
104.859563707
 20
195.4330726971
 30
0.0
 10
104.5732598222
 20
195.6377550494
 30
0.0
 10
104.2677450623
 20
195.8211853245
 30
0.0
 10
103.8429788019
 20
196.0447155252
 30
0.0
 10
103.5134009478
 20
196.1929029318
 30
0.0
 10
103.2910001233
 20
196.2863628032
 30
0.0
  0
SPLINE
  5
2B9
100
AcDbEntity
  8
0
100
AcDbSpline
 62
7
  6
CONTINUOUS
 70
0
 71
3
 72
25
 73
21
 74
0
 42
0.0000001
 43
0.0000001
 44
0.0000000001
 40
0.0
 40
0.0
 40
0.0
 40
0.0
 40
0.1293154637
 40
0.1935116611
 40
0.257216218
 40
0.3201775838
 40
0.381954097
 40
0.412234765
 40
0.441978977
 40
0.4711760707
 40
0.4999990449
 40
0.5288219317
 40
0.5580192705
 40
0.587763715
 40
0.6180444701
 40
0.6798210904
 40
0.7427830411
 40
0.8064878959
 40
0.8706842769
 40
1.0
 40
1.0
 40
1.0
 40
1.0
 10
82.8504077288
 20
161.4955903516
 30
0.0
 10
82.9438701716
 20
161.2731914445
 30
0.0
 10
83.0920598778
 20
160.9436159364
 30
0.0
 10
83.3155968289
 20
160.5188554597
 30
0.0
 10
83.4990326925
 20
160.2133466765
 30
0.0
 10
83.7037268409
 20
159.9270541172
 30
0.0
 10
83.9001810397
 20
159.7128393874
 30
0.0
 10
84.0782340284
 20
159.5708322781
 30
0.0
 10
84.2220834862
 20
159.4857158585
 30
0.0
 10
84.3768727682
 20
159.4289039183
 30
0.0
 10
84.5392295144
 20
159.4086400055
 30
0.0
 10
84.7015825195
 20
159.4289347665
 30
0.0
 10
84.85636349
 20
159.4857702067
 30
0.0
 10
85.0002033335
 20
159.5709045359
 30
0.0
 10
85.1782433018
 20
159.7129287063
 30
0.0
 10
85.3746887549
 20
159.9271526224
 30
0.0
 10
85.5793711007
 20
160.2134559818
 30
0.0
 10
85.762801228
 20
160.5189702979
 30
0.0
 10
85.9863313048
 20
160.9437359616
 30
0.0
 10
86.1345185988
 20
161.2733133916
 30
0.0
 10
86.2279784354
 20
161.4957139187
 30
0.0
  0
SPLINE
  5
2BA
100
AcDbEntity
  8
0
100
AcDbSpline
 62
7
  6
CONTINUOUS
 70
0
 71
3
 72
25
 73
21
 74
0
 42
0.0000001
 43
0.0000001
 44
0.0000000001
 40
0.0
 40
0.0
 40
0.0
 40
0.0
 40
0.1293154637
 40
0.1935116611
 40
0.257216218
 40
0.3201775838
 40
0.381954097
 40
0.412234765
 40
0.441978977
 40
0.4711760707
 40
0.4999990449
 40
0.5288219317
 40
0.5580192705
 40
0.587763715
 40
0.6180444701
 40
0.6798210904
 40
0.7427830411
 40
0.8064878959
 40
0.8706842769
 40
1.0
 40
1.0
 40
1.0
 40
1.0
 10
64.3504077288
 20
161.4955903516
 30
0.0
 10
64.4438701716
 20
161.2731914445
 30
0.0
 10
64.5920598778
 20
160.9436159364
 30
0.0
 10
64.8155968289
 20
160.5188554597
 30
0.0
 10
64.9990326925
 20
160.2133466765
 30
0.0
 10
65.2037268409
 20
159.9270541172
 30
0.0
 10
65.4001810397
 20
159.7128393874
 30
0.0
 10
65.5782340284
 20
159.5708322781
 30
0.0
 10
65.7220834862
 20
159.4857158585
 30
0.0
 10
65.8768727682
 20
159.4289039183
 30
0.0
 10
66.0392295144
 20
159.4086400055
 30
0.0
 10
66.2015825195
 20
159.4289347665
 30
0.0
 10
66.35636349
 20
159.4857702067
 30
0.0
 10
66.5002033335
 20
159.5709045359
 30
0.0
 10
66.6782433018
 20
159.7129287063
 30
0.0
 10
66.8746887549
 20
159.9271526224
 30
0.0
 10
67.0793711007
 20
160.2134559818
 30
0.0
 10
67.262801228
 20
160.5189702979
 30
0.0
 10
67.4863313048
 20
160.9437359616
 30
0.0
 10
67.6345185988
 20
161.2733133916
 30
0.0
 10
67.7279784354
 20
161.4957139187
 30
0.0
  0
SPLINE
  5
2BB
100
AcDbEntity
  8
0
100
AcDbSpline
 62
7
  6
CONTINUOUS
 70
0
 71
3
 72
25
 73
21
 74
0
 42
0.0000001
 43
0.0000001
 44
0.0000000001
 40
0.0
 40
0.0
 40
0.0
 40
0.0
 40
0.1293154637
 40
0.1935116611
 40
0.257216218
 40
0.3201775838
 40
0.381954097
 40
0.412234765
 40
0.441978977
 40
0.4711760707
 40
0.4999990449
 40
0.5288219317
 40
0.5580192705
 40
0.587763715
 40
0.6180444701
 40
0.6798210904
 40
0.7427830411
 40
0.8064878959
 40
0.8706842769
 40
1.0
 40
1.0
 40
1.0
 40
1.0
 10
77.8504077288
 20
161.4955903516
 30
0.0
 10
77.9438701716
 20
161.2731914445
 30
0.0
 10
78.0920598778
 20
160.9436159364
 30
0.0
 10
78.3155968289
 20
160.5188554597
 30
0.0
 10
78.4990326925
 20
160.2133466765
 30
0.0
 10
78.7037268409
 20
159.9270541172
 30
0.0
 10
78.9001810397
 20
159.7128393874
 30
0.0
 10
79.0782340284
 20
159.5708322781
 30
0.0
 10
79.2220834862
 20
159.4857158585
 30
0.0
 10
79.3768727682
 20
159.4289039183
 30
0.0
 10
79.5392295144
 20
159.4086400055
 30
0.0
 10
79.7015825195
 20
159.4289347665
 30
0.0
 10
79.85636349
 20
159.4857702067
 30
0.0
 10
80.0002033335
 20
159.5709045359
 30
0.0
 10
80.1782433018
 20
159.7129287063
 30
0.0
 10
80.3746887549
 20
159.9271526224
 30
0.0
 10
80.5793711007
 20
160.2134559818
 30
0.0
 10
80.762801228
 20
160.5189702979
 30
0.0
 10
80.9863313048
 20
160.9437359616
 30
0.0
 10
81.1345185988
 20
161.2733133916
 30
0.0
 10
81.2279784354
 20
161.4957139187
 30
0.0
  0
SPLINE
  5
2BC
100
AcDbEntity
  8
0
100
AcDbSpline
 62
7
  6
CONTINUOUS
 70
0
 71
3
 72
25
 73
21
 74
0
 42
0.0000001
 43
0.0000001
 44
0.0000000001
 40
0.0
 40
0.0
 40
0.0
 40
0.0
 40
0.1293154637
 40
0.1935116611
 40
0.257216218
 40
0.3201775838
 40
0.381954097
 40
0.412234765
 40
0.441978977
 40
0.4711760707
 40
0.4999990449
 40
0.5288219317
 40
0.5580192705
 40
0.587763715
 40
0.6180444701
 40
0.6798210904
 40
0.7427830411
 40
0.8064878959
 40
0.8706842769
 40
1.0
 40
1.0
 40
1.0
 40
1.0
 10
69.3504077288
 20
161.4955903516
 30
0.0
 10
69.4438701716
 20
161.2731914445
 30
0.0
 10
69.5920598778
 20
160.9436159364
 30
0.0
 10
69.8155968289
 20
160.5188554597
 30
0.0
 10
69.9990326925
 20
160.2133466765
 30
0.0
 10
70.2037268409
 20
159.9270541172
 30
0.0
 10
70.4001810397
 20
159.7128393874
 30
0.0
 10
70.5782340284
 20
159.5708322781
 30
0.0
 10
70.7220834862
 20
159.4857158585
 30
0.0
 10
70.8768727682
 20
159.4289039183
 30
0.0
 10
71.0392295144
 20
159.4086400055
 30
0.0
 10
71.2015825195
 20
159.4289347665
 30
0.0
 10
71.35636349
 20
159.4857702067
 30
0.0
 10
71.5002033335
 20
159.5709045359
 30
0.0
 10
71.6782433018
 20
159.7129287063
 30
0.0
 10
71.8746887549
 20
159.9271526224
 30
0.0
 10
72.0793711007
 20
160.2134559818
 30
0.0
 10
72.262801228
 20
160.5189702979
 30
0.0
 10
72.4863313048
 20
160.9437359616
 30
0.0
 10
72.6345185988
 20
161.2733133916
 30
0.0
 10
72.7279784354
 20
161.4957139187
 30
0.0
  0
ENDSEC
  0
SECTION
  2
OBJECTS
  0
DICTIONARY
  5
C
100
AcDbDictionary
280
0
281
1
  3
ACAD_GROUP
350
D
  3
ACAD_MLINESTYLE
350
17
  3
ACAD_LAYOUT
350
1A
  3
ACAD_PLOTSETTINGS
350
19
  3
ACAD_PLOTSTYLENAME
350
E
  0
DICTIONARY
  5
D
102
{ACAD_REACTORS
330
C
102
}
100
AcDbDictionary
280
0
281
1
  0
ACDBDICTIONARYWDFLT
  5
E
102
{ACAD_REACTORS
330
C
102
}
100
AcDbDictionary
281
1
  3
Normal
350
F
100
AcDbDictionaryWithDefault
340
F
  0
DICTIONARY
  5
17
102
{ACAD_REACTORS
330
C
102
}
100
AcDbDictionary
280
0
281
1
  3
Standard
350
18
  0
DICTIONARY
  5
19
102
{ACAD_REACTORS
330
C
102
}
100
AcDbDictionary
281
1
  0
DICTIONARY
  5
1A
102
{ACAD_REACTORS
330
C
102
}
100
AcDbDictionary
281
1
  3
Model
350
2BD
  3
Layout1
350
2BE
  0
ACDBPLACEHOLDER
  5
F
102
{ACAD_REACTORS
330
E
102
}
  0
MLINESTYLE
  5
18
102
{ACAD_REACTORS
330
17
102
}
100
AcDbMlineStyle
  2
STANDARD
 70
0
  3

 62
256
 51
90.0
 52
90.0
 71
2
 49
0.5
 62
256
  6
BYLAYER
 49
-0.5
 62
256
  6
BYLAYER
  0
LAYOUT
  5
2BD
102
{ACAD_REACTORS
330
1A
102
}
100
AcDbPlotSettings
  1

  2
none_device
  4

  6

 40
0.0
 41
0.0
 42
0.0
 43
0.0
 44
210.0
 45
297.0
 46
0.0
 47
0.0
 48
0.0
 49
0.0
140
0.0
141
0.0
142
1.0
143
1.0
 70
1024
 72
1
 73
0
 74
0
  7

 75
0
147
1.0
148
0.0
149
0.0
100
AcDbLayout
  1
Model
 70
0
 71
0
 10
0.0
 20
0.0
 11
210.0
 21
297.0
 12
0.0
 22
0.0
 32
0.0
 14
0.0
 24
0.0
 34
0.0
 15
0.0
 25
0.0
 35
0.0
146
0.0
 13
0.0
 23
0.0
 33
0.0
 16
1.0
 26
0.0
 36
0.0
 17
0.0
 27
1.0
 37
0.0
 76
0
330
210
345
0
346
0
  0
LAYOUT
  5
2BE
102
{ACAD_REACTORS
330
1A
102
}
100
AcDbPlotSettings
  1

  2
none_device
  4

  6

 40
0.0
 41
0.0
 42
0.0
 43
0.0
 44
210.0
 45
297.0
 46
0.0
 47
0.0
 48
0.0
 49
0.0
140
0.0
141
0.0
142
1.0
143
1.0
 70
0
 72
1
 73
0
 74
0
  7

 75
0
147
1.0
148
0.0
149
0.0
100
AcDbLayout
  1
Layout1
 70
0
 71
1
 10
0.0
 20
0.0
 11
210.0
 21
297.0
 12
0.0
 22
0.0
 32
0.0
 14
0.0
 24
0.0
 34
0.0
 15
0.0
 25
0.0
 35
0.0
146
0.0
 13
0.0
 23
0.0
 33
0.0
 16
1.0
 26
0.0
 36
0.0
 17
0.0
 27
1.0
 37
0.0
 76
0
330
211
345
0
346
0
  0
ENDSEC
  0
EOF
