999
DXF file: C:\Users\sesa63760\Dev\_Creo\CAD\MCADID0004321_3D-CAD\drw0001_5.dxf
999
Pro/ENGINEER 2019471 by Parametric Technology Corporation
  0
SECTION
  2
HEADER
  9
$ACADVER
  1
AC1024
  9
$DWGCODEPAGE
  3
ANSI_1252
  9
$EXTMAX
 10
21.0944650588
 20
29.8336005831
 30
0.0
  9
$EXTMIN
 10
0.0
 20
0.0
 30
0.0
  9
$LIMMIN
 10
0.0
 20
0.0
  9
$LIMMAX
 10
21.0944650588
 20
29.8336005831
  9
$VIEWCTR
 10
10.5472325294
 20
14.9168002915
  9
$VIEWSIZE
 40
29.8336005831
  9
$CLAYER
  8
0
  9
$LTSCALE
 40
1.9447087787
  9
$CELTYPE
  6
BYLAYER
  9
$DIMSCALE
 40
1.0
  9
$DIMASZ
 40
0.251124584
  9
$DIMEXO
 40
1.0
  9
$DIMDLI
 40
1.3436169744
  9
$DIMEXE
 40
1.0
  9
$DIMCEN
 40
0.3182250729
  9
$DIMLFAC
 40
1.0
  9
$DIMBLK
  1
_FILLED
  9
$DIMALT
 70
0
  9
$DIMALTF
 40
0.0393700787
  9
$DIMTXT
 40
0.3515744176
  9
$DIMTOL
 70
1
  9
$DIMLIM
 70
0
  9
$DIMTFAC
 40
1.0
  9
$DIMTP
 40
0.01
  9
$DIMTM
 40
0.01
  9
$DIMGAP
 40
0.625
  9
$DIMDSEP
 70
46
  9
$AUNITS
 70
0
  9
$PDMODE
 70
3
  9
$PDSIZE
 40
0.3125
  9
$HANDSEED
  5
2B6
  9
$TILEMODE
 70
1
  9
$MEASUREMENT
 70
1
  9
$INSUNITS
 70
4
  0
ENDSEC
  0
SECTION
  2
CLASSES
  0
CLASS
  1
ACDBDICTIONARYWDFLT
  2
AcDbDictionaryWithDefault
  3
AutoCAD 2000
 90
0
 91
1
280
0
281
0
  0
CLASS
  1
ACDBPLACEHOLDER
  2
AcDbPlaceHolder
  3
AutoCAD 2000
 90
0
 91
1
280
0
281
0
  0
CLASS
  1
LAYOUT
  2
AcDbLayout
  3
AutoCAD 2000
 90
0
 91
0
280
0
281
0
  0
ENDSEC
  0
SECTION
  2
TABLES
  0
TABLE
  2
VPORT
  5
8
100
AcDbSymbolTable
 70
2
  0
VPORT
  5
1F4
100
AcDbSymbolTableRecord
100
AcDbViewportTableRecord
  2
*ACTIVE
 70
0
 10
0.0
 20
0.0
 11
1.0
 21
1.0
 12
10.5472325294
 22
14.9168002915
 13
0.0
 23
0.0
 14
1.0
 24
1.0
 15
0.0
 25
0.0
 16
0.0
 26
0.0
 36
1.0
 17
0.0
 27
0.0
 37
0.0
 40
29.8336005831
 41
0.7070707071
 42
50.0
 43
0.0
 44
0.0
 50
0.0
 51
0.0
 71
0
 72
100
 73
1
 74
1
 75
0
 76
0
 77
0
 78
0
  0
ENDTAB
  0
TABLE
  2
LTYPE
  5
5
100
AcDbSymbolTable
 70
6
  0
LTYPE
  5
14
100
AcDbSymbolTableRecord
100
AcDbLinetypeTableRecord
  2
BYBLOCK
 70
0
  3

 72
65
 73
0
 40
0.0
  0
LTYPE
  5
15
100
AcDbSymbolTableRecord
100
AcDbLinetypeTableRecord
  2
BYLAYER
 70
0
  3

 72
65
 73
0
 40
0.0
  0
LTYPE
  5
16
100
AcDbSymbolTableRecord
100
AcDbLinetypeTableRecord
  2
CONTINUOUS
 70
64
  3
Solid line
 72
65
 73
0
 40
0.0
  0
LTYPE
  5
1F5
100
AcDbSymbolTableRecord
100
AcDbLinetypeTableRecord
  2
CENTER
 70
64
  3
____ _ ____ _ ____ _ ____ _ ____ _ ____ _ ____
 72
65
 73
4
 40
0.6
 49
0.375
 74
0
 49
-0.075
 74
0
 49
0.075
 74
0
 49
-0.075
 74
0
  0
LTYPE
  5
1F6
100
AcDbSymbolTableRecord
100
AcDbLinetypeTableRecord
  2
HIDDEN
 70
64
  3
- - - - - - - - - - - - - - - - - - - -
 72
65
 73
2
 40
0.2
 49
0.1
 74
0
 49
-0.1
 74
0
  0
LTYPE
  5
1F7
100
AcDbSymbolTableRecord
100
AcDbLinetypeTableRecord
  2
PHANTOM
 70
64
  3
_____ _ _ _____ _ _ _____ _ _ _____
 72
65
 73
6
 40
0.8
 49
0.45
 74
0
 49
-0.05
 74
0
 49
0.1
 74
0
 49
-0.05
 74
0
 49
0.1
 74
0
 49
-0.05
 74
0
  0
LTYPE
  5
1F8
100
AcDbSymbolTableRecord
100
AcDbLinetypeTableRecord
  2
DOT
 70
64
  3
. . . . . . . . . . . . . . . . . . . .
 72
65
 73
2
 40
0.2
 49
0.1
 74
0
 49
-0.1
 74
0
  0
LTYPE
  5
1F9
100
AcDbSymbolTableRecord
100
AcDbLinetypeTableRecord
  2
DASHED
 70
64
  3
- - - - - - - - - - - - - - - - - - - -
 72
65
 73
2
 40
0.2
 49
0.1
 74
0
 49
-0.1
 74
0
  0
ENDTAB
  0
TABLE
  2
LAYER
  5
2
100
AcDbSymbolTable
 70
36
  0
LAYER
  5
10
100
AcDbSymbolTableRecord
100
AcDbLayerTableRecord
  2
0
 70
0
 62
7
  6
CONTINUOUS
370
-3
390
F
  0
LAYER
  5
1FA
100
AcDbSymbolTableRecord
100
AcDbLayerTableRecord
  2
DEFAULT_1
 70
0
 62
7
  6
CENTER
370
-3
390
F
  0
LAYER
  5
1FB
100
AcDbSymbolTableRecord
100
AcDbLayerTableRecord
  2
DEFAULT_2
 70
0
 62
7
  6
HIDDEN
370
-3
390
F
  0
LAYER
  5
1FC
100
AcDbSymbolTableRecord
100
AcDbLayerTableRecord
  2
DEFAULT_3
 70
0
 62
7
  6
PHANTOM
370
-3
390
F
  0
LAYER
  5
1FD
100
AcDbSymbolTableRecord
100
AcDbLayerTableRecord
  2
00_COMPONENTS
 70
0
 62
7
  6
CONTINUOUS
370
-3
390
F
  0
LAYER
  5
1FE
100
AcDbSymbolTableRecord
100
AcDbLayerTableRecord
  2
01_1_DEFAULT_DATUMS
 70
0
 62
7
  6
CONTINUOUS
370
-3
390
F
  0
LAYER
  5
1FF
100
AcDbSymbolTableRecord
100
AcDbLayerTableRecord
  2
01_PLANES
 70
0
 62
7
  6
CONTINUOUS
370
-3
390
F
  0
LAYER
  5
200
100
AcDbSymbolTableRecord
100
AcDbLayerTableRecord
  2
02_COORD_SYS
 70
0
 62
7
  6
CONTINUOUS
370
-3
390
F
  0
LAYER
  5
201
100
AcDbSymbolTableRecord
100
AcDbLayerTableRecord
  2
03_AXES
 70
0
 62
7
  6
CONTINUOUS
370
-3
390
F
  0
LAYER
  5
202
100
AcDbSymbolTableRecord
100
AcDbLayerTableRecord
  2
04_POINTS
 70
0
 62
7
  6
CONTINUOUS
370
-3
390
F
  0
LAYER
  5
203
100
AcDbSymbolTableRecord
100
AcDbLayerTableRecord
  2
05_CURVES
 70
0
 62
7
  6
CONTINUOUS
370
-3
390
F
  0
LAYER
  5
204
100
AcDbSymbolTableRecord
100
AcDbLayerTableRecord
  2
06_SURFS
 70
0
 62
7
  6
CONTINUOUS
370
-3
390
F
  0
LAYER
  5
205
100
AcDbSymbolTableRecord
100
AcDbLayerTableRecord
  2
07_COSMETICS
 70
0
 62
7
  6
CONTINUOUS
370
-3
390
F
  0
LAYER
  5
206
100
AcDbSymbolTableRecord
100
AcDbLayerTableRecord
  2
10_NOTES
 70
0
 62
7
  6
CONTINUOUS
370
-3
390
F
  0
LAYER
  5
207
100
AcDbSymbolTableRecord
100
AcDbLayerTableRecord
  2
11_NOTES_PUB
 70
0
 62
7
  6
CONTINUOUS
370
-3
390
F
  0
LAYER
  5
208
100
AcDbSymbolTableRecord
100
AcDbLayerTableRecord
  2
13_REF_GTOL
 70
0
 62
7
  6
CONTINUOUS
370
-3
390
F
  0
LAYER
  5
209
100
AcDbSymbolTableRecord
100
AcDbLayerTableRecord
  2
16_MISC
 70
0
 62
7
  6
CONTINUOUS
370
-3
390
F
  0
LAYER
  5
20A
100
AcDbSymbolTableRecord
100
AcDbLayerTableRecord
  2
17_NO_PRINT
 70
0
 62
7
  6
CONTINUOUS
370
-3
390
F
  0
LAYER
  5
20B
100
AcDbSymbolTableRecord
100
AcDbLayerTableRecord
  2
18_DATUM_CAMS_JOINTS
 70
0
 62
7
  6
CONTINUOUS
370
-3
390
F
  0
LAYER
  5
20C
100
AcDbSymbolTableRecord
100
AcDbLayerTableRecord
  2
19_DATUM_FUNCTIONAL
 70
0
 62
7
  6
CONTINUOUS
370
-3
390
F
  0
LAYER
  5
20D
100
AcDbSymbolTableRecord
100
AcDbLayerTableRecord
  2
20_DATUM_KINEMATIC_SCHEME
 70
0
 62
7
  6
CONTINUOUS
370
-3
390
F
  0
LAYER
  5
20E
100
AcDbSymbolTableRecord
100
AcDbLayerTableRecord
  2
_1
 70
0
 62
7
  6
CONTINUOUS
370
-3
390
F
  0
ENDTAB
  0
TABLE
  2
STYLE
  5
3
100
AcDbSymbolTable
 70
1
  0
STYLE
  5
11
100
AcDbSymbolTableRecord
100
AcDbTextStyleTableRecord
  2
STANDARD
 70
0
 40
0.0
 41
1.0
 50
0.0
 71
0
 42
0.2
  3
ARIAL.TTF
  4

  0
STYLE
  5
20F
100
AcDbSymbolTableRecord
100
AcDbTextStyleTableRecord
  2
TEXTSTYLE_1
 70
0
 40
0.0
 41
0.8
 50
0.0
 71
0
 42
0.2
  3
gdt
  4

  0
ENDTAB
  0
TABLE
  2
VIEW
  5
6
100
AcDbSymbolTable
 70
0
  0
ENDTAB
  0
TABLE
  2
UCS
  5
7
100
AcDbSymbolTable
 70
0
  0
ENDTAB
  0
TABLE
  2
APPID
  5
9
100
AcDbSymbolTable
 70
1
  0
APPID
  5
210
100
AcDbSymbolTableRecord
100
AcDbRegAppTableRecord
  2
ACAD
 70
0
  0
ENDTAB
  0
TABLE
  2
BLOCK_RECORD
  5
1
100
AcDbSymbolTable
 70
0
  0
BLOCK_RECORD
  5
211
100
AcDbSymbolTableRecord
100
AcDbBlockTableRecord
  2
*Model_Space
  0
BLOCK_RECORD
  5
212
100
AcDbSymbolTableRecord
100
AcDbBlockTableRecord
  2
*Paper_Space
  0
BLOCK_RECORD
  5
213
100
AcDbSymbolTableRecord
100
AcDbBlockTableRecord
  2
_FILLED
  0
ENDTAB
  0
TABLE
  2
DIMSTYLE
  5
A
100
AcDbSymbolTable
 70
1
100
AcDbDimStyleTable
 71
0
  0
DIMSTYLE
105
214
100
AcDbSymbolTableRecord
100
AcDbDimStyleTableRecord
  2
STANDARD
 70
0
  3

  4

 40
1.0
 41
0.251124584
 42
1.0
 43
0.38
 44
1.0
 45
0.0
 46
0.0
 47
0.01
 48
0.01
140
0.3515744176
141
0.09
142
0.0
143
25.4
144
1.0
145
0.0
146
1.0
147
0.625
 71
1
 72
0
 73
0
 74
0
 75
0
 76
0
 77
1
 78
8
 79
2
170
0
171
1
172
0
173
0
174
0
175
0
176
0
177
0
178
0
270
2
179
2
271
2
272
2
273
2
274
2
275
0
280
0
281
0
282
0
283
1
284
8
285
0
286
0
287
3
288
0
340
11
278
46
341
213
342
213
343
213
344
213
  0
ENDTAB
  0
ENDSEC
  0
SECTION
  2
BLOCKS
  0
BLOCK
  5
20
100
AcDbEntity
  8
0
100
AcDbBlockBegin
  2
*Model_Space
 70
0
 10
0.0
 20
0.0
 30
0.0
  3
*Model_Space
  1

  0
ENDBLK
  5
21
100
AcDbEntity
  8
0
100
AcDbBlockEnd
  0
BLOCK
  5
1C
100
AcDbEntity
  8
0
100
AcDbBlockBegin
  2
*Paper_Space
 70
0
 10
0.0
 20
0.0
 30
0.0
  3
*Paper_Space
  1

  0
ENDBLK
  5
1D
100
AcDbEntity
  8
0
100
AcDbBlockEnd
  0
BLOCK
  5
215
100
AcDbEntity
  8
0
100
AcDbBlockBegin
  2
_FILLED
 70
64
 10
0.0
 20
0.0
  3
_FILLED
  1

  0
SOLID
  5
216
100
AcDbEntity
  8
0
  6
BYBLOCK
 62
0
100
AcDbTrace
 10
0.0
 20
0.0
 11
-1.0
 21
0.25
 12
-1.0
 22
-0.25
 13
-1.0
 23
-0.25
  0
ENDBLK
  5
217
100
AcDbEntity
  8
0
  6
BYBLOCK
 62
0
100
AcDbBlockEnd
  0
ENDSEC
  0
SECTION
  2
ENTITIES
  0
LINE
  5
218
100
AcDbEntity
  8
_1
100
AcDbLine
 62
7
  6
BYLAYER
 10
10.8393608093
 20
2.4283163265
 11
11.7934176436
 21
2.4783163265
  0
LINE
  5
219
100
AcDbEntity
  8
_1
100
AcDbLine
 62
7
  6
BYLAYER
 10
14.2663414003
 20
2.607916769
 11
15.3655287874
 21
2.6655227389
  0
LINE
  5
21A
100
AcDbEntity
  8
_1
100
AcDbLine
 62
7
  6
BYLAYER
 10
7.2731334717
 20
2.4783163265
 11
14.2731334717
 21
2.4783163265
  0
LINE
  5
21B
100
AcDbEntity
  8
_1
100
AcDbLine
 62
7
  6
BYLAYER
 10
6.3131928311
 20
2.6655227389
 11
7.2724487086
 21
2.6152502686
  0
LINE
  5
21C
100
AcDbEntity
  8
_1
100
AcDbLine
 62
7
  6
BYLAYER
 10
9.8853039749
 20
2.4783163265
 11
10.8393608093
 21
2.4283163265
  0
LINE
  5
21D
100
AcDbEntity
  8
0
100
AcDbLine
 62
7
  6
BYLAYER
 10
9.3706165948
 20
27.4783163265
 11
8.4220693354
 21
27.1883163265
  0
LINE
  5
21E
100
AcDbEntity
  8
_1
100
AcDbLine
 62
7
  6
BYLAYER
 10
10.8393608093
 20
2.9276310939
 11
15.3655287874
 21
3.1648375063
  0
LINE
  5
21F
100
AcDbEntity
  8
_1
100
AcDbLine
 62
7
  6
BYLAYER
 10
7.0231334717
 20
2.6283163265
 11
14.6555881468
 21
2.6283163265
  0
LINE
  5
220
100
AcDbEntity
  8
_1
100
AcDbLine
 62
7
  6
BYLAYER
 10
15.8393608093
 20
3.1648375063
 11
15.3655287874
 21
3.1648375063
  0
LINE
  5
221
100
AcDbEntity
  8
_1
100
AcDbLine
 62
7
  6
BYLAYER
 10
6.3131928311
 20
3.1648375063
 11
5.8393608093
 21
3.1648375063
  0
LINE
  5
222
100
AcDbEntity
  8
_1
100
AcDbLine
 62
7
  6
BYLAYER
 10
9.5031709181
 20
3.1790015592
 11
12.1755507004
 21
3.1790015592
  0
LINE
  5
223
100
AcDbEntity
  8
_1
100
AcDbLine
 62
7
  6
BYLAYER
 10
5.8393608093
 20
3.2683482967
 11
6.3131928311
 21
3.2683482967
  0
LINE
  5
224
100
AcDbEntity
  8
_1
100
AcDbLine
 62
7
  6
BYLAYER
 10
15.3655287874
 20
3.2683482967
 11
15.8393608093
 21
3.2683482967
  0
LINE
  5
225
100
AcDbEntity
  8
_1
100
AcDbLine
 62
7
  6
BYLAYER
 10
11.8053127003
 20
3.3790015592
 11
9.8734089182
 21
3.3790015592
  0
LINE
  5
226
100
AcDbEntity
  8
_1
100
AcDbLine
 62
7
  6
BYLAYER
 10
6.3131928311
 20
3.1648375063
 11
10.8393608093
 21
2.9276310939
  0
LINE
  5
227
100
AcDbEntity
  8
_1
100
AcDbLine
 62
7
  6
BYLAYER
 10
10.8393608093
 20
4.9290015592
 11
10.8030245316
 21
4.9270972555
  0
LINE
  5
228
100
AcDbEntity
  8
_1
100
AcDbLine
 62
7
  6
BYLAYER
 10
10.8027758471
 20
4.9270842225
 11
7.7347460555
 21
4.7662955944
  0
LINE
  5
229
100
AcDbEntity
  8
_1
100
AcDbLine
 62
7
  6
BYLAYER
 10
10.8576282264
 20
4.9285222263
 11
10.8393608093
 21
4.9290015592
  0
LINE
  5
22A
100
AcDbEntity
  8
_1
100
AcDbLine
 62
7
  6
BYLAYER
 10
13.9439259944
 20
4.7662981922
 11
10.8759457714
 21
4.9270842225
  0
LINE
  5
22B
100
AcDbEntity
  8
_1
100
AcDbLine
 62
7
  6
BYLAYER
 10
10.8757465862
 20
4.9270946614
 11
10.8576282264
 21
4.9285222263
  0
LINE
  5
22C
100
AcDbEntity
  8
_1
100
AcDbLine
 62
7
  6
BYLAYER
 10
7.7346888968
 20
5.2656073662
 11
10.8393608093
 21
5.4283163265
  0
LINE
  5
22D
100
AcDbEntity
  8
_1
100
AcDbLine
 62
7
  6
BYLAYER
 10
10.8393608093
 20
5.4283163265
 11
13.9440327217
 21
5.2656073662
  0
LINE
  5
22E
100
AcDbEntity
  8
_1
100
AcDbLine
 62
7
  6
BYLAYER
 10
12.1755507004
 20
3.1790015592
 11
11.8053127003
 21
3.3790015592
  0
LINE
  5
22F
100
AcDbEntity
  8
_1
100
AcDbLine
 62
7
  6
BYLAYER
 10
10.5466431723
 20
4.7708775217
 11
10.7139103934
 21
4.6612341145
  0
LINE
  5
230
100
AcDbEntity
  8
_1
100
AcDbLine
 62
7
  6
BYLAYER
 10
14.008003362
 20
8.9534548571
 11
14.0952130158
 21
8.9751656269
  0
LINE
  5
231
100
AcDbEntity
  8
_1
100
AcDbLine
 62
7
  6
BYLAYER
 10
13.5021962961
 20
8.567869621
 11
10.8393608093
 21
8.4283163265
  0
LINE
  5
232
100
AcDbEntity
  8
_1
100
AcDbLine
 62
7
  6
BYLAYER
 10
10.8393608093
 20
8.4283163265
 11
8.1765253224
 21
8.567869621
  0
LINE
  5
233
100
AcDbEntity
  8
_1
100
AcDbLine
 62
7
  6
BYLAYER
 10
7.5828993692
 20
8.9754773571
 11
7.6707143572
 21
8.9534549281
  0
LINE
  5
234
100
AcDbEntity
  8
_1
100
AcDbLine
 62
7
  6
BYLAYER
 10
7.4795187729
 20
9.1076449802
 11
7.5828993692
 21
8.9754773571
  0
LINE
  5
235
100
AcDbEntity
  8
_1
100
AcDbLine
 62
7
  6
BYLAYER
 10
10.693348234
 20
9.2432751938
 11
10.4986648003
 21
9.1974673271
  0
LINE
  5
236
100
AcDbEntity
  8
_1
100
AcDbLine
 62
7
  6
BYLAYER
 10
10.8393608093
 20
8.9276310939
 11
10.8756970869
 21
8.9295353975
  0
LINE
  5
237
100
AcDbEntity
  8
_1
100
AcDbLine
 62
7
  6
BYLAYER
 10
10.8759457714
 20
8.9295484305
 11
13.5021962961
 21
9.0671843884
  0
LINE
  5
238
100
AcDbEntity
  8
_1
100
AcDbLine
 62
7
  6
BYLAYER
 10
13.9627364814
 20
8.952662933
 11
14.0079882981
 21
8.9534545861
  0
LINE
  5
239
100
AcDbEntity
  8
_1
100
AcDbLine
 62
7
  6
BYLAYER
 10
7.6707308957
 20
8.9534546285
 11
7.7159851371
 21
8.952662933
  0
LINE
  5
23A
100
AcDbEntity
  8
_1
100
AcDbLine
 62
7
  6
BYLAYER
 10
8.1765253224
 20
9.0671843884
 11
10.8027758471
 21
8.9295484305
  0
LINE
  5
23B
100
AcDbEntity
  8
_1
100
AcDbLine
 62
7
  6
BYLAYER
 10
10.8030245316
 20
8.9295353975
 11
10.8393608093
 21
8.9276310939
  0
LINE
  5
23C
100
AcDbEntity
  8
_1
100
AcDbLine
 62
7
  6
BYLAYER
 10
11.1800568182
 20
9.1974673271
 11
10.9853733845
 21
9.2432751938
  0
LINE
  5
23D
100
AcDbEntity
  8
_1
100
AcDbLine
 62
7
  6
BYLAYER
 10
11.8053127003
 20
3.3790015592
 11
10.9648112251
 21
4.6612341145
  0
LINE
  5
23E
100
AcDbEntity
  8
_1
100
AcDbLine
 62
7
  6
BYLAYER
 10
12.1755507004
 20
3.1790015592
 11
11.1320784463
 21
4.7708775217
  0
LINE
  5
23F
100
AcDbEntity
  8
_1
100
AcDbLine
 62
7
  6
BYLAYER
 10
5.8393608093
 20
3.1648375063
 11
5.8393608093
 21
26.1917951468
  0
LINE
  5
240
100
AcDbEntity
  8
_1
100
AcDbLine
 62
7
  6
BYLAYER
 10
6.1893608093
 20
26.9283163265
 11
6.1893608093
 21
26.4283163265
  0
LINE
  5
241
100
AcDbEntity
  8
_1
100
AcDbLine
 62
7
  6
BYLAYER
 10
6.3131928311
 20
3.1648375063
 11
6.3131928311
 21
3.2686437535
  0
LINE
  5
242
100
AcDbEntity
  8
_1
100
AcDbLine
 62
7
  6
BYLAYER
 10
6.3131928311
 20
17.5086278222
 11
6.3131928311
 21
26.1917951468
  0
LINE
  5
243
100
AcDbEntity
  8
0
100
AcDbLine
 62
7
  6
BYLAYER
 10
6.3893608093
 20
27.1783163265
 11
6.3893608093
 21
26.9283163265
  0
LINE
  5
244
100
AcDbEntity
  8
_1
100
AcDbLine
 62
7
  6
BYLAYER
 10
15.8393608093
 20
9.9283163265
 11
14.3923019857
 21
9.9283163265
  0
LINE
  5
245
100
AcDbEntity
  8
_1
100
AcDbLine
 62
7
  6
BYLAYER
 10
5.8393608093
 20
9.9283163265
 11
7.2864196328
 21
9.9283163265
  0
LINE
  5
246
100
AcDbEntity
  8
_1
100
AcDbLine
 62
7
  6
BYLAYER
 10
7.4794673023
 20
9.1078637309
 11
6.5238681436
 21
13.1691601557
  0
LINE
  5
247
100
AcDbEntity
  8
_1
100
AcDbLine
 62
7
  6
BYLAYER
 10
6.6589891799
 20
13.4058929313
 11
7.626908639
 21
9.2922352297
  0
LINE
  5
248
100
AcDbEntity
  8
_1
100
AcDbLine
 62
7
  6
BYLAYER
 10
7.7159847163
 20
8.9526647215
 11
5.9722749676
 21
16.3634311536
  0
LINE
  5
249
100
AcDbEntity
  8
0
100
AcDbLine
 62
7
  6
BYLAYER
 10
6.8893608093
 20
27.1783163265
 11
6.8893608093
 21
26.9283163265
  0
LINE
  5
24A
100
AcDbEntity
  8
_1
100
AcDbLine
 62
7
  6
BYLAYER
 10
6.8893608093
 20
26.4283163265
 11
6.8893608093
 21
26.9283163265
  0
LINE
  5
24B
100
AcDbEntity
  8
_1
100
AcDbLine
 62
7
  6
BYLAYER
 10
7.2731334717
 20
2.6283163265
 11
7.2731334717
 21
2.4783163265
  0
LINE
  5
24C
100
AcDbEntity
  8
_1
100
AcDbLine
 62
7
  6
BYLAYER
 10
6.4328155736
 20
16.4779508205
 11
8.1765253224
 21
9.0671843884
  0
LINE
  5
24D
100
AcDbEntity
  8
_1
100
AcDbLine
 62
7
  6
BYLAYER
 10
7.7731334717
 20
2.4783163265
 11
7.7731334717
 21
2.6283163265
  0
LINE
  5
24E
100
AcDbEntity
  8
0
100
AcDbLine
 62
7
  6
BYLAYER
 10
7.8893608093
 20
27.1883163265
 11
7.8893608093
 21
27.1783163265
  0
LINE
  5
24F
100
AcDbEntity
  8
_1
100
AcDbLine
 62
7
  6
BYLAYER
 10
8.2893608093
 20
26.9283163265
 11
8.2893608093
 21
27.0283163265
  0
LINE
  5
250
100
AcDbEntity
  8
0
100
AcDbLine
 62
7
  6
BYLAYER
 10
8.6393608093
 20
27.1783163265
 11
8.6393608093
 21
27.1883163265
  0
LINE
  5
251
100
AcDbEntity
  8
_1
100
AcDbLine
 62
7
  6
BYLAYER
 10
9.7556914969
 20
13.2283163265
 11
11.9230301216
 21
13.2283163265
  0
LINE
  5
252
100
AcDbEntity
  8
_1
100
AcDbLine
 62
7
  6
BYLAYER
 10
9.7556914969
 20
13.2283163265
 11
9.5031709181
 21
13.4283163265
  0
LINE
  5
253
100
AcDbEntity
  8
_1
100
AcDbLine
 62
7
  6
BYLAYER
 10
15.8393608093
 20
13.4283163265
 11
15.0158313975
 21
13.4283163265
  0
LINE
  5
254
100
AcDbEntity
  8
_1
100
AcDbLine
 62
7
  6
BYLAYER
 10
12.1755507004
 20
13.4283163265
 11
9.5031709181
 21
13.4283163265
  0
LINE
  5
255
100
AcDbEntity
  8
_1
100
AcDbLine
 62
7
  6
BYLAYER
 10
6.662890221
 20
13.4283163265
 11
5.8393608093
 21
13.4283163265
  0
LINE
  5
256
100
AcDbEntity
  8
_1
100
AcDbLine
 62
7
  6
BYLAYER
 10
9.5031709181
 20
13.4283163265
 11
10.4986648003
 21
9.1974673271
  0
LINE
  5
257
100
AcDbEntity
  8
_1
100
AcDbLine
 62
7
  6
BYLAYER
 10
9.7556914969
 20
13.2283163265
 11
10.693348234
 21
9.2432751938
  0
LINE
  5
258
100
AcDbEntity
  8
_1
100
AcDbLine
 62
7
  6
BYLAYER
 10
10.4893608093
 20
26.9283163265
 11
10.4893608093
 21
27.0283163265
  0
LINE
  5
259
100
AcDbEntity
  8
_1
100
AcDbLine
 62
7
  6
BYLAYER
 10
10.577681028
 20
5.4146022703
 11
10.577681028
 21
8.4420303827
  0
LINE
  5
25A
100
AcDbEntity
  8
_1
100
AcDbLine
 62
7
  6
BYLAYER
 10
10.8393608093
 20
2.6283163265
 11
10.8393608093
 21
3.1790015592
  0
LINE
  5
25B
100
AcDbEntity
  8
_1
100
AcDbLine
 62
7
  6
BYLAYER
 10
10.8393608093
 20
4.9290015592
 11
10.8393608093
 21
8.9276310939
  0
LINE
  5
25C
100
AcDbEntity
  8
_1
100
AcDbLine
 62
7
  6
BYLAYER
 10
10.8393608093
 20
13.4283163265
 11
10.8393608093
 21
26.4283163265
  0
LINE
  5
25D
100
AcDbEntity
  8
_1
100
AcDbLine
 62
7
  6
BYLAYER
 10
11.1010405905
 20
8.4420303827
 11
11.1010405905
 21
5.4146022703
  0
LINE
  5
25E
100
AcDbEntity
  8
_1
100
AcDbLine
 62
7
  6
BYLAYER
 10
11.2893608093
 20
26.9283163265
 11
11.2893608093
 21
27.0283163265
  0
LINE
  5
25F
100
AcDbEntity
  8
_1
100
AcDbLine
 62
7
  6
BYLAYER
 10
10.9853733845
 20
9.2432751938
 11
11.9230301216
 21
13.2283163265
  0
LINE
  5
260
100
AcDbEntity
  8
_1
100
AcDbLine
 62
7
  6
BYLAYER
 10
11.1800568182
 20
9.1974673271
 11
12.1755507004
 21
13.4283163265
  0
LINE
  5
261
100
AcDbEntity
  8
0
100
AcDbLine
 62
7
  6
BYLAYER
 10
13.1393608093
 20
27.1883163265
 11
13.1393608093
 21
27.1783163265
  0
LINE
  5
262
100
AcDbEntity
  8
_1
100
AcDbLine
 62
7
  6
BYLAYER
 10
13.4893608093
 20
26.9283163265
 11
13.4893608093
 21
27.0283163265
  0
LINE
  5
263
100
AcDbEntity
  8
_1
100
AcDbLine
 62
7
  6
BYLAYER
 10
11.9230301216
 20
13.2283163265
 11
12.1755507004
 21
13.4283163265
  0
LINE
  5
264
100
AcDbEntity
  8
_1
100
AcDbLine
 62
7
  6
BYLAYER
 10
15.8393608093
 20
17.5086278222
 11
15.3655287874
 21
17.5086278222
  0
LINE
  5
265
100
AcDbEntity
  8
_1
100
AcDbLine
 62
7
  6
BYLAYER
 10
6.3131928311
 20
17.5086278222
 11
5.8393608093
 21
17.5086278222
  0
LINE
  5
266
100
AcDbEntity
  8
_1
100
AcDbLine
 62
7
  6
BYLAYER
 10
13.7731334717
 20
2.6283163265
 11
13.7731334717
 21
2.4783163265
  0
LINE
  5
267
100
AcDbEntity
  8
0
100
AcDbLine
 62
7
  6
BYLAYER
 10
13.8893608093
 20
27.1783163265
 11
13.8893608093
 21
27.1883163265
  0
LINE
  5
268
100
AcDbEntity
  8
_1
100
AcDbLine
 62
7
  6
BYLAYER
 10
14.2731334717
 20
2.4783163265
 11
14.2731334717
 21
2.6283163265
  0
LINE
  5
269
100
AcDbEntity
  8
0
100
AcDbLine
 62
7
  6
BYLAYER
 10
14.8893608093
 20
27.1783163265
 11
14.8893608093
 21
26.9283163265
  0
LINE
  5
26A
100
AcDbEntity
  8
_1
100
AcDbLine
 62
7
  6
BYLAYER
 10
14.8893608093
 20
26.9283163265
 11
14.8893608093
 21
26.4283163265
  0
LINE
  5
26B
100
AcDbEntity
  8
_1
100
AcDbLine
 62
7
  6
BYLAYER
 10
15.3655287874
 20
26.1917951468
 11
15.3655287874
 21
17.5086278222
  0
LINE
  5
26C
100
AcDbEntity
  8
_1
100
AcDbLine
 62
7
  6
BYLAYER
 10
15.3655287874
 20
3.2687787952
 11
15.3655287874
 21
3.1648375063
  0
LINE
  5
26D
100
AcDbEntity
  8
0
100
AcDbLine
 62
7
  6
BYLAYER
 10
15.3893608093
 20
27.1783163265
 11
15.3893608093
 21
26.9283163265
  0
LINE
  5
26E
100
AcDbEntity
  8
_1
100
AcDbLine
 62
7
  6
BYLAYER
 10
13.5021962961
 20
9.0671843884
 11
15.2459060449
 21
16.4779508205
  0
LINE
  5
26F
100
AcDbEntity
  8
_1
100
AcDbLine
 62
7
  6
BYLAYER
 10
15.7064466509
 20
16.3634311536
 11
13.9627369022
 21
8.9526647215
  0
LINE
  5
270
100
AcDbEntity
  8
_1
100
AcDbLine
 62
7
  6
BYLAYER
 10
14.0518129795
 20
9.2922352297
 11
15.0197324387
 21
13.4058929313
  0
LINE
  5
271
100
AcDbEntity
  8
_1
100
AcDbLine
 62
7
  6
BYLAYER
 10
14.1992308685
 20
9.1077640783
 11
15.1548534749
 21
13.1691601557
  0
LINE
  5
272
100
AcDbEntity
  8
_1
100
AcDbLine
 62
7
  6
BYLAYER
 10
15.5893608093
 20
26.4283163265
 11
15.5893608093
 21
26.9283163265
  0
LINE
  5
273
100
AcDbEntity
  8
_1
100
AcDbLine
 62
7
  6
BYLAYER
 10
15.8393608093
 20
3.1648375063
 11
15.8393608093
 21
9.9283163265
  0
LINE
  5
274
100
AcDbEntity
  8
_1
100
AcDbLine
 62
7
  6
BYLAYER
 10
15.8393608093
 20
9.9284587521
 11
15.8393608093
 21
26.1917951468
  0
LINE
  5
275
100
AcDbEntity
  8
_1
100
AcDbLine
 62
7
  6
BYLAYER
 10
10.5466431723
 20
4.7708775217
 11
9.5031709181
 21
3.1790015592
  0
LINE
  5
276
100
AcDbEntity
  8
_1
100
AcDbLine
 62
7
  6
BYLAYER
 10
10.7139103934
 20
4.6612341145
 11
9.8734089182
 21
3.3790015592
  0
LINE
  5
277
100
AcDbEntity
  8
_1
100
AcDbLine
 62
7
  6
BYLAYER
 10
14.0952130158
 20
8.9751656269
 11
14.1991750774
 21
9.1075271327
  0
LINE
  5
278
100
AcDbEntity
  8
_1
100
AcDbLine
 62
7
  6
BYLAYER
 10
10.9648112251
 20
4.6612341145
 11
11.1320784463
 21
4.7708775217
  0
LINE
  5
279
100
AcDbEntity
  8
_1
100
AcDbLine
 62
7
  6
BYLAYER
 10
9.5031709181
 20
3.1790015592
 11
9.8734089182
 21
3.3790015592
  0
LINE
  5
27A
100
AcDbEntity
  8
_1
100
AcDbLine
 62
7
  6
BYLAYER
 10
10.8262857919
 20
26.4283163265
 11
6.3131928311
 21
26.1917951468
  0
LINE
  5
27B
100
AcDbEntity
  8
_1
100
AcDbLine
 62
7
  6
BYLAYER
 10
5.8393608093
 20
26.1917951468
 11
6.3131928311
 21
26.1917951468
  0
LINE
  5
27C
100
AcDbEntity
  8
_1
100
AcDbLine
 62
7
  6
BYLAYER
 10
15.3655287874
 20
26.1917951468
 11
15.8393608093
 21
26.1917951468
  0
LINE
  5
27D
100
AcDbEntity
  8
_1
100
AcDbLine
 62
7
  6
BYLAYER
 10
5.8988409669
 20
26.4283163265
 11
15.7798806516
 21
26.4283163265
  0
LINE
  5
27E
100
AcDbEntity
  8
_1
100
AcDbLine
 62
7
  6
BYLAYER
 10
15.3655287874
 20
26.1917951468
 11
10.8524358266
 21
26.4283163265
  0
LINE
  5
27F
100
AcDbEntity
  8
_1
100
AcDbLine
 62
7
  6
BYLAYER
 10
6.1893608093
 20
26.9283163265
 11
15.5893608093
 21
26.9283163265
  0
LINE
  5
280
100
AcDbEntity
  8
_1
100
AcDbLine
 62
7
  6
BYLAYER
 10
8.2893608093
 20
27.0283163265
 11
10.4893608093
 21
27.0283163265
  0
LINE
  5
281
100
AcDbEntity
  8
_1
100
AcDbLine
 62
7
  6
BYLAYER
 10
11.2893608093
 20
27.0283163265
 11
13.4893608093
 21
27.0283163265
  0
LINE
  5
282
100
AcDbEntity
  8
0
100
AcDbLine
 62
7
  6
BYLAYER
 10
6.3893608093
 20
27.1783163265
 11
15.3893608093
 21
27.1783163265
  0
LINE
  5
283
100
AcDbEntity
  8
0
100
AcDbLine
 62
7
  6
BYLAYER
 10
7.8893608093
 20
27.1883163265
 11
13.8893608093
 21
27.1883163265
  0
LINE
  5
284
100
AcDbEntity
  8
0
100
AcDbLine
 62
7
  6
BYLAYER
 10
9.3707167003
 20
27.4783163265
 11
12.4080049182
 21
27.4783163265
  0
LINE
  5
285
100
AcDbEntity
  8
0
100
AcDbLine
 62
7
  6
BYLAYER
 10
12.4081050237
 20
27.4783163265
 11
13.3566522831
 21
27.1883163265
  0
ARC
  5
286
100
AcDbEntity
  8
_1
100
AcDbCircle
 62
7
  6
BYLAYER
 10
10.8393608093
 20
17.5086278222
 40
5.0
100
AcDbArc
 50
180.0
 51
193.2405199152
  0
ARC
  5
287
100
AcDbEntity
  8
_1
100
AcDbCircle
 62
7
  6
BYLAYER
 10
10.8393608093
 20
17.5086278222
 40
5.0
100
AcDbArc
 50
346.7594800848
 51
360.0
  0
ARC
  5
288
100
AcDbEntity
  8
_1
100
AcDbCircle
 62
7
  6
BYLAYER
 10
10.8177844868
 20
17.5091607687
 40
4.5045845084
100
AcDbArc
 50
180.0067787795
 51
193.2337417923
  0
ARC
  5
289
100
AcDbEntity
  8
_1
100
AcDbCircle
 62
7
  6
BYLAYER
 10
10.8609371837
 20
17.5091607626
 40
4.5045844562
100
AcDbArc
 50
346.7662581323
 51
359.9932212983
  0
ARC
  5
28A
100
AcDbEntity
  8
_1
100
AcDbCircle
 62
7
  6
BYLAYER
 10
7.8393608093
 20
3.2683482967
 40
2.0
100
AcDbArc
 50
93.0
 51
180.0
  0
ARC
  5
28B
100
AcDbEntity
  8
_1
100
AcDbCircle
 62
7
  6
BYLAYER
 10
13.8393608093
 20
3.2683482967
 40
2.0
100
AcDbArc
 50
0.0
 51
87.0
  0
ARC
  5
28C
100
AcDbEntity
  8
_1
100
AcDbCircle
 62
7
  6
BYLAYER
 10
6.3393608093
 20
3.1648375063
 40
0.5
100
AcDbArc
 50
180.0
 51
267.0
  0
ARC
  5
28D
100
AcDbEntity
  8
_1
100
AcDbCircle
 62
7
  6
BYLAYER
 10
15.3393608093
 20
3.1648375063
 40
0.5
100
AcDbArc
 50
273.0
 51
360.0
  0
ARC
  5
28E
100
AcDbEntity
  8
_1
100
AcDbCircle
 62
7
  6
BYLAYER
 10
8.2026933005
 20
9.0671843884
 40
0.5
100
AcDbArc
 50
193.2405199152
 51
267.0
  0
ARC
  5
28F
100
AcDbEntity
  8
_1
100
AcDbCircle
 62
7
  6
BYLAYER
 10
13.476028318
 20
9.0671843884
 40
0.5
100
AcDbArc
 50
273.0
 51
346.7594800848
  0
ARC
  5
290
100
AcDbEntity
  8
_1
100
AcDbCircle
 62
7
  6
BYLAYER
 10
6.3393608093
 20
26.1917951468
 40
0.5
100
AcDbArc
 50
107.7117675822
 51
180.0
  0
ARC
  5
291
100
AcDbEntity
  8
_1
100
AcDbCircle
 62
7
  6
BYLAYER
 10
15.3393608093
 20
26.1917951468
 40
0.5
100
AcDbArc
 50
0.0
 51
60.2514543338
  0
ARC
  5
292
100
AcDbEntity
  8
_1
100
AcDbCircle
 62
7
  6
BYLAYER
 10
10.8393608093
 20
4.5790015592
 40
0.35
100
AcDbArc
 50
33.2447799551
 51
83.9999999995
  0
ARC
  5
293
100
AcDbEntity
  8
_1
100
AcDbCircle
 62
7
  6
BYLAYER
 10
10.8393608093
 20
4.5790015592
 40
0.35
100
AcDbArc
 50
96.0000000006
 51
146.7552200449
  0
ARC
  5
294
100
AcDbEntity
  8
_1
100
AcDbCircle
 62
7
  6
BYLAYER
 10
10.8393608093
 20
9.2776310939
 40
0.35
100
AcDbArc
 50
193.2405199152
 51
263.9999999998
  0
ARC
  5
295
100
AcDbEntity
  8
_1
100
AcDbCircle
 62
7
  6
BYLAYER
 10
10.8393608093
 20
9.2776310939
 40
0.35
100
AcDbArc
 50
276.0000000002
 51
346.7594800848
  0
ARC
  5
296
100
AcDbEntity
  8
_1
100
AcDbCircle
 62
7
  6
BYLAYER
 10
14.9601700413
 20
13.2149680224
 40
0.2
100
AcDbArc
 50
346.7594800848
 51
72.6737667166
  0
ARC
  5
297
100
AcDbEntity
  8
_1
100
AcDbCircle
 62
7
  6
BYLAYER
 10
6.7185515772
 20
13.2149680224
 40
0.2
100
AcDbArc
 50
107.3262332834
 51
193.2405199152
  0
ARC
  5
298
100
AcDbEntity
  8
_1
100
AcDbCircle
 62
7
  6
BYLAYER
 10
10.8393608093
 20
9.2776310939
 40
0.15
100
AcDbArc
 50
193.2405199152
 51
346.7594800848
  0
ARC
  5
299
100
AcDbEntity
  8
_1
100
AcDbCircle
 62
7
  6
BYLAYER
 10
10.8393608093
 20
4.5790015592
 40
0.15
100
AcDbArc
 50
33.2447799551
 51
146.7552200449
  0
SPLINE
  5
29A
100
AcDbEntity
  8
_1
100
AcDbSpline
 62
7
  6
BYLAYER
 70
0
 71
3
 72
22
 73
18
 74
0
 42
0.0000001
 43
0.0000001
 44
0.0000000001
 40
0.0
 40
0.0
 40
0.0
 40
0.0
 40
0.0028166895
 40
0.0072264004
 40
0.0137217118
 40
0.022433775
 40
0.0334026674
 40
0.0466381967
 40
0.0798667111
 40
0.1218470236
 40
0.1721873607
 40
0.2304718664
 40
0.2961416372
 40
0.446958702
 40
0.6189965633
 40
0.8059226796
 40
1.0
 40
1.0
 40
1.0
 40
1.0
 10
8.1765253224
 20
8.567869621
 30
0.0
 10
8.1760553993
 20
8.5678942486
 30
0.0
 10
8.1749583297
 20
8.5686620862
 30
0.0
 10
8.1739052109
 20
8.5707014131
 30
0.0
 10
8.1728204117
 20
8.5738063578
 30
0.0
 10
8.1718282377
 20
8.5780689914
 30
0.0
 10
8.1708801986
 20
8.5834877571
 30
0.0
 10
8.1696193995
 20
8.5930015081
 30
0.0
 10
8.1683346141
 20
8.6077271321
 30
0.0
 10
8.1671745887
 20
8.6286712258
 30
0.0
 10
8.1663373418
 20
8.6538197711
 30
0.0
 10
8.1658365442
 20
8.6829346964
 30
0.0
 10
8.1656201242
 20
8.7288395797
 30
0.0
 10
8.1663143623
 20
8.7937480317
 30
0.0
 10
8.1684388854
 20
8.8788897262
 30
0.0
 10
8.1718338308
 20
8.971222595
 30
0.0
 10
8.1748330495
 20
9.034805211
 30
0.0
 10
8.1765253224
 20
9.0671843884
 30
0.0
  0
SPLINE
  5
29B
100
AcDbEntity
  8
_1
100
AcDbSpline
 62
7
  6
BYLAYER
 70
0
 71
3
 72
27
 73
23
 74
0
 42
0.0000001
 43
0.0000001
 44
0.0000000001
 40
0.0
 40
0.0
 40
0.0
 40
0.0
 40
0.1975181862
 40
0.3863520531
 40
0.4751317117
 40
0.5591261966
 40
0.6375910933
 40
0.7098426991
 40
0.7752442269
 40
0.833162753
 40
0.8830648676
 40
0.9245471531
 40
0.9420077688
 40
0.9572162054
 40
0.9701371937
 40
0.9807532172
 40
0.9890487251
 40
0.9950102116
 40
0.9971134496
 40
0.9986329345
 40
0.9995770533
 40
1.0
 40
1.0
 40
1.0
 40
1.0
 10
8.1765253224
 20
9.0671843884
 30
0.0
 10
8.1461061042
 20
9.0600072668
 30
0.0
 10
8.0866209673
 20
9.0459013051
 30
0.0
 10
8.0135077414
 20
9.0283819954
 30
0.0
 10
7.9578916627
 20
9.0149319462
 30
0.0
 10
7.9192647075
 20
9.0055287785
 30
0.0
 10
7.8831939805
 20
8.9966823565
 30
0.0
 10
7.8499968441
 20
8.988470916
 30
0.0
 10
7.8199732924
 20
8.9809696082
 30
0.0
 10
7.793400247
 20
8.9742478888
 30
0.0
 10
7.7705189055
 20
8.9683666136
 30
0.0
 10
7.7538600234
 20
8.9639932619
 30
0.0
 10
7.7425301792
 20
8.9609426881
 30
0.0
 10
7.7355740598
 20
8.9590302409
 30
0.0
 10
7.7296745684
 20
8.9573636757
 30
0.0
 10
7.7248392785
 20
8.95594589
 30
0.0
 10
7.7210830698
 20
8.9547846874
 30
0.0
 10
7.718620673
 20
8.9539549168
 30
0.0
 10
7.7172150384
 20
8.9534179553
 30
0.0
 10
7.716537733
 20
8.9531101556
 30
0.0
 10
7.7161686245
 20
8.9529148471
 30
0.0
 10
7.7159693878
 20
8.9527298677
 30
0.0
 10
7.7159847163
 20
8.9526647215
 30
0.0
  0
SPLINE
  5
29C
100
AcDbEntity
  8
_1
100
AcDbSpline
 62
7
  6
BYLAYER
 70
0
 71
3
 72
22
 73
18
 74
0
 42
0.0000001
 43
0.0000001
 44
0.0000000001
 40
0.0
 40
0.0
 40
0.0
 40
0.0
 40
0.1939481019
 40
0.3805581841
 40
0.5528326525
 40
0.7040428517
 40
0.7698464006
 40
0.8281916608
 40
0.8785389242
 40
0.9204362323
 40
0.9535537342
 40
0.9667460281
 40
0.9776770764
 40
0.9863506213
 40
0.9928073527
 40
0.9971894606
 40
1.0
 40
1.0
 40
1.0
 40
1.0
 10
7.7346888968
 20
4.7662925988
 30
0.0
 10
7.7329977303
 20
4.7986506088
 30
0.0
 10
7.7299989605
 20
4.8621595487
 30
0.0
 10
7.7266074296
 20
4.9544587883
 30
0.0
 10
7.7244796527
 20
5.0396538247
 30
0.0
 10
7.7237803496
 20
5.1046906105
 30
0.0
 10
7.7240002818
 20
5.1506942359
 30
0.0
 10
7.7245061297
 20
5.1798430881
 30
0.0
 10
7.725345778
 20
5.2049892921
 30
0.0
 10
7.7265096479
 20
5.2259021888
 30
0.0
 10
7.7277960041
 20
5.2405879582
 30
0.0
 10
7.7290528099
 20
5.2500700063
 30
0.0
 10
7.7299970532
 20
5.2554690997
 30
0.0
 10
7.7309861947
 20
5.259713142
 30
0.0
 10
7.7320687599
 20
5.2627997123
 30
0.0
 10
7.7331245046
 20
5.2648263926
 30
0.0
 10
7.7342199942
 20
5.2655827921
 30
0.0
 10
7.7346888969
 20
5.2656073662
 30
0.0
  0
SPLINE
  5
29D
100
AcDbEntity
  8
_1
100
AcDbSpline
 62
7
  6
BYLAYER
 70
0
 71
3
 72
22
 73
18
 74
0
 42
0.0000001
 43
0.0000001
 44
0.0000000001
 40
0.0
 40
0.0
 40
0.0
 40
0.0
 40
0.1940773204
 40
0.3810034367
 40
0.553041298
 40
0.7038583628
 40
0.7695281336
 40
0.8278126393
 40
0.8781529764
 40
0.9201332889
 40
0.9533618033
 40
0.9665973326
 40
0.977566225
 40
0.9862782882
 40
0.9927735996
 40
0.9971833105
 40
1.0
 40
1.0
 40
1.0
 40
1.0
 10
13.5021962961
 20
9.0671843884
 30
0.0
 10
13.503888569
 20
9.034805211
 30
0.0
 10
13.5068877877
 20
8.971222595
 30
0.0
 10
13.5102827332
 20
8.8788897262
 30
0.0
 10
13.5124072563
 20
8.7937480317
 30
0.0
 10
13.5131014943
 20
8.7288395797
 30
0.0
 10
13.5128850743
 20
8.6829346964
 30
0.0
 10
13.5123842768
 20
8.6538197711
 30
0.0
 10
13.5115470298
 20
8.6286712258
 30
0.0
 10
13.5103870044
 20
8.6077271321
 30
0.0
 10
13.509102219
 20
8.5930015081
 30
0.0
 10
13.5078414199
 20
8.5834877571
 30
0.0
 10
13.5068933808
 20
8.5780689914
 30
0.0
 10
13.5059012068
 20
8.5738063578
 30
0.0
 10
13.5048164076
 20
8.5707014131
 30
0.0
 10
13.5037632888
 20
8.5686620862
 30
0.0
 10
13.5026662192
 20
8.5678942486
 30
0.0
 10
13.5021962961
 20
8.567869621
 30
0.0
  0
SPLINE
  5
29E
100
AcDbEntity
  8
_1
100
AcDbSpline
 62
7
  6
BYLAYER
 70
0
 71
3
 72
27
 73
23
 74
0
 42
0.0000001
 43
0.0000001
 44
0.0000000001
 40
0.0
 40
0.0
 40
0.0
 40
0.0
 40
0.0004229467
 40
0.0013670655
 40
0.0028865506
 40
0.0049897887
 40
0.0109512756
 40
0.0192467839
 40
0.0298628077
 40
0.0427837964
 40
0.0579922333
 40
0.0754528495
 40
0.1169351365
 40
0.1668372524
 40
0.224755779
 40
0.290157308
 40
0.362408915
 40
0.440873812
 40
0.5248682969
 40
0.6136479546
 40
0.8024818162
 40
1.0
 40
1.0
 40
1.0
 40
1.0
 10
13.9627369022
 20
8.9526647215
 30
0.0
 10
13.9627522307
 20
8.9527298677
 30
0.0
 10
13.962552994
 20
8.9529148471
 30
0.0
 10
13.9621838855
 20
8.9531101556
 30
0.0
 10
13.96150658
 20
8.9534179553
 30
0.0
 10
13.9601009454
 20
8.9539549169
 30
0.0
 10
13.9576385484
 20
8.9547846875
 30
0.0
 10
13.9538823395
 20
8.9559458901
 30
0.0
 10
13.9490470494
 20
8.9573636759
 30
0.0
 10
13.9431475579
 20
8.9590302411
 30
0.0
 10
13.9361914383
 20
8.9609426883
 30
0.0
 10
13.9248615937
 20
8.9639932623
 30
0.0
 10
13.9082027112
 20
8.9683666141
 30
0.0
 10
13.8853213692
 20
8.9742478894
 30
0.0
 10
13.8587483233
 20
8.9809696089
 30
0.0
 10
13.8287247712
 20
8.9884709168
 30
0.0
 10
13.7955276344
 20
8.9966823574
 30
0.0
 10
13.7594569071
 20
9.0055287794
 30
0.0
 10
13.720829952
 20
9.0149319471
 30
0.0
 10
13.6652138742
 20
9.0283819961
 30
0.0
 10
13.5921006496
 20
9.0459013055
 30
0.0
 10
13.5326155139
 20
9.0600072668
 30
0.0
 10
13.5021962961
 20
9.0671843884
 30
0.0
  0
SPLINE
  5
29F
100
AcDbEntity
  8
_1
100
AcDbSpline
 62
7
  6
BYLAYER
 70
0
 71
3
 72
22
 73
18
 74
0
 42
0.0000001
 43
0.0000001
 44
0.0000000001
 40
0.0
 40
0.0
 40
0.0
 40
0.0
 40
0.0028166895
 40
0.0072264004
 40
0.0137217118
 40
0.022433775
 40
0.0334026674
 40
0.0466381967
 40
0.0798667111
 40
0.1218470236
 40
0.1721873607
 40
0.2304718664
 40
0.2961416372
 40
0.446958702
 40
0.6189965633
 40
0.8059226796
 40
1.0
 40
1.0
 40
1.0
 40
1.0
 10
6.3131928311
 20
2.6655227389
 30
0.0
 10
6.3127229081
 20
2.6655473665
 30
0.0
 10
6.3116258385
 20
2.6663152042
 30
0.0
 10
6.3105727197
 20
2.668354531
 30
0.0
 10
6.3094879205
 20
2.6714594757
 30
0.0
 10
6.3084957465
 20
2.6757221093
 30
0.0
 10
6.3075477073
 20
2.6811408751
 30
0.0
 10
6.3062869083
 20
2.690654626
 30
0.0
 10
6.3050021229
 20
2.70538025
 30
0.0
 10
6.3038420975
 20
2.7263243438
 30
0.0
 10
6.3030048505
 20
2.751472889
 30
0.0
 10
6.302504053
 20
2.7805878144
 30
0.0
 10
6.302287633
 20
2.8264926976
 30
0.0
 10
6.302981871
 20
2.8914011496
 30
0.0
 10
6.3051063941
 20
2.9765428441
 30
0.0
 10
6.3085013396
 20
3.068875713
 30
0.0
 10
6.3115005583
 20
3.1324583289
 30
0.0
 10
6.3131928311
 20
3.1648375063
 30
0.0
  0
SPLINE
  5
2A0
100
AcDbEntity
  8
_1
100
AcDbSpline
 62
7
  6
BYLAYER
 70
0
 71
3
 72
15
 73
11
 74
0
 42
0.0000001
 43
0.0000001
 44
0.0000000001
 40
0.0
 40
0.0
 40
0.0
 40
0.0
 40
0.0338201294
 40
0.0579039696
 40
0.0883830583
 40
0.1701903546
 40
0.2808546314
 40
0.4204051414
 40
0.5877284723
 40
1.0
 40
1.0
 40
1.0
 40
1.0
 10
14.2378741636
 20
9.2719980825
 30
0.0
 10
14.2377294734
 20
9.2713833713
 30
0.0
 10
14.2368159581
 20
9.2705478822
 30
0.0
 10
14.2352832745
 20
9.2699915865
 30
0.0
 10
14.2327817004
 20
9.2694357506
 30
0.0
 10
14.2286189464
 20
9.2691622088
 30
0.0
 10
14.2224176323
 20
9.2692051298
 30
0.0
 10
14.2146293202
 20
9.2696068305
 30
0.0
 10
14.2012444747
 20
9.2706999059
 30
0.0
 10
14.1904934862
 20
9.2719785092
 30
0.0
 10
14.1828626771
 20
9.2729947967
 30
0.0
  0
SPLINE
  5
2A1
100
AcDbEntity
  8
_1
100
AcDbSpline
 62
7
  6
BYLAYER
 70
0
 71
3
 72
11
 73
7
 74
0
 42
0.0000001
 43
0.0000001
 44
0.0000000001
 40
0.0
 40
0.0
 40
0.0
 40
0.0
 40
0.2112580191
 40
0.4543351352
 40
0.7211802971
 40
1.0
 40
1.0
 40
1.0
 40
1.0
 10
14.1828626771
 20
9.2729947967
 30
0.0
 10
14.1736165943
 20
9.2742262097
 30
0.0
 10
14.1537777111
 20
9.2772053414
 30
0.0
 10
14.122280441
 20
9.2818885315
 30
0.0
 10
14.0877404238
 20
9.2863311366
 30
0.0
 10
14.0639160589
 20
9.2899833844
 30
0.0
 10
14.0518129381
 20
9.292235054
 30
0.0
  0
SPLINE
  5
2A2
100
AcDbEntity
  8
_1
100
AcDbSpline
 62
7
  6
BYLAYER
 70
0
 71
3
 72
11
 73
7
 74
0
 42
0.0000001
 43
0.0000001
 44
0.0000000001
 40
0.0
 40
0.0
 40
0.0
 40
0.0
 40
0.2727211935
 40
0.5361899921
 40
0.7821885087
 40
1.0
 40
1.0
 40
1.0
 40
1.0
 10
14.0348477668
 20
9.2591347868
 30
0.0
 10
14.0474399493
 20
9.2580110339
 30
0.0
 10
14.0720896585
 20
9.2547359904
 30
0.0
 10
14.108209159
 20
9.2515169755
 30
0.0
 10
14.1418003488
 20
9.2486551093
 30
0.0
 10
14.1632786272
 20
9.2474995388
 30
0.0
 10
14.173372543
 20
9.2472565761
 30
0.0
  0
SPLINE
  5
2A3
100
AcDbEntity
  8
_1
100
AcDbSpline
 62
7
  6
BYLAYER
 70
0
 71
3
 72
14
 73
10
 74
0
 42
0.0000001
 43
0.0000001
 44
0.0000000001
 40
0.0
 40
0.0
 40
0.0
 40
0.0
 40
0.3945117788
 40
0.5563208408
 40
0.6927308076
 40
0.803348414
 40
0.888806527
 40
0.9518540047
 40
1.0
 40
1.0
 40
1.0
 40
1.0
 10
14.173372543
 20
9.2472565761
 30
0.0
 10
14.1816999208
 20
9.2470561342
 30
0.0
 10
14.1934560522
 20
9.2470349109
 30
0.0
 10
14.2080656343
 20
9.2478126618
 30
0.0
 10
14.2166580514
 20
9.2486745538
 30
0.0
 10
14.2235880016
 20
9.2498702923
 30
0.0
 10
14.228839399
 20
9.2514567489
 30
0.0
 10
14.2325444172
 20
9.2534631412
 30
0.0
 10
14.23397493
 20
9.2555108006
 30
0.0
 10
14.2342265428
 20
9.2564957326
 30
0.0
  0
SPLINE
  5
2A4
100
AcDbEntity
  8
_1
100
AcDbSpline
 62
7
  6
BYLAYER
 70
0
 71
3
 72
9
 73
5
 74
0
 42
0.0000001
 43
0.0000001
 44
0.0000000001
 40
0.0
 40
0.0
 40
0.0
 40
0.0
 40
0.5498725007
 40
1.0
 40
1.0
 40
1.0
 40
1.0
 10
14.0380160036
 20
9.2588404056
 30
0.0
 10
14.0347651173
 20
9.2183513667
 30
0.0
 10
14.0268988901
 20
9.1448894068
 30
0.0
 10
14.0199214104
 20
9.0713513344
 30
0.0
 10
14.0166916631
 20
9.0382574345
 30
0.0
  0
SPLINE
  5
2A5
100
AcDbEntity
  8
_1
100
AcDbSpline
 62
7
  6
BYLAYER
 70
0
 71
3
 72
16
 73
12
 74
0
 42
0.0000001
 43
0.0000001
 44
0.0000000001
 40
0.0
 40
0.0
 40
0.0
 40
0.0
 40
0.425935519
 40
0.5971922752
 40
0.7394051671
 40
0.8516524431
 40
0.9330637358
 40
0.9619419371
 40
0.982794417
 40
0.9955156032
 40
1.0
 40
1.0
 40
1.0
 40
1.0
 10
14.0166916631
 20
9.0382574345
 30
0.0
 10
14.0155164302
 20
9.026215304
 30
0.0
 10
14.0138366089
 20
9.0093344493
 30
0.0
 10
14.0116948887
 20
8.9884400394
 30
0.0
 10
14.0104395714
 20
8.9764121427
 30
0.0
 10
14.0094404727
 20
8.9669238965
 30
0.0
 10
14.0087614032
 20
8.9606384661
 30
0.0
 10
14.0083729848
 20
8.9569341755
 30
0.0
 10
14.0081660123
 20
8.9551709843
 30
0.0
 10
14.0080809263
 20
8.9540949362
 30
0.0
 10
14.0079969249
 20
8.953610115
 30
0.0
 10
14.0079990261
 20
8.9534827462
 30
0.0
  0
SPLINE
  5
2A6
100
AcDbEntity
  8
_1
100
AcDbSpline
 62
7
  6
BYLAYER
 70
0
 71
3
 72
15
 73
11
 74
0
 42
0.0000001
 43
0.0000001
 44
0.0000000001
 40
0.0
 40
0.0
 40
0.0
 40
0.0
 40
0.0337102445
 40
0.0577801784
 40
0.0882608181
 40
0.170096071
 40
0.2808015533
 40
0.4203902927
 40
0.58774056
 40
1.0
 40
1.0
 40
1.0
 40
1.0
 10
7.4408474549
 20
9.2719980825
 30
0.0
 10
7.4409932957
 20
9.271378259
 30
0.0
 10
7.4419191053
 20
9.2705375035
 30
0.0
 10
7.4434679959
 20
9.2699788431
 30
0.0
 10
7.4459998681
 20
9.2694203022
 30
0.0
 10
7.4502123053
 20
9.2691484984
 30
0.0
 10
7.4564875481
 20
9.2691998737
 30
0.0
 10
7.4643674102
 20
9.2696188303
 30
0.0
 10
7.4779067221
 20
9.2707436532
 30
0.0
 10
7.4887814616
 20
9.2720438762
 30
0.0
 10
7.4965005748
 20
9.2730708966
 30
0.0
  0
SPLINE
  5
2A7
100
AcDbEntity
  8
_1
100
AcDbSpline
 62
7
  6
BYLAYER
 70
0
 71
3
 72
11
 73
7
 74
0
 42
0.0000001
 43
0.0000001
 44
0.0000000001
 40
0.0
 40
0.0
 40
0.0
 40
0.0
 40
0.2117960828
 40
0.4549850161
 40
0.7215717683
 40
1.0
 40
1.0
 40
1.0
 40
1.0
 10
7.4965005748
 20
9.2730708966
 30
0.0
 10
7.505725167
 20
9.2742982194
 30
0.0
 10
7.5254987928
 20
9.2772448163
 30
0.0
 10
7.5568608709
 20
9.2818973403
 30
0.0
 10
7.5912040271
 20
9.2863535521
 30
0.0
 10
7.6148813558
 20
9.2899982154
 30
0.0
 10
7.6269086804
 20
9.2922350539
 30
0.0
  0
SPLINE
  5
2A8
100
AcDbEntity
  8
_1
100
AcDbSpline
 62
7
  6
BYLAYER
 70
0
 71
3
 72
22
 73
18
 74
0
 42
0.0000001
 43
0.0000001
 44
0.0000000001
 40
0.0
 40
0.0
 40
0.0
 40
0.0
 40
0.1940773204
 40
0.3810034367
 40
0.553041298
 40
0.7038583628
 40
0.7695281336
 40
0.8278126393
 40
0.8781529764
 40
0.9201332889
 40
0.9533618033
 40
0.9665973326
 40
0.977566225
 40
0.9862782882
 40
0.9927735996
 40
0.9971833105
 40
1.0
 40
1.0
 40
1.0
 40
1.0
 10
15.3655287874
 20
3.1648375063
 30
0.0
 10
15.3672210602
 20
3.1324583289
 30
0.0
 10
15.3702202789
 20
3.068875713
 30
0.0
 10
15.3736152244
 20
2.9765428441
 30
0.0
 10
15.3757397475
 20
2.8914011496
 30
0.0
 10
15.3764339855
 20
2.8264926976
 30
0.0
 10
15.3762175655
 20
2.7805878144
 30
0.0
 10
15.375716768
 20
2.751472889
 30
0.0
 10
15.374879521
 20
2.7263243438
 30
0.0
 10
15.3737194956
 20
2.70538025
 30
0.0
 10
15.3724347102
 20
2.690654626
 30
0.0
 10
15.3711739112
 20
2.6811408751
 30
0.0
 10
15.370225872
 20
2.6757221093
 30
0.0
 10
15.369233698
 20
2.6714594757
 30
0.0
 10
15.3681488988
 20
2.668354531
 30
0.0
 10
15.36709578
 20
2.6663152042
 30
0.0
 10
15.3659987104
 20
2.6655473665
 30
0.0
 10
15.3655287874
 20
2.6655227389
 30
0.0
  0
SPLINE
  5
2A9
100
AcDbEntity
  8
_1
100
AcDbSpline
 62
7
  6
BYLAYER
 70
0
 71
3
 72
22
 73
18
 74
0
 42
0.0000001
 43
0.0000001
 44
0.0000000001
 40
0.0
 40
0.0
 40
0.0
 40
0.0
 40
0.002813949
 40
0.0072039518
 40
0.0136723124
 40
0.0223603528
 40
0.0333094927
 40
0.0465233076
 40
0.079694883
 40
0.1216551865
 40
0.1720486006
 40
0.2304240372
 40
0.2962492549
 40
0.4475279892
 40
0.6197522265
 40
0.8062385362
 40
1.0
 40
1.0
 40
1.0
 40
1.0
 10
13.9440327216
 20
5.2656073662
 30
0.0
 10
13.9445021928
 20
5.2655827623
 30
0.0
 10
13.9455989213
 20
5.2648240723
 30
0.0
 10
13.9466551545
 20
5.2627936164
 30
0.0
 10
13.9477387573
 20
5.2597012874
 30
0.0
 10
13.9487286531
 20
5.2554498734
 30
0.0
 10
13.9496733122
 20
5.2500416624
 30
0.0
 10
13.9509304524
 20
5.2405438832
 30
0.0
 10
13.9522167162
 20
5.2258348682
 30
0.0
 10
13.9533798335
 20
5.2048946376
 30
0.0
 10
13.9542186194
 20
5.1797251315
 30
0.0
 10
13.9547226519
 20
5.1505598903
 30
0.0
 10
13.9549406845
 20
5.1045361745
 30
0.0
 10
13.954238793
 20
5.0394927767
 30
0.0
 10
13.9521096132
 20
4.9543154566
 30
0.0
 10
13.9487188217
 20
4.8620765379
 30
0.0
 10
13.9457222597
 20
4.7986194517
 30
0.0
 10
13.9440327216
 20
4.7662925988
 30
0.0
  0
SPLINE
  5
2AA
100
AcDbEntity
  8
_1
100
AcDbSpline
 62
7
  6
BYLAYER
 70
0
 71
3
 72
9
 73
5
 74
0
 42
0.0000001
 43
0.0000001
 44
0.0000000001
 40
0.0
 40
0.0
 40
0.0
 40
0.0
 40
0.2362747419
 40
1.0
 40
1.0
 40
1.0
 40
1.0
 10
15.3747683302
 20
26.4283163265
 30
0.0
 10
15.3743196179
 20
26.4096791811
 30
0.0
 10
15.3720807687
 20
26.3308084068
 30
0.0
 10
15.3686739081
 20
26.2519724536
 30
0.0
 10
15.3655287874
 20
26.1917951468
 30
0.0
  0
SPLINE
  5
2AB
100
AcDbEntity
  8
_1
100
AcDbSpline
 62
7
  6
BYLAYER
 70
0
 71
3
 72
27
 73
23
 74
0
 42
0.0000001
 43
0.0000001
 44
0.0000000001
 40
0.0
 40
0.0
 40
0.0
 40
0.0
 40
0.1975290444
 40
0.3860824014
 40
0.4748660891
 40
0.5588977246
 40
0.6374298929
 40
0.7097505816
 40
0.7751752589
 40
0.8331061489
 40
0.8830435737
 40
0.9245417451
 40
0.9420042439
 40
0.9572156889
 40
0.9701472032
 40
0.9807736866
 40
0.9890710648
 40
0.9950245373
 40
0.9971223758
 40
0.9986368974
 40
0.9995775849
 40
1.0
 40
1.0
 40
1.0
 40
1.0
 10
15.2459060449
 20
16.4779508205
 30
0.0
 10
15.2763269825
 20
16.4707732932
 30
0.0
 10
15.3357708377
 20
16.456677757
 30
0.0
 10
15.4088431404
 20
16.4391675369
 30
0.0
 10
15.4644226065
 20
16.4257268267
 30
0.0
 10
15.5030663053
 20
16.4163196254
 30
0.0
 10
15.5391638489
 20
16.4074670429
 30
0.0
 10
15.5723856468
 20
16.3992499694
 30
0.0
 10
15.6024252724
 20
16.3917445157
 30
0.0
 10
15.6290091615
 20
16.3850197946
 30
0.0
 10
15.6519003363
 20
16.3791362258
 30
0.0
 10
15.6685673257
 20
16.3747605759
 30
0.0
 10
15.6799003758
 20
16.3717091899
 30
0.0
 10
15.6868589124
 20
16.3697963026
 30
0.0
 10
15.6927622441
 20
16.3681293069
 30
0.0
 10
15.6976011911
 20
16.3667111875
 30
0.0
 10
15.7013582401
 20
16.3655501651
 30
0.0
 10
15.7038186878
 20
16.3647207157
 30
0.0
 10
15.7052215831
 20
16.364184145
 30
0.0
 10
15.7058962494
 20
16.3638766567
 30
0.0
 10
15.7062645382
 20
16.36368139
 30
0.0
 10
15.7064619602
 20
16.363496218
 30
0.0
 10
15.7064466509
 20
16.3634311536
 30
0.0
  0
SPLINE
  5
2AC
100
AcDbEntity
  8
_1
100
AcDbSpline
 62
7
  6
BYLAYER
 70
0
 71
3
 72
17
 73
13
 74
0
 42
0.0000001
 43
0.0000001
 44
0.0000000001
 40
0.0
 40
0.0
 40
0.0
 40
0.0
 40
0.1250154244
 40
0.1876041953
 40
0.2502277524
 40
0.3752697953
 40
0.5003568637
 40
0.5629456235
 40
0.62551196
 40
0.7504582725
 40
0.8752386541
 40
1.0
 40
1.0
 40
1.0
 40
1.0
 10
15.3655612322
 20
3.2687788047
 30
0.0
 10
15.3655337028
 20
3.3635633751
 30
0.0
 10
15.3518240604
 20
3.5062652612
 30
0.0
 10
15.3071809227
 20
3.6908660446
 30
0.0
 10
15.2450804999
 20
3.8704331862
 30
0.0
 10
15.1359837597
 20
4.0826629014
 30
0.0
 10
14.9887489927
 20
4.2704416802
 30
0.0
 10
14.8514824426
 20
4.4017875027
 30
0.0
 10
14.7024367101
 20
4.5193991098
 30
0.0
 10
14.4964332714
 20
4.639281554
 30
0.0
 10
14.2268505162
 20
4.7333371049
 30
0.0
 10
14.038390395
 20
4.7613878268
 30
0.0
 10
13.9439277407
 20
4.7663316517
 30
0.0
  0
SPLINE
  5
2AD
100
AcDbEntity
  8
_1
100
AcDbSpline
 62
7
  6
BYLAYER
 70
0
 71
3
 72
12
 73
8
 74
0
 42
0.0000001
 43
0.0000001
 44
0.0000000001
 40
0.0
 40
0.0
 40
0.0
 40
0.0
 40
0.2731108095
 40
0.5365940433
 40
0.6623256734
 40
0.7824966134
 40
1.0
 40
1.0
 40
1.0
 40
1.0
 10
7.6418085028
 20
9.2440136596
 30
0.0
 10
7.6295247659
 20
9.2429125115
 30
0.0
 10
7.60544038
 20
9.2401981938
 30
0.0
 10
7.5755863601
 20
9.2382698016
 30
0.0
 10
7.552619885
 20
9.2369956046
 30
0.0
 10
7.5317183682
 20
9.2359640013
 30
0.0
 10
7.5164598184
 20
9.2358540775
 30
0.0
 10
7.5066399399
 20
9.2360534711
 30
0.0
  0
SPLINE
  5
2AE
100
AcDbEntity
  8
_1
100
AcDbSpline
 62
7
  6
BYLAYER
 70
0
 71
3
 72
14
 73
10
 74
0
 42
0.0000001
 43
0.0000001
 44
0.0000000001
 40
0.0
 40
0.0
 40
0.0
 40
0.0
 40
0.3839931077
 40
0.5432270016
 40
0.6785978574
 40
0.7896895183
 40
0.8775989043
 40
0.9452977512
 40
1.0
 40
1.0
 40
1.0
 40
1.0
 10
7.5066399399
 20
9.2360534711
 30
0.0
 10
7.4984227682
 20
9.2362203215
 30
0.0
 10
7.48679375
 20
9.2367622832
 30
0.0
 10
7.4723581163
 20
9.2384106443
 30
0.0
 10
7.4637917276
 20
9.2398642893
 30
0.0
 10
7.4568442796
 20
9.24163899
 30
0.0
 10
7.4515303912
 20
9.2437839439
 30
0.0
 10
7.4477675393
 20
9.24637407
 30
0.0
 10
7.4463448467
 20
9.2487233144
 30
0.0
 10
7.4460568361
 20
9.2498581675
 30
0.0
  0
SPLINE
  5
2AF
100
AcDbEntity
  8
_1
100
AcDbSpline
 62
7
  6
BYLAYER
 70
0
 71
3
 72
9
 73
5
 74
0
 42
0.0000001
 43
0.0000001
 44
0.0000000001
 40
0.0
 40
0.0
 40
0.0
 40
0.0
 40
0.5540353315
 40
1.0
 40
1.0
 40
1.0
 40
1.0
 10
7.6420191952
 20
9.2505863076
 30
0.0
 10
7.6451058998
 20
9.2100937214
 30
0.0
 10
7.6515509318
 20
9.1370705404
 30
0.0
 10
7.6593724522
 20
9.064189707
 30
0.0
 10
7.6628166101
 20
9.0316830303
 30
0.0
  0
SPLINE
  5
2B0
100
AcDbEntity
  8
_1
100
AcDbSpline
 62
7
  6
BYLAYER
 70
0
 71
3
 72
21
 73
17
 74
0
 42
0.0000001
 43
0.0000001
 44
0.0000000001
 40
0.0
 40
0.0
 40
0.0
 40
0.0
 40
0.2269405893
 40
0.4264257022
 40
0.5976191023
 40
0.7396842807
 40
0.7995323187
 40
0.8517848788
 40
0.8963382159
 40
0.933088647
 40
0.9619325478
 40
0.9827664459
 40
0.9901474536
 40
0.9954875128
 40
0.9987744342
 40
1.0
 40
1.0
 40
1.0
 40
1.0
 10
7.6628166101
 20
9.0316830303
 30
0.0
 10
7.6634429356
 20
9.0257716405
 30
0.0
 10
7.6646110804
 20
9.0146630991
 30
0.0
 10
7.6662234108
 20
8.9990923215
 30
0.0
 10
7.6675866283
 20
8.9857308882
 30
0.0
 10
7.6685649817
 20
8.9760068102
 30
0.0
 10
7.6692249074
 20
8.9693820173
 30
0.0
 10
7.6696292882
 20
8.9652985225
 30
0.0
 10
7.6699702889
 20
8.9618170401
 30
0.0
 10
7.6702494553
 20
8.958944725
 30
0.0
 10
7.670459488
 20
8.956692253
 30
0.0
 10
7.6706023728
 20
8.9552010005
 30
0.0
 10
7.6706673813
 20
8.9543290883
 30
0.0
 10
7.6707157593
 20
8.9539045213
 30
0.0
 10
7.670703429
 20
8.9536589002
 30
0.0
 10
7.6707391409
 20
8.9535274842
 30
0.0
 10
7.6707207284
 20
8.953501187
 30
0.0
  0
SPLINE
  5
2B1
100
AcDbEntity
  8
_1
100
AcDbSpline
 62
7
  6
BYLAYER
 70
0
 71
3
 72
16
 73
12
 74
0
 42
0.0000001
 43
0.0000001
 44
0.0000000001
 40
0.0
 40
0.0
 40
0.0
 40
0.0
 40
0.1247803943
 40
0.2495915946
 40
0.3121137532
 40
0.3746516759
 40
0.499716349
 40
0.6248080188
 40
0.7499019001
 40
0.8749460124
 40
1.0
 40
1.0
 40
1.0
 40
1.0
 10
7.7347452516
 20
4.7663109886
 30
0.0
 10
7.6402794998
 20
4.7613638727
 30
0.0
 10
7.451838811
 20
4.733326837
 30
0.0
 10
7.2270602312
 20
4.6548513849
 30
0.0
 10
7.0587662697
 20
4.5673470387
 30
0.0
 10
6.899257983
 20
4.4643781427
 30
0.0
 10
6.7192130276
 20
4.3077861386
 30
0.0
 10
6.5427358469
 20
4.0825500059
 30
0.0
 10
6.4117597847
 20
3.8280669203
 30
0.0
 10
6.3314365085
 20
3.5535158542
 30
0.0
 10
6.3131968579
 20
3.3634463657
 30
0.0
 10
6.313177907
 20
3.2686437564
 30
0.0
  0
SPLINE
  5
2B2
100
AcDbEntity
  8
_1
100
AcDbSpline
 62
7
  6
BYLAYER
 70
0
 71
3
 72
9
 73
5
 74
0
 42
0.0000001
 43
0.0000001
 44
0.0000000001
 40
0.0
 40
0.0
 40
0.0
 40
0.0
 40
0.2598566095
 40
1.0
 40
1.0
 40
1.0
 40
1.0
 10
6.3131928311
 20
26.1917951468
 30
0.0
 10
6.3121227088
 20
26.2122703804
 30
0.0
 10
6.3082618603
 20
26.2910776115
 30
0.0
 10
6.3053589023
 20
26.3699345285
 30
0.0
 10
6.3039532883
 20
26.4283163265
 30
0.0
  0
SPLINE
  5
2B3
100
AcDbEntity
  8
_1
100
AcDbSpline
 62
7
  6
BYLAYER
 70
0
 71
3
 72
27
 73
23
 74
0
 42
0.0000001
 43
0.0000001
 44
0.0000000001
 40
0.0
 40
0.0
 40
0.0
 40
0.0
 40
0.0004218754
 40
0.0013609639
 40
0.0028728827
 40
0.004967181
 40
0.0109110165
 40
0.0191954548
 40
0.0298053225
 40
0.0427175878
 40
0.0579082964
 40
0.0753473837
 40
0.1167954206
 40
0.1666922564
 40
0.2245946812
 40
0.2899994963
 40
0.3622893402
 40
0.4407944374
 40
0.5248352559
 40
0.6136622024
 40
0.8023186569
 40
1.0
 40
1.0
 40
1.0
 40
1.0
 10
5.9722749676
 20
16.3634311536
 30
0.0
 10
5.9722596779
 20
16.3634961349
 30
0.0
 10
5.9724566026
 20
16.3636811262
 30
0.0
 10
5.9728243239
 20
16.3638761714
 30
0.0
 10
5.9734977423
 20
16.364183254
 30
0.0
 10
5.9748982918
 20
16.3647191005
 30
0.0
 10
5.9773547333
 20
16.3655473914
 30
0.0
 10
5.9811058171
 20
16.3667067675
 30
0.0
 10
5.985937281
 20
16.3681229397
 30
0.0
 10
5.9918319339
 20
16.3697877226
 30
0.0
 10
5.9987807418
 20
16.3716981532
 30
0.0
 10
6.0100993009
 20
16.3747459818
 30
0.0
 10
6.0267487261
 20
16.3791174166
 30
0.0
 10
6.0496215577
 20
16.3849965983
 30
0.0
 10
6.0761917161
 20
16.3917182358
 30
0.0
 10
6.1062191221
 20
16.3992209252
 30
0.0
 10
6.139428912
 20
16.4074353006
 30
0.0
 10
6.1755189008
 20
16.4162863257
 30
0.0
 10
6.2141664608
 20
16.4256946524
 30
0.0
 10
6.2697697869
 20
16.439141425
 30
0.0
 10
6.3428880067
 20
16.4566628513
 30
0.0
 10
6.4023711784
 20
16.4707677586
 30
0.0
 10
6.4328155736
 20
16.4779508205
 30
0.0
  0
ENDSEC
  0
SECTION
  2
OBJECTS
  0
DICTIONARY
  5
C
100
AcDbDictionary
280
0
281
1
  3
ACAD_GROUP
350
D
  3
ACAD_MLINESTYLE
350
17
  3
ACAD_LAYOUT
350
1A
  3
ACAD_PLOTSETTINGS
350
19
  3
ACAD_PLOTSTYLENAME
350
E
  0
DICTIONARY
  5
D
102
{ACAD_REACTORS
330
C
102
}
100
AcDbDictionary
280
0
281
1
  0
ACDBDICTIONARYWDFLT
  5
E
102
{ACAD_REACTORS
330
C
102
}
100
AcDbDictionary
281
1
  3
Normal
350
F
100
AcDbDictionaryWithDefault
340
F
  0
DICTIONARY
  5
17
102
{ACAD_REACTORS
330
C
102
}
100
AcDbDictionary
280
0
281
1
  3
Standard
350
18
  0
DICTIONARY
  5
19
102
{ACAD_REACTORS
330
C
102
}
100
AcDbDictionary
281
1
  0
DICTIONARY
  5
1A
102
{ACAD_REACTORS
330
C
102
}
100
AcDbDictionary
281
1
  3
Model
350
2B4
  3
Layout1
350
2B5
  0
ACDBPLACEHOLDER
  5
F
102
{ACAD_REACTORS
330
E
102
}
  0
MLINESTYLE
  5
18
102
{ACAD_REACTORS
330
17
102
}
100
AcDbMlineStyle
  2
STANDARD
 70
0
  3

 62
256
 51
90.0
 52
90.0
 71
2
 49
0.5
 62
256
  6
BYLAYER
 49
-0.5
 62
256
  6
BYLAYER
  0
LAYOUT
  5
2B4
102
{ACAD_REACTORS
330
1A
102
}
100
AcDbPlotSettings
  1

  2
none_device
  4

  6

 40
0.0
 41
0.0
 42
0.0
 43
0.0
 44
210.0
 45
297.0
 46
0.0
 47
0.0
 48
0.0
 49
0.0
140
0.0
141
0.0
142
1.0
143
1.0
 70
1024
 72
1
 73
0
 74
0
  7

 75
0
147
1.0
148
0.0
149
0.0
100
AcDbLayout
  1
Model
 70
0
 71
0
 10
0.0
 20
0.0
 11
210.0
 21
297.0
 12
0.0
 22
0.0
 32
0.0
 14
0.0
 24
0.0
 34
0.0
 15
0.0
 25
0.0
 35
0.0
146
0.0
 13
0.0
 23
0.0
 33
0.0
 16
1.0
 26
0.0
 36
0.0
 17
0.0
 27
1.0
 37
0.0
 76
0
330
211
345
0
346
0
  0
LAYOUT
  5
2B5
102
{ACAD_REACTORS
330
1A
102
}
100
AcDbPlotSettings
  1

  2
none_device
  4

  6

 40
0.0
 41
0.0
 42
0.0
 43
0.0
 44
210.0
 45
297.0
 46
0.0
 47
0.0
 48
0.0
 49
0.0
140
0.0
141
0.0
142
1.0
143
1.0
 70
0
 72
1
 73
0
 74
0
  7

 75
0
147
1.0
148
0.0
149
0.0
100
AcDbLayout
  1
Layout1
 70
0
 71
1
 10
0.0
 20
0.0
 11
210.0
 21
297.0
 12
0.0
 22
0.0
 32
0.0
 14
0.0
 24
0.0
 34
0.0
 15
0.0
 25
0.0
 35
0.0
146
0.0
 13
0.0
 23
0.0
 33
0.0
 16
1.0
 26
0.0
 36
0.0
 17
0.0
 27
1.0
 37
0.0
 76
0
330
212
345
0
346
0
  0
ENDSEC
  0
EOF
