999
DXF file: C:\Users\sesa63760\Dev\_Creo\CAD\MCADPD0005208_3D-CAD\drw0001_1.dxf
999
Pro/ENGINEER 2019471 by Parametric Technology Corporation
  0
SECTION
  2
HEADER
  9
$ACADVER
  1
AC1024
  9
$DWGCODEPAGE
  3
ANSI_1252
  9
$EXTMAX
 10
33.8112225851
 20
47.8187290847
 30
0.0
  9
$EXTMIN
 10
0.0
 20
0.0
 30
0.0
  9
$LIMMIN
 10
0.0
 20
0.0
  9
$LIMMAX
 10
33.8112225851
 20
47.8187290847
  9
$VIEWCTR
 10
16.9056112926
 20
23.9093645423
  9
$VIEWSIZE
 40
47.8187290847
  9
$CLAYER
  8
0
  9
$LTSCALE
 40
3.1170727107
  9
$CELTYPE
  6
BYLAYER
  9
$DIMSCALE
 40
1.0
  9
$DIMASZ
 40
0.4025145546
  9
$DIMEXO
 40
1.0
  9
$DIMDLI
 40
2.1536138729
  9
$DIMEXE
 40
1.0
  9
$DIMCEN
 40
0.5100664436
  9
$DIMLFAC
 40
1.0
  9
$DIMBLK
  1
_FILLED
  9
$DIMALT
 70
0
  9
$DIMALTF
 40
0.0393700787
  9
$DIMTXT
 40
0.5635203764
  9
$DIMTOL
 70
1
  9
$DIMLIM
 70
0
  9
$DIMTFAC
 40
1.0
  9
$DIMTP
 40
0.01
  9
$DIMTM
 40
0.01
  9
$DIMGAP
 40
0.625
  9
$DIMDSEP
 70
46
  9
$AUNITS
 70
0
  9
$PDMODE
 70
3
  9
$PDSIZE
 40
0.3125
  9
$HANDSEED
  5
2D0
  9
$TILEMODE
 70
1
  9
$MEASUREMENT
 70
1
  9
$INSUNITS
 70
4
  0
ENDSEC
  0
SECTION
  2
CLASSES
  0
CLASS
  1
ACDBDICTIONARYWDFLT
  2
AcDbDictionaryWithDefault
  3
AutoCAD 2000
 90
0
 91
1
280
0
281
0
  0
CLASS
  1
ACDBPLACEHOLDER
  2
AcDbPlaceHolder
  3
AutoCAD 2000
 90
0
 91
1
280
0
281
0
  0
CLASS
  1
LAYOUT
  2
AcDbLayout
  3
AutoCAD 2000
 90
0
 91
0
280
0
281
0
  0
ENDSEC
  0
SECTION
  2
TABLES
  0
TABLE
  2
VPORT
  5
8
100
AcDbSymbolTable
 70
2
  0
VPORT
  5
1F4
100
AcDbSymbolTableRecord
100
AcDbViewportTableRecord
  2
*ACTIVE
 70
0
 10
0.0
 20
0.0
 11
1.0
 21
1.0
 12
16.9056112926
 22
23.9093645423
 13
0.0
 23
0.0
 14
1.0
 24
1.0
 15
0.0
 25
0.0
 16
0.0
 26
0.0
 36
1.0
 17
0.0
 27
0.0
 37
0.0
 40
47.8187290847
 41
0.7070707071
 42
50.0
 43
0.0
 44
0.0
 50
0.0
 51
0.0
 71
0
 72
100
 73
1
 74
1
 75
0
 76
0
 77
0
 78
0
  0
ENDTAB
  0
TABLE
  2
LTYPE
  5
5
100
AcDbSymbolTable
 70
6
  0
LTYPE
  5
14
100
AcDbSymbolTableRecord
100
AcDbLinetypeTableRecord
  2
BYBLOCK
 70
0
  3

 72
65
 73
0
 40
0.0
  0
LTYPE
  5
15
100
AcDbSymbolTableRecord
100
AcDbLinetypeTableRecord
  2
BYLAYER
 70
0
  3

 72
65
 73
0
 40
0.0
  0
LTYPE
  5
16
100
AcDbSymbolTableRecord
100
AcDbLinetypeTableRecord
  2
CONTINUOUS
 70
64
  3
Solid line
 72
65
 73
0
 40
0.0
  0
LTYPE
  5
1F5
100
AcDbSymbolTableRecord
100
AcDbLinetypeTableRecord
  2
CENTER
 70
64
  3
____ _ ____ _ ____ _ ____ _ ____ _ ____ _ ____
 72
65
 73
4
 40
0.6
 49
0.375
 74
0
 49
-0.075
 74
0
 49
0.075
 74
0
 49
-0.075
 74
0
  0
LTYPE
  5
1F6
100
AcDbSymbolTableRecord
100
AcDbLinetypeTableRecord
  2
HIDDEN
 70
64
  3
- - - - - - - - - - - - - - - - - - - -
 72
65
 73
2
 40
0.2
 49
0.1
 74
0
 49
-0.1
 74
0
  0
LTYPE
  5
1F7
100
AcDbSymbolTableRecord
100
AcDbLinetypeTableRecord
  2
PHANTOM
 70
64
  3
_____ _ _ _____ _ _ _____ _ _ _____
 72
65
 73
6
 40
0.8
 49
0.45
 74
0
 49
-0.05
 74
0
 49
0.1
 74
0
 49
-0.05
 74
0
 49
0.1
 74
0
 49
-0.05
 74
0
  0
LTYPE
  5
1F8
100
AcDbSymbolTableRecord
100
AcDbLinetypeTableRecord
  2
DOT
 70
64
  3
. . . . . . . . . . . . . . . . . . . .
 72
65
 73
2
 40
0.2
 49
0.1
 74
0
 49
-0.1
 74
0
  0
LTYPE
  5
1F9
100
AcDbSymbolTableRecord
100
AcDbLinetypeTableRecord
  2
DASHED
 70
64
  3
- - - - - - - - - - - - - - - - - - - -
 72
65
 73
2
 40
0.2
 49
0.1
 74
0
 49
-0.1
 74
0
  0
ENDTAB
  0
TABLE
  2
LAYER
  5
2
100
AcDbSymbolTable
 70
36
  0
LAYER
  5
10
100
AcDbSymbolTableRecord
100
AcDbLayerTableRecord
  2
0
 70
0
 62
7
  6
CONTINUOUS
370
-3
390
F
  0
LAYER
  5
1FA
100
AcDbSymbolTableRecord
100
AcDbLayerTableRecord
  2
DEFAULT_1
 70
0
 62
7
  6
CENTER
370
-3
390
F
  0
LAYER
  5
1FB
100
AcDbSymbolTableRecord
100
AcDbLayerTableRecord
  2
DEFAULT_2
 70
0
 62
7
  6
HIDDEN
370
-3
390
F
  0
LAYER
  5
1FC
100
AcDbSymbolTableRecord
100
AcDbLayerTableRecord
  2
DEFAULT_3
 70
0
 62
7
  6
PHANTOM
370
-3
390
F
  0
LAYER
  5
1FD
100
AcDbSymbolTableRecord
100
AcDbLayerTableRecord
  2
00_COMPONENTS
 70
0
 62
7
  6
CONTINUOUS
370
-3
390
F
  0
LAYER
  5
1FE
100
AcDbSymbolTableRecord
100
AcDbLayerTableRecord
  2
00_COMPONENTS_2
 70
0
 62
7
  6
CONTINUOUS
370
-3
390
F
  0
LAYER
  5
1FF
100
AcDbSymbolTableRecord
100
AcDbLayerTableRecord
  2
01_1_DEFAULT_DATUMS
 70
0
 62
7
  6
CONTINUOUS
370
-3
390
F
  0
LAYER
  5
200
100
AcDbSymbolTableRecord
100
AcDbLayerTableRecord
  2
01_PLANES
 70
0
 62
7
  6
CONTINUOUS
370
-3
390
F
  0
LAYER
  5
201
100
AcDbSymbolTableRecord
100
AcDbLayerTableRecord
  2
02_COORD_SYS
 70
0
 62
7
  6
CONTINUOUS
370
-3
390
F
  0
LAYER
  5
202
100
AcDbSymbolTableRecord
100
AcDbLayerTableRecord
  2
03_AXES
 70
0
 62
7
  6
CONTINUOUS
370
-3
390
F
  0
LAYER
  5
203
100
AcDbSymbolTableRecord
100
AcDbLayerTableRecord
  2
04_POINTS
 70
0
 62
7
  6
CONTINUOUS
370
-3
390
F
  0
LAYER
  5
204
100
AcDbSymbolTableRecord
100
AcDbLayerTableRecord
  2
05_CURVES
 70
0
 62
7
  6
CONTINUOUS
370
-3
390
F
  0
LAYER
  5
205
100
AcDbSymbolTableRecord
100
AcDbLayerTableRecord
  2
06_SURFS
 70
0
 62
7
  6
CONTINUOUS
370
-3
390
F
  0
LAYER
  5
206
100
AcDbSymbolTableRecord
100
AcDbLayerTableRecord
  2
07_COSMETICS
 70
0
 62
7
  6
CONTINUOUS
370
-3
390
F
  0
LAYER
  5
207
100
AcDbSymbolTableRecord
100
AcDbLayerTableRecord
  2
10_NOTES
 70
0
 62
7
  6
CONTINUOUS
370
-3
390
F
  0
LAYER
  5
208
100
AcDbSymbolTableRecord
100
AcDbLayerTableRecord
  2
11_NOTES_PUB
 70
0
 62
7
  6
CONTINUOUS
370
-3
390
F
  0
LAYER
  5
209
100
AcDbSymbolTableRecord
100
AcDbLayerTableRecord
  2
13_REF_GTOL
 70
0
 62
7
  6
CONTINUOUS
370
-3
390
F
  0
LAYER
  5
20A
100
AcDbSymbolTableRecord
100
AcDbLayerTableRecord
  2
16_MISC
 70
0
 62
7
  6
CONTINUOUS
370
-3
390
F
  0
LAYER
  5
20B
100
AcDbSymbolTableRecord
100
AcDbLayerTableRecord
  2
17_NO_PRINT
 70
0
 62
7
  6
CONTINUOUS
370
-3
390
F
  0
LAYER
  5
20C
100
AcDbSymbolTableRecord
100
AcDbLayerTableRecord
  2
18_DATUM_CAMS_JOINTS
 70
0
 62
7
  6
CONTINUOUS
370
-3
390
F
  0
LAYER
  5
20D
100
AcDbSymbolTableRecord
100
AcDbLayerTableRecord
  2
19_DATUM_FUNCTIONAL
 70
0
 62
7
  6
CONTINUOUS
370
-3
390
F
  0
LAYER
  5
20E
100
AcDbSymbolTableRecord
100
AcDbLayerTableRecord
  2
20_DATUM_KINEMATIC_SCHEME
 70
0
 62
7
  6
CONTINUOUS
370
-3
390
F
  0
ENDTAB
  0
TABLE
  2
STYLE
  5
3
100
AcDbSymbolTable
 70
1
  0
STYLE
  5
11
100
AcDbSymbolTableRecord
100
AcDbTextStyleTableRecord
  2
STANDARD
 70
0
 40
0.0
 41
1.0
 50
0.0
 71
0
 42
0.2
  3
ARIAL.TTF
  4

  0
STYLE
  5
20F
100
AcDbSymbolTableRecord
100
AcDbTextStyleTableRecord
  2
TEXTSTYLE_1
 70
0
 40
0.0
 41
0.8
 50
0.0
 71
0
 42
0.2
  3
gdt
  4

  0
ENDTAB
  0
TABLE
  2
VIEW
  5
6
100
AcDbSymbolTable
 70
0
  0
ENDTAB
  0
TABLE
  2
UCS
  5
7
100
AcDbSymbolTable
 70
0
  0
ENDTAB
  0
TABLE
  2
APPID
  5
9
100
AcDbSymbolTable
 70
1
  0
APPID
  5
210
100
AcDbSymbolTableRecord
100
AcDbRegAppTableRecord
  2
ACAD
 70
0
  0
ENDTAB
  0
TABLE
  2
BLOCK_RECORD
  5
1
100
AcDbSymbolTable
 70
0
  0
BLOCK_RECORD
  5
211
100
AcDbSymbolTableRecord
100
AcDbBlockTableRecord
  2
*Model_Space
  0
BLOCK_RECORD
  5
212
100
AcDbSymbolTableRecord
100
AcDbBlockTableRecord
  2
*Paper_Space
  0
BLOCK_RECORD
  5
213
100
AcDbSymbolTableRecord
100
AcDbBlockTableRecord
  2
_FILLED
  0
ENDTAB
  0
TABLE
  2
DIMSTYLE
  5
A
100
AcDbSymbolTable
 70
1
100
AcDbDimStyleTable
 71
0
  0
DIMSTYLE
105
214
100
AcDbSymbolTableRecord
100
AcDbDimStyleTableRecord
  2
STANDARD
 70
0
  3

  4

 40
1.0
 41
0.4025145546
 42
1.0
 43
0.38
 44
1.0
 45
0.0
 46
0.0
 47
0.01
 48
0.01
140
0.5635203764
141
0.09
142
0.0
143
25.4
144
1.0
145
0.0
146
1.0
147
0.625
 71
1
 72
0
 73
0
 74
0
 75
0
 76
0
 77
1
 78
8
 79
2
170
0
171
1
172
0
173
0
174
0
175
0
176
0
177
0
178
0
270
2
179
2
271
2
272
2
273
2
274
2
275
0
280
0
281
0
282
0
283
1
284
8
285
0
286
0
287
3
288
0
340
11
278
46
341
213
342
213
343
213
344
213
  0
ENDTAB
  0
ENDSEC
  0
SECTION
  2
BLOCKS
  0
BLOCK
  5
20
100
AcDbEntity
  8
0
100
AcDbBlockBegin
  2
*Model_Space
 70
0
 10
0.0
 20
0.0
 30
0.0
  3
*Model_Space
  1

  0
ENDBLK
  5
21
100
AcDbEntity
  8
0
100
AcDbBlockEnd
  0
BLOCK
  5
1C
100
AcDbEntity
  8
0
100
AcDbBlockBegin
  2
*Paper_Space
 70
0
 10
0.0
 20
0.0
 30
0.0
  3
*Paper_Space
  1

  0
ENDBLK
  5
1D
100
AcDbEntity
  8
0
100
AcDbBlockEnd
  0
BLOCK
  5
215
100
AcDbEntity
  8
0
100
AcDbBlockBegin
  2
_FILLED
 70
64
 10
0.0
 20
0.0
  3
_FILLED
  1

  0
SOLID
  5
216
100
AcDbEntity
  8
0
  6
BYBLOCK
 62
0
100
AcDbTrace
 10
0.0
 20
0.0
 11
-1.0
 21
0.25
 12
-1.0
 22
-0.25
 13
-1.0
 23
-0.25
  0
ENDBLK
  5
217
100
AcDbEntity
  8
0
  6
BYBLOCK
 62
0
100
AcDbBlockEnd
  0
ENDSEC
  0
SECTION
  2
ENTITIES
  0
LINE
  5
218
100
AcDbEntity
  8
00_COMPONENTS
100
AcDbLine
 62
7
  6
BYLAYER
 10
4.3507493653
 20
29.4041251119
 11
4.3519166121
 21
26.4487350738
  0
LINE
  5
219
100
AcDbEntity
  8
00_COMPONENTS
100
AcDbLine
 62
7
  6
BYLAYER
 10
3.9224908271
 20
17.9709981958
 11
3.9224908271
 21
19.3379693457
  0
LINE
  5
21A
100
AcDbEntity
  8
00_COMPONENTS
100
AcDbLine
 62
7
  6
BYLAYER
 10
4.2391559272
 20
26.6972807845
 11
4.2391559272
 21
29.6877767257
  0
LINE
  5
21B
100
AcDbEntity
  8
00_COMPONENTS
100
AcDbLine
 62
7
  6
BYLAYER
 10
12.4996410058
 20
11.5137766139
 11
5.7823814608
 21
15.3919004855
  0
LINE
  5
21C
100
AcDbEntity
  8
00_COMPONENTS
100
AcDbLine
 62
7
  6
BYLAYER
 10
5.7823814608
 20
16.7323663018
 11
5.7823814608
 21
15.3919004855
  0
LINE
  5
21D
100
AcDbEntity
  8
00_COMPONENTS
100
AcDbLine
 62
7
  6
BYLAYER
 10
4.3484063943
 20
29.8966396954
 11
11.0627309327
 21
33.9518568739
  0
LINE
  5
21E
100
AcDbEntity
  8
00_COMPONENTS
100
AcDbLine
 62
7
  6
BYLAYER
 10
16.8214292409
 20
37.2456259194
 11
11.0627309327
 21
33.9518568739
  0
LINE
  5
21F
100
AcDbEntity
  8
00_COMPONENTS
100
AcDbLine
 62
7
  6
BYLAYER
 10
16.8239913519
 20
37.2500219972
 11
17.2769226896
 21
37.508678985
  0
LINE
  5
220
100
AcDbEntity
  8
00_COMPONENTS
100
AcDbLine
 62
7
  6
BYLAYER
 10
12.4996364636
 20
12.8542397619
 11
5.7823769184
 21
16.7323636336
  0
LINE
  5
221
100
AcDbEntity
  8
00_COMPONENTS
100
AcDbLine
 62
7
  6
BYLAYER
 10
6.7342729065
 20
29.0448040193
 11
6.7342729065
 21
28.1737592407
  0
LINE
  5
222
100
AcDbEntity
  8
00_COMPONENTS
100
AcDbLine
 62
7
  6
BYLAYER
 10
7.0575786525
 20
25.3014353063
 11
7.0575786525
 21
25.9236101482
  0
LINE
  5
223
100
AcDbEntity
  8
00_COMPONENTS
100
AcDbLine
 62
7
  6
BYLAYER
 10
4.9204782511
 20
28.6945346357
 11
7.2730905171
 21
30.0605592065
  0
LINE
  5
224
100
AcDbEntity
  8
00_COMPONENTS
100
AcDbLine
 62
7
  6
BYLAYER
 10
17.6901442469
 20
36.6559802875
 11
7.2730905171
 21
30.6417274127
  0
LINE
  5
225
100
AcDbEntity
  8
00_COMPONENTS
100
AcDbLine
 62
7
  6
BYLAYER
 10
7.2730905171
 20
29.3558994062
 11
7.2730905171
 21
30.6417274127
  0
LINE
  5
226
100
AcDbEntity
  8
00_COMPONENTS
100
AcDbLine
 62
7
  6
BYLAYER
 10
7.5127918937
 20
19.6634755576
 11
7.5127918937
 21
24.6238441636
  0
LINE
  5
227
100
AcDbEntity
  8
00_COMPONENTS
100
AcDbLine
 62
7
  6
BYLAYER
 10
7.7060691571
 20
26.689845085
 11
7.7060691571
 21
28.6185870947
  0
LINE
  5
228
100
AcDbEntity
  8
00_COMPONENTS
100
AcDbLine
 62
7
  6
BYLAYER
 10
8.4554961053
 20
24.0583937893
 11
8.4554961053
 21
19.119247289
  0
LINE
  5
229
100
AcDbEntity
  8
00_COMPONENTS
100
AcDbLine
 62
7
  6
BYLAYER
 10
7.7060691571
 20
28.6185870947
 11
8.2410738233
 21
28.9940837953
  0
LINE
  5
22A
100
AcDbEntity
  8
00_COMPONENTS
100
AcDbLine
 62
7
  6
BYLAYER
 10
19.0181297732
 20
36.5034153487
 11
18.6110871424
 21
36.218265103
  0
LINE
  5
22B
100
AcDbEntity
  8
00_COMPONENTS
100
AcDbLine
 62
7
  6
BYLAYER
 10
6.7342729065
 20
29.0448040193
 11
7.2730951725
 21
29.3558913427
  0
LINE
  5
22C
100
AcDbEntity
  8
00_COMPONENTS
100
AcDbLine
 62
7
  6
BYLAYER
 10
4.9713536696
 20
28.2074071277
 11
7.2730905171
 21
29.5069485746
  0
LINE
  5
22D
100
AcDbEntity
  8
00_COMPONENTS
100
AcDbLine
 62
7
  6
BYLAYER
 10
4.9713111739
 20
28.2074813604
 11
4.8966989983
 21
28.174183741
  0
LINE
  5
22E
100
AcDbEntity
  8
00_COMPONENTS
100
AcDbLine
 62
7
  6
BYLAYER
 10
7.2433830869
 20
19.5079696593
 11
8.7248946523
 21
18.6526379084
  0
LINE
  5
22F
100
AcDbEntity
  8
00_COMPONENTS
100
AcDbLine
 62
7
  6
BYLAYER
 10
15.7714391773
 20
14.5844055657
 11
17.2529507427
 21
13.7290738148
  0
LINE
  5
230
100
AcDbEntity
  8
00_COMPONENTS
100
AcDbLine
 62
7
  6
BYLAYER
 10
7.0575786525
 20
25.9236101482
 11
7.4628852179
 21
26.2080773456
  0
LINE
  5
231
100
AcDbEntity
  8
00_COMPONENTS
100
AcDbLine
 62
7
  6
BYLAYER
 10
7.7060691571
 20
27.3067450652
 11
5.7105346261
 21
26.0791339437
  0
LINE
  5
232
100
AcDbEntity
  8
00_COMPONENTS
100
AcDbLine
 62
7
  6
BYLAYER
 10
6.9665505326
 20
28.0396567245
 11
5.031915203
 21
26.9161385669
  0
LINE
  5
233
100
AcDbEntity
  8
00_COMPONENTS
100
AcDbLine
 62
7
  6
BYLAYER
 10
5.031915203
 20
26.9161385669
 11
5.7105346261
 21
26.0791339437
  0
LINE
  5
234
100
AcDbEntity
  8
00_COMPONENTS
100
AcDbLine
 62
7
  6
BYLAYER
 10
16.8239913519
 20
37.2500219972
 11
16.8214292409
 21
37.2456259194
  0
LINE
  5
235
100
AcDbEntity
  8
00_COMPONENTS
100
AcDbLine
 62
7
  6
BYLAYER
 10
4.3507493653
 20
29.4041251119
 11
4.9204782511
 21
28.6945346357
  0
LINE
  5
236
100
AcDbEntity
  8
00_COMPONENTS
100
AcDbLine
 62
7
  6
BYLAYER
 10
15.6721840443
 20
29.7921262271
 11
15.1939287288
 21
29.5062834773
  0
LINE
  5
237
100
AcDbEntity
  8
00_COMPONENTS
100
AcDbLine
 62
7
  6
BYLAYER
 10
15.3292136793
 20
29.4598715172
 11
15.9595593784
 21
29.8366153653
  0
LINE
  5
238
100
AcDbEntity
  8
00_COMPONENTS
100
AcDbLine
 62
7
  6
BYLAYER
 10
16.4701123937
 20
29.9156550774
 11
15.4848925286
 21
29.4064630596
  0
LINE
  5
239
100
AcDbEntity
  8
00_COMPONENTS
100
AcDbLine
 62
7
  6
BYLAYER
 10
17.4992884234
 20
29.8412721479
 11
16.4322227793
 21
29.2897797068
  0
LINE
  5
23A
100
AcDbEntity
  8
00_COMPONENTS
100
AcDbLine
 62
7
  6
BYLAYER
 10
23.8373410037
 20
14.284329768
 11
21.0586377304
 21
15.8885785579
  0
LINE
  5
23B
100
AcDbEntity
  8
00_COMPONENTS
100
AcDbLine
 62
7
  6
BYLAYER
 10
12.302070062
 20
22.2735952782
 11
12.302070062
 21
22.8957701201
  0
LINE
  5
23C
100
AcDbEntity
  8
00_COMPONENTS
100
AcDbLine
 62
7
  6
BYLAYER
 10
12.4996410058
 20
11.5137766139
 11
12.4996410058
 21
12.8542424302
  0
LINE
  5
23D
100
AcDbEntity
  8
00_COMPONENTS
100
AcDbLine
 62
7
  6
BYLAYER
 10
13.0904145547
 20
23.5812621458
 11
13.0904145547
 21
25.5100041555
  0
LINE
  5
23E
100
AcDbEntity
  8
00_COMPONENTS
100
AcDbLine
 62
7
  6
BYLAYER
 10
18.5742564689
 20
36.1455494057
 11
18.6110871424
 21
36.218265103
  0
LINE
  5
23F
100
AcDbEntity
  8
00_COMPONENTS
100
AcDbLine
 62
7
  6
BYLAYER
 10
7.5127918937
 20
22.9787987815
 11
5.7823440724
 21
21.96229245
  0
LINE
  5
240
100
AcDbEntity
  8
00_COMPONENTS
100
AcDbLine
 62
7
  6
BYLAYER
 10
8.4554961053
 20
24.0584825681
 11
8.474951568
 21
24.0683535835
  0
LINE
  5
241
100
AcDbEntity
  8
00_COMPONENTS
100
AcDbLine
 62
7
  6
BYLAYER
 10
15.0077321024
 20
20.2967363088
 11
4.3519166121
 21
26.4487350738
  0
LINE
  5
242
100
AcDbEntity
  8
00_COMPONENTS
100
AcDbLine
 62
7
  6
BYLAYER
 10
15.7716105834
 20
20.1459895297
 11
15.3724049727
 21
20.3764657824
  0
LINE
  5
243
100
AcDbEntity
  8
00_COMPONENTS
100
AcDbLine
 62
7
  6
BYLAYER
 10
5.7105346261
 20
26.0791339437
 11
7.0575786525
 21
25.3014353063
  0
LINE
  5
244
100
AcDbEntity
  8
00_COMPONENTS
100
AcDbLine
 62
7
  6
BYLAYER
 10
12.302070062
 20
22.2735952782
 11
13.6491140884
 21
21.4958966408
  0
LINE
  5
245
100
AcDbEntity
  8
00_COMPONENTS
100
AcDbLine
 62
7
  6
BYLAYER
 10
14.1349710075
 20
23.1777523014
 11
14.1349710075
 21
25.1765238011
  0
LINE
  5
246
100
AcDbEntity
  8
00_COMPONENTS
100
AcDbLine
 62
7
  6
BYLAYER
 10
26.2523789872
 20
31.8066630032
 11
26.7433620152
 21
32.0433513344
  0
LINE
  5
247
100
AcDbEntity
  8
00_COMPONENTS
100
AcDbLine
 62
7
  6
BYLAYER
 10
13.7407987611
 20
25.8188879545
 11
13.0904145547
 21
25.5100041555
  0
LINE
  5
248
100
AcDbEntity
  8
00_COMPONENTS
100
AcDbLine
 62
7
  6
BYLAYER
 10
26.7831238032
 20
30.4793518616
 11
26.7098159783
 21
30.4562815924
  0
LINE
  5
249
100
AcDbEntity
  8
00_COMPONENTS
100
AcDbLine
 62
7
  6
BYLAYER
 10
22.5285171282
 20
16.7298457266
 11
25.3008437379
 21
15.1292784219
  0
LINE
  5
24A
100
AcDbEntity
  8
00_COMPONENTS
100
AcDbLine
 62
7
  6
BYLAYER
 10
12.302070062
 20
22.8957701201
 11
7.0575786525
 21
25.9236101482
  0
LINE
  5
24B
100
AcDbEntity
  8
00_COMPONENTS
100
AcDbLine
 62
7
  6
BYLAYER
 10
12.7947853699
 20
23.1297729981
 11
7.4628852179
 21
26.2080773456
  0
LINE
  5
24C
100
AcDbEntity
  8
00_COMPONENTS
100
AcDbLine
 62
7
  6
BYLAYER
 10
7.7060691571
 20
26.689845085
 11
13.0904145547
 21
23.5812621458
  0
LINE
  5
24D
100
AcDbEntity
  8
00_COMPONENTS
100
AcDbLine
 62
7
  6
BYLAYER
 10
15.5453534723
 20
23.4322255303
 11
15.5453534723
 21
20.6034229007
  0
LINE
  5
24E
100
AcDbEntity
  8
00_COMPONENTS
100
AcDbLine
 62
7
  6
BYLAYER
 10
15.7325270029
 20
24.4719519636
 11
15.7325270029
 21
25.7577799701
  0
LINE
  5
24F
100
AcDbEntity
  8
00_COMPONENTS
100
AcDbLine
 62
7
  6
BYLAYER
 10
16.0408377243
 20
19.6791826155
 11
16.0408377243
 21
14.7399473364
  0
LINE
  5
250
100
AcDbEntity
  8
00_COMPONENTS
100
AcDbLine
 62
7
  6
BYLAYER
 10
15.0077321024
 20
20.2967363088
 11
15.0088993493
 21
23.2507785569
  0
LINE
  5
251
100
AcDbEntity
  8
00_COMPONENTS
100
AcDbLine
 62
7
  6
BYLAYER
 10
7.5090956377
 20
19.6695537644
 11
7.2433830869
 21
19.5079696593
  0
LINE
  5
252
100
AcDbEntity
  8
00_COMPONENTS
100
AcDbLine
 62
7
  6
BYLAYER
 10
26.1495807327
 20
31.7720328449
 11
15.7325270029
 21
25.7577799701
  0
LINE
  5
253
100
AcDbEntity
  8
00_COMPONENTS
100
AcDbLine
 62
7
  6
BYLAYER
 10
15.7325270029
 20
24.4719519636
 11
26.1495807327
 21
30.4862048384
  0
LINE
  5
254
100
AcDbEntity
  8
00_COMPONENTS
100
AcDbLine
 62
7
  6
BYLAYER
 10
12.7947853699
 20
23.1297729981
 11
12.302070062
 21
22.8957701201
  0
LINE
  5
255
100
AcDbEntity
  8
00_COMPONENTS
100
AcDbLine
 62
7
  6
BYLAYER
 10
13.6491140884
 20
21.4958966408
 11
14.3277335115
 21
21.5493167779
  0
LINE
  5
256
100
AcDbEntity
  8
00_COMPONENTS
100
AcDbLine
 62
7
  6
BYLAYER
 10
14.1525404488
 20
23.1864856282
 11
14.1349710075
 21
23.1966291204
  0
LINE
  5
257
100
AcDbEntity
  8
00_COMPONENTS
100
AcDbLine
 62
7
  6
BYLAYER
 10
14.8775399648
 20
23.4723481726
 11
14.1349710075
 21
23.9010608613
  0
LINE
  5
258
100
AcDbEntity
  8
00_COMPONENTS
100
AcDbLine
 62
7
  6
BYLAYER
 10
7.7060691571
 20
27.6127051066
 11
6.7342729065
 21
28.1737592407
  0
LINE
  5
259
100
AcDbEntity
  8
00_COMPONENTS
100
AcDbLine
 62
7
  6
BYLAYER
 10
14.1349710075
 20
25.1765238011
 11
13.7407987611
 21
25.8188879545
  0
LINE
  5
25A
100
AcDbEntity
  8
00_COMPONENTS
100
AcDbLine
 62
7
  6
BYLAYER
 10
16.9835419359
 20
14.1956654297
 11
16.9835419359
 21
21.2764321193
  0
LINE
  5
25B
100
AcDbEntity
  8
00_COMPONENTS
100
AcDbLine
 62
7
  6
BYLAYER
 10
28.0369569985
 20
30.7704844367
 11
22.3779007545
 21
27.4191883201
  0
LINE
  5
25C
100
AcDbEntity
  8
00_COMPONENTS
100
AcDbLine
 62
7
  6
BYLAYER
 10
28.0394747777
 20
30.774906109
 11
28.4845690989
 21
31.038087698
  0
LINE
  5
25D
100
AcDbEntity
  8
00_COMPONENTS
100
AcDbLine
 62
7
  6
BYLAYER
 10
14.386320084
 20
23.1824083653
 11
26.7098151976
 21
30.4562829341
  0
LINE
  5
25E
100
AcDbEntity
  8
00_COMPONENTS
100
AcDbLine
 62
7
  6
BYLAYER
 10
26.7831238032
 20
30.4793518616
 11
14.4391704634
 21
23.1990394493
  0
LINE
  5
25F
100
AcDbEntity
  8
00_COMPONENTS
100
AcDbLine
 62
7
  6
BYLAYER
 10
22.3779007545
 20
27.4191883201
 11
15.5453534723
 21
23.4322255303
  0
LINE
  5
260
100
AcDbEntity
  8
00_COMPONENTS
100
AcDbLine
 62
7
  6
BYLAYER
 10
12.751336164
 20
21.5994376402
 11
8.4554961053
 21
19.119247289
  0
LINE
  5
261
100
AcDbEntity
  8
00_COMPONENTS
100
AcDbLine
 62
7
  6
BYLAYER
 10
14.8081843985
 20
23.5123897216
 11
14.1525404488
 21
23.1864856282
  0
LINE
  5
262
100
AcDbEntity
  8
00_COMPONENTS
100
AcDbLine
 62
7
  6
BYLAYER
 10
12.302070062
 20
22.2735952782
 11
14.1349710075
 21
23.1777523014
  0
LINE
  5
263
100
AcDbEntity
  8
00_COMPONENTS
100
AcDbLine
 62
7
  6
BYLAYER
 10
14.3863206468
 20
23.1824073981
 11
14.4391704634
 21
23.1990394493
  0
LINE
  5
264
100
AcDbEntity
  8
00_COMPONENTS
100
AcDbLine
 62
7
  6
BYLAYER
 10
14.4391704634
 20
23.1990394493
 11
15.0088993493
 21
23.2507785569
  0
LINE
  5
265
100
AcDbEntity
  8
00_COMPONENTS
100
AcDbLine
 62
7
  6
BYLAYER
 10
13.0904145547
 20
25.5100041555
 11
7.7060691571
 21
28.6185870947
  0
LINE
  5
266
100
AcDbEntity
  8
00_COMPONENTS
100
AcDbLine
 62
7
  6
BYLAYER
 10
13.7407987611
 20
25.8188879545
 11
8.2410738233
 21
28.9940837953
  0
LINE
  5
267
100
AcDbEntity
  8
00_COMPONENTS
100
AcDbLine
 62
7
  6
BYLAYER
 10
14.3277335115
 20
21.5493167779
 11
14.5690262429
 21
21.6916217034
  0
LINE
  5
268
100
AcDbEntity
  8
00_COMPONENTS
100
AcDbLine
 62
7
  6
BYLAYER
 10
13.6491140884
 20
21.4958966408
 11
14.6537032778
 21
22.0789020841
  0
LINE
  5
269
100
AcDbEntity
  8
00_COMPONENTS
100
AcDbLine
 62
7
  6
BYLAYER
 10
8.7248946523
 20
18.6526379084
 11
13.2901378732
 21
21.2883673657
  0
LINE
  5
26A
100
AcDbEntity
  8
00_COMPONENTS
100
AcDbLine
 62
7
  6
BYLAYER
 10
15.7325270029
 20
25.7577799701
 11
7.2730905171
 21
30.6417274127
  0
LINE
  5
26B
100
AcDbEntity
  8
00_COMPONENTS
100
AcDbLine
 62
7
  6
BYLAYER
 10
19.0181297732
 20
35.8892848314
 11
19.0181297732
 21
36.5034153487
  0
LINE
  5
26C
100
AcDbEntity
  8
00_COMPONENTS
100
AcDbLine
 62
7
  6
BYLAYER
 10
28.4845690989
 20
28.069843202
 11
22.3779007545
 21
24.4200210836
  0
LINE
  5
26D
100
AcDbEntity
  8
00_COMPONENTS
100
AcDbLine
 62
7
  6
BYLAYER
 10
22.300686477
 20
24.2466028903
 11
28.4073187646
 21
27.8964035471
  0
LINE
  5
26E
100
AcDbEntity
  8
00_COMPONENTS
100
AcDbLine
 62
7
  6
BYLAYER
 10
22.2974658701
 20
24.2447414706
 11
22.300686477
 21
24.2466028903
  0
LINE
  5
26F
100
AcDbEntity
  8
00_COMPONENTS
100
AcDbLine
 62
7
  6
BYLAYER
 10
22.3779007545
 20
24.4200210836
 11
15.5453534723
 21
20.6034229007
  0
LINE
  5
270
100
AcDbEntity
  8
00_COMPONENTS
100
AcDbLine
 62
7
  6
BYLAYER
 10
15.2718746313
 20
20.3203104553
 11
22.2974644607
 21
24.2447405242
  0
LINE
  5
271
100
AcDbEntity
  8
00_COMPONENTS
100
AcDbLine
 62
7
  6
BYLAYER
 10
14.3277335115
 20
21.5493167779
 11
14.4680579078
 21
21.5924538136
  0
LINE
  5
272
100
AcDbEntity
  8
00_COMPONENTS
100
AcDbLine
 62
7
  6
BYLAYER
 10
30.1907048108
 20
18.5198832934
 11
27.909820056
 21
19.8367229297
  0
LINE
  5
273
100
AcDbEntity
  8
00_COMPONENTS
100
AcDbLine
 62
7
  6
BYLAYER
 10
26.1495807327
 20
31.6485508319
 11
26.2523789872
 21
31.8066630032
  0
LINE
  5
274
100
AcDbEntity
  8
00_COMPONENTS
100
AcDbLine
 62
7
  6
BYLAYER
 10
27.0674791587
 20
30.5051751834
 11
28.0369569985
 21
30.7704844367
  0
LINE
  5
275
100
AcDbEntity
  8
00_COMPONENTS
100
AcDbLine
 62
7
  6
BYLAYER
 10
17.0708096973
 20
36.298409453
 11
16.8214292409
 21
37.2456259194
  0
LINE
  5
276
100
AcDbEntity
  8
00_COMPONENTS
100
AcDbLine
 62
7
  6
BYLAYER
 10
21.4798971268
 20
12.8995109959
 11
21.4798971268
 21
11.4685512198
  0
LINE
  5
277
100
AcDbEntity
  8
00_COMPONENTS
100
AcDbLine
 62
7
  6
BYLAYER
 10
21.5337531647
 20
16.7569002245
 11
21.5337531647
 21
23.8181383959
  0
LINE
  5
278
100
AcDbEntity
  8
00_COMPONENTS
100
AcDbLine
 62
7
  6
BYLAYER
 10
22.3779007545
 20
24.4200210836
 11
22.3779007545
 21
27.4191883201
  0
LINE
  5
279
100
AcDbEntity
  8
00_COMPONENTS
100
AcDbLine
 62
7
  6
BYLAYER
 10
27.640421509
 20
24.6749508991
 11
28.1970744174
 21
24.9626462935
  0
LINE
  5
27A
100
AcDbEntity
  8
00_COMPONENTS
100
AcDbLine
 62
7
  6
BYLAYER
 10
28.0369569985
 20
30.7704844367
 11
28.0394747777
 21
30.774906109
  0
LINE
  5
27B
100
AcDbEntity
  8
00_COMPONENTS
100
AcDbLine
 62
7
  6
BYLAYER
 10
27.0674791587
 20
30.5051751834
 11
26.7831238032
 21
30.4793518616
  0
LINE
  5
27C
100
AcDbEntity
  8
00_COMPONENTS
100
AcDbLine
 62
7
  6
BYLAYER
 10
16.0384280862
 20
14.7439790015
 11
15.7714391773
 21
14.5844055657
  0
LINE
  5
27D
100
AcDbEntity
  8
00_COMPONENTS
100
AcDbLine
 62
7
  6
BYLAYER
 10
28.1970646964
 20
26.2400148067
 11
27.640421509
 21
26.5613856304
  0
LINE
  5
27E
100
AcDbEntity
  8
00_COMPONENTS
100
AcDbLine
 62
7
  6
BYLAYER
 10
26.1495807327
 20
30.4862048384
 11
26.1495807327
 21
31.7720328449
  0
LINE
  5
27F
100
AcDbEntity
  8
00_COMPONENTS
100
AcDbLine
 62
7
  6
BYLAYER
 10
27.640421509
 20
20.946256723
 11
28.1970744174
 21
21.2676385111
  0
LINE
  5
280
100
AcDbEntity
  8
00_COMPONENTS
100
AcDbLine
 62
7
  6
BYLAYER
 10
27.640421509
 20
20.3878711752
 11
27.8551325655
 21
20.5118339215
  0
LINE
  5
281
100
AcDbEntity
  8
00_COMPONENTS
100
AcDbLine
 62
7
  6
BYLAYER
 10
27.640421509
 20
20.3033323104
 11
21.5337531647
 21
16.7776559715
  0
LINE
  5
282
100
AcDbEntity
  8
00_COMPONENTS
100
AcDbLine
 62
7
  6
BYLAYER
 10
22.5285171282
 20
16.7298457266
 11
27.909820056
 21
19.8367229297
  0
LINE
  5
283
100
AcDbEntity
  8
00_COMPONENTS
100
AcDbLine
 62
7
  6
BYLAYER
 10
21.5337531647
 20
16.7776559715
 11
16.9835419359
 21
14.1956654297
  0
LINE
  5
284
100
AcDbEntity
  8
00_COMPONENTS
100
AcDbLine
 62
7
  6
BYLAYER
 10
17.2529507427
 20
13.7290738148
 11
21.0586377304
 21
15.8885785579
  0
LINE
  5
285
100
AcDbEntity
  8
00_COMPONENTS
100
AcDbLine
 62
7
  6
BYLAYER
 10
27.640421509
 20
27.4380458181
 11
27.640421509
 21
20.3033323104
  0
LINE
  5
286
100
AcDbEntity
  8
00_COMPONENTS
100
AcDbLine
 62
7
  6
BYLAYER
 10
28.1970744174
 20
21.2676385111
 11
28.1970744174
 21
24.9626462935
  0
LINE
  5
287
100
AcDbEntity
  8
00_COMPONENTS
100
AcDbLine
 62
7
  6
BYLAYER
 10
28.4845690989
 20
31.038087698
 11
28.4845690989
 21
28.069843202
  0
LINE
  5
288
100
AcDbEntity
  8
00_COMPONENTS
100
AcDbLine
 62
7
  6
BYLAYER
 10
28.6806362612
 20
21.9416439968
 11
28.6806362612
 21
25.5866962574
  0
LINE
  5
289
100
AcDbEntity
  8
00_COMPONENTS
100
AcDbLine
 62
7
  6
BYLAYER
 10
27.0674791587
 20
30.5051751834
 11
26.1495807327
 21
31.0351120979
  0
LINE
  5
28A
100
AcDbEntity
  8
00_COMPONENTS
100
AcDbLine
 62
7
  6
BYLAYER
 10
17.6901442469
 20
36.6559802875
 11
26.1495807327
 21
31.7720328449
  0
LINE
  5
28B
100
AcDbEntity
  8
00_COMPONENTS
100
AcDbLine
 62
7
  6
BYLAYER
 10
28.0394747777
 20
30.774906109
 11
26.2523789872
 21
31.8066630032
  0
LINE
  5
28C
100
AcDbEntity
  8
00_COMPONENTS
100
AcDbLine
 62
7
  6
BYLAYER
 10
18.6110871424
 20
36.218265103
 11
16.8239913519
 21
37.2500219972
  0
LINE
  5
28D
100
AcDbEntity
  8
00_COMPONENTS
100
AcDbLine
 62
7
  6
BYLAYER
 10
21.4798971268
 20
12.8995109959
 11
23.8373410037
 21
14.284329768
  0
LINE
  5
28E
100
AcDbEntity
  8
00_COMPONENTS
100
AcDbLine
 62
7
  6
BYLAYER
 10
25.3008437379
 20
15.1292784219
 11
30.1907092974
 21
17.9031514308
  0
LINE
  5
28F
100
AcDbEntity
  8
00_COMPONENTS
100
AcDbLine
 62
7
  6
BYLAYER
 10
28.4845690989
 20
31.038087698
 11
26.7433620152
 21
32.0433513344
  0
LINE
  5
290
100
AcDbEntity
  8
00_COMPONENTS
100
AcDbLine
 62
7
  6
BYLAYER
 10
19.0181297732
 20
36.5034153487
 11
17.2769226896
 21
37.508678985
  0
LINE
  5
291
100
AcDbEntity
  8
00_COMPONENTS
100
AcDbLine
 62
7
  6
BYLAYER
 10
30.1907092974
 20
16.523230248
 11
30.1907092974
 21
17.9031514308
  0
LINE
  5
292
100
AcDbEntity
  8
00_COMPONENTS
100
AcDbLine
 62
7
  6
BYLAYER
 10
30.4138916869
 20
16.8381490206
 11
30.4138916869
 21
18.2103915682
  0
LINE
  5
293
100
AcDbEntity
  8
00_COMPONENTS
100
AcDbLine
 62
7
  6
BYLAYER
 10
30.1907092974
 20
16.523230248
 11
24.5690923708
 21
13.2209583571
  0
LINE
  5
294
100
AcDbEntity
  8
00_COMPONENTS
100
AcDbLine
 62
7
  6
BYLAYER
 10
24.5690923708
 20
13.2209583571
 11
21.4798971268
 21
11.4685512198
  0
ARC
  5
295
100
AcDbEntity
  8
00_COMPONENTS
100
AcDbCircle
 62
7
  6
BYLAYER
 10
27.0296362612
 20
21.9416439968
 40
1.651
100
AcDbArc
 50
299.9998519061
 51
360.0
  0
ARC
  5
296
100
AcDbEntity
  8
00_COMPONENTS
100
AcDbCircle
 62
7
  6
BYLAYER
 10
8.7937573807
 20
24.0586378267
 40
0.3382613635
100
AcDbArc
 50
176.4411014204
 51
180.0413358322
  0
SPLINE
  5
297
100
AcDbEntity
  8
00_COMPONENTS
100
AcDbSpline
 62
7
  6
BYLAYER
 70
0
 71
3
 72
15
 73
11
 74
0
 42
0.0000001
 43
0.0000001
 44
0.0000000001
 40
0.0
 40
0.0
 40
0.0
 40
0.0
 40
0.1125503794
 40
0.2264922466
 40
0.3431309375
 40
0.463623929
 40
0.5889267175
 40
0.7197784689
 40
0.8567005181
 40
1.0
 40
1.0
 40
1.0
 40
1.0
 10
14.1205422633
 20
30.5847052869
 30
0.0
 10
14.1205422147
 20
30.5451778235
 30
0.0
 10
14.126026319
 20
30.4655275054
 30
0.0
 10
14.1506506295
 20
30.3472129185
 30
0.0
 10
14.1914221859
 20
30.230493481
 30
0.0
 10
14.248066239
 20
30.1161684656
 30
0.0
 10
14.3201340748
 20
30.0049279003
 30
0.0
 10
14.4071473921
 20
29.8974509323
 30
0.0
 10
14.5085231163
 20
29.7943886171
 30
0.0
 10
14.583536592
 20
29.7304751679
 30
0.0
 10
14.6231008742
 20
29.6993717483
 30
0.0
  0
SPLINE
  5
298
100
AcDbEntity
  8
00_COMPONENTS
100
AcDbSpline
 62
7
  6
BYLAYER
 70
0
 71
3
 72
15
 73
11
 74
0
 42
0.0000001
 43
0.0000001
 44
0.0000000001
 40
0.0
 40
0.0
 40
0.0
 40
0.0
 40
0.1162543122
 40
0.239856785
 40
0.368676801
 40
0.5001753286
 40
0.6316538133
 40
0.7604076189
 40
0.8839112523
 40
1.0
 40
1.0
 40
1.0
 40
1.0
 10
15.0333633818
 20
29.5674919483
 30
0.0
 10
15.1538665199
 20
29.6266273538
 30
0.0
 10
15.4115642634
 20
29.730640472
 30
0.0
 10
15.8235319886
 20
29.8412007144
 30
0.0
 10
16.2624940514
 20
29.9087881782
 30
0.0
 10
16.7150928825
 20
29.9312794026
 30
0.0
 10
17.1675765744
 20
29.9080309214
 30
0.0
 10
17.6062123764
 20
29.8397188052
 30
0.0
 10
18.0175976586
 20
29.7284592232
 30
0.0
 10
18.2748000438
 20
29.6240281629
 30
0.0
 10
18.3949936611
 20
29.5646967848
 30
0.0
  0
SPLINE
  5
299
100
AcDbEntity
  8
00_COMPONENTS
100
AcDbSpline
 62
7
  6
BYLAYER
 70
0
 71
3
 72
11
 73
7
 74
0
 42
0.0000001
 43
0.0000001
 44
0.0000000001
 40
0.0
 40
0.0
 40
0.0
 40
0.0
 40
0.2650403537
 40
0.521329398
 40
0.7669695644
 40
1.0
 40
1.0
 40
1.0
 40
1.0
 10
26.2091193069
 20
30.1675453605
 30
0.0
 10
26.1995186588
 20
30.194662623
 30
0.0
 10
26.1825494757
 20
30.2487059552
 30
0.0
 10
26.1637712424
 20
30.329894497
 30
0.0
 10
26.1523297829
 20
30.4089348557
 30
0.0
 10
26.1495807327
 20
30.4609124719
 30
0.0
 10
26.1495807327
 20
30.4862048384
 30
0.0
  0
SPLINE
  5
29A
100
AcDbEntity
  8
00_COMPONENTS
100
AcDbSpline
 62
7
  6
BYLAYER
 70
0
 71
3
 72
23
 73
19
 74
0
 42
0.0000001
 43
0.0000001
 44
0.0000000001
 40
0.0
 40
0.0
 40
0.0
 40
0.0
 40
0.0558371041
 40
0.1141776711
 40
0.1747805492
 40
0.2373502665
 40
0.301545393
 40
0.3669887944
 40
0.4332791084
 40
0.4999969786
 40
0.5667152234
 40
0.6330044352
 40
0.6984480744
 40
0.7626445873
 40
0.8252123111
 40
0.8858155689
 40
0.9441748876
 40
1.0
 40
1.0
 40
1.0
 40
1.0
 10
14.3405040912
 20
29.8381581772
 30
0.0
 10
14.4199331334
 20
29.7922986886
 30
0.0
 10
14.586480189
 20
29.7055347411
 30
0.0
 10
14.850794673
 20
29.5928396851
 30
0.0
 10
15.1328926881
 20
29.4955933613
 30
0.0
 10
15.4300676216
 20
29.4147345844
 30
0.0
 10
15.7394957961
 20
29.3510402198
 30
0.0
 10
16.0582162317
 20
29.3050893523
 30
0.0
 10
16.3831877984
 20
29.2773532862
 30
0.0
 10
16.7112998426
 20
29.2680725271
 30
0.0
 10
17.0394107536
 20
29.2773444931
 30
0.0
 10
17.3643805364
 20
29.3050877859
 30
0.0
 10
17.6831051504
 20
29.3510169389
 30
0.0
 10
17.9925298182
 20
29.4147262456
 30
0.0
 10
18.2897085628
 20
29.4955664595
 30
0.0
 10
18.5718387667
 20
29.5928096317
 30
0.0
 10
18.8361514392
 20
29.7055371792
 30
0.0
 10
19.0027205286
 20
29.7922819246
 30
0.0
 10
19.0821331114
 20
29.838130527
 30
0.0
  0
SPLINE
  5
29B
100
AcDbEntity
  8
00_COMPONENTS
100
AcDbSpline
 62
7
  6
BYLAYER
 70
0
 71
3
 72
15
 73
11
 74
0
 42
0.0000001
 43
0.0000001
 44
0.0000000001
 40
0.0
 40
0.0
 40
0.0
 40
0.0
 40
0.1080110861
 40
0.2180652169
 40
0.3320011628
 40
0.4513374338
 40
0.5772443465
 40
0.7105252324
 40
0.8515196519
 40
1.0
 40
1.0
 40
1.0
 40
1.0
 10
7.1152684002
 20
29.0070713695
 30
0.0
 10
7.1277615295
 20
29.0142842385
 30
0.0
 10
7.151786935
 20
29.0310392875
 30
0.0
 10
7.1835153677
 20
29.062285219
 30
0.0
 10
7.2108157409
 20
29.099349904
 30
0.0
 10
7.2334180357
 20
29.141836689
 30
0.0
 10
7.2511511449
 20
29.1893183439
 30
0.0
 10
7.2638748558
 20
29.2413434365
 30
0.0
 10
7.2714802248
 20
29.2973807389
 30
0.0
 10
7.2730905171
 20
29.3360685892
 30
0.0
 10
7.2730905171
 20
29.3558994062
 30
0.0
  0
SPLINE
  5
29C
100
AcDbEntity
  8
00_COMPONENTS
100
AcDbSpline
 62
7
  6
BYLAYER
 70
0
 71
3
 72
14
 73
10
 74
0
 42
0.0000001
 43
0.0000001
 44
0.0000000001
 40
0.0
 40
0.0
 40
0.0
 40
0.0
 40
0.2836520628
 40
0.4153890472
 40
0.5409094345
 40
0.6609742519
 40
0.7766068891
 40
0.8891137701
 40
1.0
 40
1.0
 40
1.0
 40
1.0
 10
18.7099316294
 20
29.6329162812
 30
0.0
 10
18.8001528835
 20
29.6960633644
 30
0.0
 10
18.9256407818
 20
29.7992701458
 30
0.0
 10
19.0657883439
 20
29.9560951229
 30
0.0
 10
19.1509340419
 20
30.0757177085
 30
0.0
 10
19.2180073285
 20
30.1993007091
 30
0.0
 10
19.2663647806
 20
30.3260036356
 30
0.0
 10
19.2956070554
 20
30.4547880423
 30
0.0
 10
19.3021289335
 20
30.5416550012
 30
0.0
 10
19.3021289865
 20
30.5847052869
 30
0.0
  0
SPLINE
  5
29D
100
AcDbEntity
  8
00_COMPONENTS
100
AcDbSpline
 62
7
  6
BYLAYER
 70
0
 71
3
 72
11
 73
7
 74
0
 42
0.0000001
 43
0.0000001
 44
0.0000000001
 40
0.0
 40
0.0
 40
0.0
 40
0.0
 40
0.2299472204
 40
0.4755806623
 40
0.733496522
 40
1.0
 40
1.0
 40
1.0
 40
1.0
 10
15.7325270029
 20
24.4719519636
 30
0.0
 10
15.7325270029
 20
24.437653846
 30
0.0
 10
15.7375869403
 20
24.3666669249
 30
0.0
 10
15.7581901348
 20
24.2590063098
 30
0.0
 10
15.7916024187
 20
24.1489140542
 30
0.0
 10
15.8215311393
 20
24.0764979409
 30
0.0
 10
15.838382052
 20
24.0404956284
 30
0.0
  0
SPLINE
  5
29E
100
AcDbEntity
  8
00_COMPONENTS
100
AcDbSpline
 62
7
  6
BYLAYER
 70
0
 71
3
 72
29
 73
25
 74
0
 42
0.0000001
 43
0.0000001
 44
0.0000000001
 40
0.0
 40
0.0
 40
0.0
 40
0.0
 40
0.0213280907
 40
0.0428846425
 40
0.0648859499
 40
0.0875264345
 40
0.1109719832
 40
0.1353540738
 40
0.1607731397
 40
0.1872936857
 40
0.2149529808
 40
0.2437588709
 40
0.3046962578
 40
0.3697727067
 40
0.4383581517
 40
0.5096325348
 40
0.5826446189
 40
0.6563638134
 40
0.7297280046
 40
0.8016932142
 40
0.8712702986
 40
0.9376043735
 40
0.9693438183
 40
1.0
 40
1.0
 40
1.0
 40
1.0
 10
19.3021289865
 20
30.5847052869
 30
0.0
 10
19.3021290317
 20
30.6214586106
 30
0.0
 10
19.2973960332
 20
30.6954448895
 30
0.0
 10
19.2761278664
 20
30.8054997695
 30
0.0
 10
19.2408736113
 20
30.9142813684
 30
0.0
 10
19.1918488552
 20
31.021153399
 30
0.0
 10
19.1293603178
 20
31.1255357683
 30
0.0
 10
19.0538058001
 20
31.2268944457
 30
0.0
 10
18.9655823894
 20
31.3246717466
 30
0.0
 10
18.8652188297
 20
31.4183952203
 30
0.0
 10
18.753231412
 20
31.5075506347
 30
0.0
 10
18.586130193
 20
31.6218620561
 30
0.0
 10
18.3510805223
 20
31.7496944465
 30
0.0
 10
18.0394575217
 20
31.8752340528
 30
0.0
 10
17.6995692699
 20
31.9731920203
 30
0.0
 10
17.3386511539
 20
32.0415010935
 30
0.0
 10
16.9643559226
 20
32.0787230453
 30
0.0
 10
16.5846642626
 20
32.0840618537
 30
0.0
 10
16.2076752822
 20
32.0574130387
 30
0.0
 10
15.8414253723
 20
31.9993289634
 30
0.0
 10
15.4937204151
 20
31.9110726125
 30
0.0
 10
15.2215391102
 20
31.8124514079
 30
0.0
 10
15.0199944855
 20
31.7195342919
 30
0.0
 10
14.9251060526
 20
31.6687892262
 30
0.0
 10
14.879355749
 20
31.6423754337
 30
0.0
  0
SPLINE
  5
29F
100
AcDbEntity
  8
00_COMPONENTS
100
AcDbSpline
 62
7
  6
BYLAYER
 70
0
 71
3
 72
25
 73
21
 74
0
 42
0.0000001
 43
0.0000001
 44
0.0000000001
 40
0.0
 40
0.0
 40
0.0
 40
0.0
 40
0.0742765083
 40
0.1447432349
 40
0.2113476654
 40
0.2742982744
 40
0.3339747237
 40
0.3909384542
 40
0.4459581133
 40
0.4999609637
 40
0.5269218783
 40
0.5540120445
 40
0.6090323282
 40
0.6659972763
 40
0.7256710275
 40
0.7567270502
 40
0.7886567753
 40
0.8552624573
 40
0.9257032067
 40
1.0
 40
1.0
 40
1.0
 40
1.0
 10
14.3405381384
 20
32.5756297305
 30
0.0
 10
14.2649326185
 20
32.5319791238
 30
0.0
 10
14.1210238293
 20
32.4407526773
 30
0.0
 10
13.9242637765
 20
32.28848014
 30
0.0
 10
13.7540780731
 20
32.1255801636
 30
0.0
 10
13.6121823581
 20
31.9535688845
 30
0.0
 10
13.4999732213
 20
31.7739838931
 30
0.0
 10
13.4187744556
 20
31.5884223492
 30
0.0
 10
13.3695599932
 20
31.3987544147
 30
0.0
 10
13.3558301334
 20
31.2386744268
 30
0.0
 10
13.3612451966
 20
31.1116549847
 30
0.0
 10
13.3775459771
 20
30.9843607376
 30
0.0
 10
13.4187487726
 20
30.8253466244
 30
0.0
 10
13.4999668
 20
30.6398349756
 30
0.0
 10
13.5922367138
 20
30.4920887433
 30
0.0
 10
13.6801888147
 20
30.3777622601
 30
0.0
 10
13.7804344818
 20
30.262965611
 30
0.0
 10
13.9242405529
 20
30.1253192282
 30
0.0
 10
14.1209597886
 20
29.9730287369
 30
0.0
 10
14.2648784937
 20
29.8818216928
 30
0.0
 10
14.3405040912
 20
29.8381581772
 30
0.0
  0
SPLINE
  5
2A0
100
AcDbEntity
  8
00_COMPONENTS
100
AcDbSpline
 62
7
  6
BYLAYER
 70
0
 71
3
 72
41
 73
37
 74
0
 42
0.0000001
 43
0.0000001
 44
0.0000000001
 40
0.0
 40
0.0
 40
0.0
 40
0.0
 40
0.0309811518
 40
0.0603731895
 40
0.0881542118
 40
0.1144111817
 40
0.1393024692
 40
0.163062271
 40
0.1860112149
 40
0.2085360892
 40
0.2197816533
 40
0.2310811475
 40
0.2540305442
 40
0.277791156
 40
0.3026817059
 40
0.3156355218
 40
0.32895378
 40
0.356735808
 40
0.386117506
 40
0.4171076072
 40
0.4496550018
 40
0.4836615795
 40
0.5189867706
 40
0.5554583456
 40
0.5928772908
 40
0.6310237819
 40
0.6696638753
 40
0.7085531398
 40
0.7474425843
 40
0.7860819207
 40
0.8242283626
 40
0.8616478577
 40
0.8981179482
 40
0.933442981
 40
0.9674600609
 40
1.0
 40
1.0
 40
1.0
 40
1.0
 10
19.0821331114
 20
29.838130527
 30
0.0
 10
19.1577400443
 20
29.8817819496
 30
0.0
 10
19.301651385
 20
29.9730101671
 30
0.0
 10
19.4984144983
 20
30.125285938
 30
0.0
 10
19.6686021864
 20
30.2881895071
 30
0.0
 10
19.8104987193
 20
30.4602046577
 30
0.0
 10
19.9227074379
 20
30.6397937063
 30
0.0
 10
20.0039044814
 20
30.8253593927
 30
0.0
 10
20.0531158738
 20
31.0150314288
 30
0.0
 10
20.0668420536
 20
31.1751145749
 30
0.0
 10
20.0614234552
 20
31.3021363237
 30
0.0
 10
20.0451187032
 20
31.4294329737
 30
0.0
 10
20.0039101004
 20
31.5884498469
 30
0.0
 10
19.9226841233
 20
31.7739640698
 30
0.0
 10
19.830406896
 20
31.9217118591
 30
0.0
 10
19.7424486704
 20
32.036039242
 30
0.0
 10
19.6421959206
 20
32.1508369414
 30
0.0
 10
19.49838396
 20
32.2884821191
 30
0.0
 10
19.3016406043
 20
32.4407800195
 30
0.0
 10
19.0801746554
 20
32.581126529
 30
0.0
 10
18.8361300424
 20
32.7082528443
 30
0.0
 10
18.5717997017
 20
32.8209506441
 30
0.0
 10
18.2897072616
 20
32.9181884132
 30
0.0
 10
17.9925334867
 20
32.9990423559
 30
0.0
 10
17.6831091962
 20
33.0627314474
 30
0.0
 10
17.364393189
 20
33.1086778701
 30
0.0
 10
17.0394270024
 20
33.1364100515
 30
0.0
 10
16.7113209644
 20
33.1456876101
 30
0.0
 10
16.3832165515
 20
33.1364131568
 30
0.0
 10
16.0582535655
 20
33.1086680983
 30
0.0
 10
15.7395358657
 20
33.0627379171
 30
0.0
 10
15.4301180471
 20
32.9990283125
 30
0.0
 10
15.1329459084
 20
32.9181885051
 30
0.0
 10
14.8508218966
 20
32.8209464163
 30
0.0
 10
14.5865148404
 20
32.7082205802
 30
0.0
 10
14.4199491625
 20
32.621477433
 30
0.0
 10
14.3405381384
 20
32.5756297305
 30
0.0
  0
SPLINE
  5
2A1
100
AcDbEntity
  8
00_COMPONENTS
100
AcDbSpline
 62
7
  6
BYLAYER
 70
0
 71
3
 72
15
 73
11
 74
0
 42
0.0000001
 43
0.0000001
 44
0.0000000001
 40
0.0
 40
0.0
 40
0.0
 40
0.0
 40
0.1484798001
 40
0.2894737872
 40
0.4227544065
 40
0.5486612341
 40
0.667997612
 40
0.7819338438
 40
0.8919884058
 40
1.0
 40
1.0
 40
1.0
 40
1.0
 10
6.7342729065
 20
29.0448040193
 30
0.0
 10
6.7514464714
 20
29.0348890813
 30
0.0
 10
6.7857554153
 20
29.0169405819
 30
0.0
 10
6.8380864653
 20
28.9955094892
 30
0.0
 10
6.8895020177
 20
28.9805168603
 30
0.0
 10
6.9394875786
 20
28.9721339526
 30
0.0
 10
6.9875821189
 20
28.9704650349
 30
0.0
 10
7.0333301244
 20
28.975575542
 30
0.0
 10
7.0762531082
 20
28.9874299419
 30
0.0
 10
7.1027755468
 20
28.9998586599
 30
0.0
 10
7.1152684002
 20
29.0070713695
 30
0.0
  0
SPLINE
  5
2A2
100
AcDbEntity
  8
00_COMPONENTS
100
AcDbSpline
 62
7
  6
BYLAYER
 70
0
 71
3
 72
15
 73
11
 74
0
 42
0.0000001
 43
0.0000001
 44
0.0000000001
 40
0.0
 40
0.0
 40
0.0
 40
0.0
 40
0.1485549362
 40
0.2895092305
 40
0.4227324357
 40
0.5486397703
 40
0.6680004912
 40
0.7819393505
 40
0.8919881972
 40
1.0
 40
1.0
 40
1.0
 40
1.0
 10
14.879355749
 20
31.6423754337
 30
0.0
 10
14.8209364127
 20
31.6086472155
 30
0.0
 10
14.7097351893
 20
31.5381497375
 30
0.0
 10
14.5576858312
 20
31.4204873175
 30
0.0
 10
14.4261768054
 20
31.2946024448
 30
0.0
 10
14.3165264284
 20
31.1616850562
 30
0.0
 10
14.2298268549
 20
31.0229108569
 30
0.0
 10
14.1670782385
 20
30.8795162641
 30
0.0
 10
14.1290494712
 20
30.7329705718
 30
0.0
 10
14.1205423237
 20
30.6337519502
 30
0.0
 10
14.1205422633
 20
30.5847052869
 30
0.0
  0
SPLINE
  5
2A3
100
AcDbEntity
  8
00_COMPONENTS
100
AcDbSpline
 62
7
  6
BYLAYER
 70
0
 71
3
 72
14
 73
10
 74
0
 42
0.0000001
 43
0.0000001
 44
0.0000000001
 40
0.0
 40
0.0
 40
0.0
 40
0.0
 40
0.1080472528
 40
0.2181584148
 40
0.3321752885
 40
0.4516333668
 40
0.7106510182
 40
0.851655411
 40
1.0
 40
1.0
 40
1.0
 40
1.0
 10
14.4680553253
 20
21.5924582543
 30
0.0
 10
14.4828721543
 20
21.6012006839
 30
0.0
 10
14.5113295661
 20
21.6214586863
 30
0.0
 10
14.5489027528
 20
21.6589931525
 30
0.0
 10
14.5812076951
 20
21.7034100779
 30
0.0
 10
14.6178326851
 20
21.7729998134
 30
0.0
 10
14.6413342209
 20
21.8532562061
 30
0.0
 10
14.6529922149
 20
21.9398424005
 30
0.0
 10
14.6549069615
 20
21.9859583412
 30
0.0
 10
14.6549069615
 20
22.0095783863
 30
0.0
  0
SPLINE
  5
2A4
100
AcDbEntity
  8
00_COMPONENTS
100
AcDbSpline
 62
7
  6
BYLAYER
 70
0
 71
3
 72
23
 73
19
 74
0
 42
0.0000001
 43
0.0000001
 44
0.0000000001
 40
0.0
 40
0.0
 40
0.0
 40
0.0
 40
0.0558744361
 40
0.1142957197
 40
0.1749738087
 40
0.2376248443
 40
0.3019033474
 40
0.3674240424
 40
0.4337801189
 40
0.5005489006
 40
0.5672985004
 40
0.6335974216
 40
0.6990240858
 40
0.7631735401
 40
0.8256632503
 40
0.8861512446
 40
0.9443580297
 40
1.0
 40
1.0
 40
1.0
 40
1.0
 10
12.4996364636
 20
11.5137740371
 30
0.0
 10
12.6500770554
 20
11.4269190858
 30
0.0
 10
12.9655865691
 20
11.2624585833
 30
0.0
 10
13.4661573543
 20
11.048337133
 30
0.0
 10
14.0004602176
 20
10.8630948861
 30
0.0
 10
14.5632737901
 20
10.7084972598
 30
0.0
 10
15.149287294
 20
10.5859448047
 30
0.0
 10
15.7529103993
 20
10.4966682616
 30
0.0
 10
16.3683604416
 20
10.441494101
 30
0.0
 10
16.9897537754
 20
10.4209341116
 30
0.0
 10
17.6111453803
 20
10.4352268177
 30
0.0
 10
18.2265898821
 20
10.4841936637
 30
0.0
 10
18.8302041003
 20
10.5673822084
 30
0.0
 10
19.4162062711
 20
10.6840245927
 30
0.0
 10
19.9790061781
 20
10.8329467003
 30
0.0
 10
20.513294794
 20
11.0128017952
 30
0.0
 10
21.0138521601
 20
11.2218808474
 30
0.0
 10
21.3294262857
 20
11.3831988568
 30
0.0
 10
21.4798925842
 20
11.4685538423
 30
0.0
  0
SPLINE
  5
2A5
100
AcDbEntity
  8
00_COMPONENTS
100
AcDbSpline
 62
7
  6
BYLAYER
 70
0
 71
3
 72
15
 73
11
 74
0
 42
0.0000001
 43
0.0000001
 44
0.0000000001
 40
0.0
 40
0.0
 40
0.0
 40
0.0
 40
0.1140419749
 40
0.2372722183
 40
0.3668803027
 40
0.4998902014
 40
0.6329107004
 40
0.7625631673
 40
0.8858958723
 40
1.0
 40
1.0
 40
1.0
 40
1.0
 10
16.0408377243
 20
19.6790934539
 30
0.0
 10
16.0408377243
 20
19.7003742999
 30
0.0
 10
16.0369509965
 20
19.7446900013
 30
0.0
 10
16.0214943673
 20
19.8115678237
 30
0.0
 10
15.996605827
 20
19.8793192817
 30
0.0
 10
15.9632822265
 20
19.9453726601
 30
0.0
 10
15.9228060557
 20
20.0073120049
 30
0.0
 10
15.876615648
 20
20.0628126661
 30
0.0
 10
15.8264751736
 20
20.1097434591
 30
0.0
 10
15.7900504851
 20
20.1353434883
 30
0.0
 10
15.7716105834
 20
20.1459895297
 30
0.0
  0
SPLINE
  5
2A6
100
AcDbEntity
  8
00_COMPONENTS
100
AcDbSpline
 62
7
  6
BYLAYER
 70
0
 71
3
 72
11
 73
7
 74
0
 42
0.0000001
 43
0.0000001
 44
0.0000000001
 40
0.0
 40
0.0
 40
0.0
 40
0.0
 40
0.23514493
 40
0.4788541115
 40
0.7340535986
 40
1.0
 40
1.0
 40
1.0
 40
1.0
 10
15.007651731
 20
20.2966899065
 30
0.0
 10
15.0264296323
 20
20.2858494217
 30
0.0
 10
15.0691866981
 20
20.2710119729
 30
0.0
 10
15.1377654877
 20
20.2705612348
 30
0.0
 10
15.2067044644
 20
20.2879049572
 30
0.0
 10
15.2504661802
 20
20.3083549225
 30
0.0
 10
15.2718776557
 20
20.32030916
 30
0.0
  0
SPLINE
  5
2A7
100
AcDbEntity
  8
00_COMPONENTS
100
AcDbSpline
 62
7
  6
BYLAYER
 70
0
 71
3
 72
12
 73
8
 74
0
 42
0.0000001
 43
0.0000001
 44
0.0000000001
 40
0.0
 40
0.0
 40
0.0
 40
0.0
 40
0.1110723458
 40
0.2279117509
 40
0.4753542494
 40
0.73553092
 40
1.0
 40
1.0
 40
1.0
 40
1.0
 10
14.6549069615
 20
22.0095783863
 30
0.0
 10
14.6549069615
 20
22.0383851747
 30
0.0
 10
14.6519382846
 20
22.0975226117
 30
0.0
 10
14.6350633415
 20
22.2197653891
 30
0.0
 10
14.5934763853
 20
22.3769903736
 30
0.0
 10
14.5159605782
 20
22.5621896028
 30
0.0
 10
14.4474331303
 20
22.6802716125
 30
0.0
 10
14.409206131
 20
22.7372220261
 30
0.0
  0
SPLINE
  5
2A8
100
AcDbEntity
  8
00_COMPONENTS
100
AcDbSpline
 62
7
  6
BYLAYER
 70
0
 71
3
 72
11
 73
7
 74
0
 42
0.0000001
 43
0.0000001
 44
0.0000000001
 40
0.0
 40
0.0
 40
0.0
 40
0.0
 40
0.2644276173
 40
0.5247652394
 40
0.7723286337
 40
1.0
 40
1.0
 40
1.0
 40
1.0
 10
14.409206131
 20
22.7372220261
 30
0.0
 10
14.394345772
 20
22.759360923
 30
0.0
 10
14.3677138947
 20
22.8052851068
 30
0.0
 10
14.3375259216
 20
22.8773197129
 30
0.0
 10
14.3185379472
 20
22.9492694624
 30
0.0
 10
14.3136558081
 20
22.9972370577
 30
0.0
 10
14.3136558081
 20
23.0201945527
 30
0.0
  0
SPLINE
  5
2A9
100
AcDbEntity
  8
00_COMPONENTS
100
AcDbSpline
 62
7
  6
BYLAYER
 70
0
 71
3
 72
11
 73
7
 74
0
 42
0.0000001
 43
0.0000001
 44
0.0000000001
 40
0.0
 40
0.0
 40
0.0
 40
0.0
 40
0.2895129032
 40
0.5489519617
 40
0.7822155076
 40
1.0
 40
1.0
 40
1.0
 40
1.0
 10
14.3136558081
 20
23.0201945527
 30
0.0
 10
14.3136558081
 20
23.038091569
 30
0.0
 10
14.3163511251
 20
23.0721402671
 30
0.0
 10
14.3300410683
 20
23.1189567767
 30
0.0
 10
14.3530682233
 20
23.1570448542
 30
0.0
 10
14.3747250889
 20
23.1755668205
 30
0.0
 10
14.3863204012
 20
23.1824078204
 30
0.0
  0
SPLINE
  5
2AA
100
AcDbEntity
  8
00_COMPONENTS
100
AcDbSpline
 62
7
  6
BYLAYER
 70
0
 71
3
 72
11
 73
7
 74
0
 42
0.0000001
 43
0.0000001
 44
0.0000000001
 40
0.0
 40
0.0
 40
0.0
 40
0.0
 40
0.2654488787
 40
0.5206383864
 40
0.764633817
 40
1.0
 40
1.0
 40
1.0
 40
1.0
 10
4.2391601362
 20
26.6972783462
 30
0.0
 10
4.2391601327
 20
26.672066322
 30
0.0
 10
4.2427524164
 20
26.622482974
 30
0.0
 10
4.2620061141
 20
26.5518419668
 30
0.0
 10
4.2972615543
 20
26.4905472436
 30
0.0
 10
4.3324766103
 20
26.4598664181
 30
0.0
 10
4.3518362406
 20
26.4486886715
 30
0.0
  0
SPLINE
  5
2AB
100
AcDbEntity
  8
00_COMPONENTS
100
AcDbSpline
 62
7
  6
BYLAYER
 70
0
 71
3
 72
12
 73
8
 74
0
 42
0.0000001
 43
0.0000001
 44
0.0000000001
 40
0.0
 40
0.0
 40
0.0
 40
0.0
 40
0.1080468984
 40
0.2182869769
 40
0.4516170905
 40
0.7111233032
 40
1.0
 40
1.0
 40
1.0
 40
1.0
 10
7.436372458
 20
19.4905854995
 30
0.0
 10
7.4424395167
 20
19.4942741965
 30
0.0
 10
7.4540954288
 20
19.5027712611
 30
0.0
 10
7.4749671931
 20
19.5240294619
 30
0.0
 10
7.4956060056
 20
19.5585748331
 30
0.0
 10
7.5099240817
 20
19.6083350572
 30
0.0
 10
7.5127922067
 20
19.6444917621
 30
0.0
 10
7.5127918937
 20
19.6634755576
 30
0.0
  0
SPLINE
  5
2AC
100
AcDbEntity
  8
00_COMPONENTS
100
AcDbSpline
 62
7
  6
BYLAYER
 70
0
 71
3
 72
15
 73
11
 74
0
 42
0.0000001
 43
0.0000001
 44
0.0000000001
 40
0.0
 40
0.0
 40
0.0
 40
0.0
 40
0.1081850224
 40
0.2184423142
 40
0.3325722545
 40
0.4520624944
 40
0.5780040665
 40
0.7111220899
 40
0.8518183362
 40
1.0
 40
1.0
 40
1.0
 40
1.0
 10
3.9224954838
 20
19.3379693691
 30
0.0
 10
3.9224937542
 20
19.4592763272
 30
0.0
 10
3.9433964103
 20
19.7046945045
 30
0.0
 10
4.0365374689
 20
20.0673919662
 30
0.0
 10
4.1902913342
 20
20.4226220517
 30
0.0
 10
4.4027528699
 20
20.7667572441
 30
0.0
 10
4.6714616104
 20
21.0967268073
 30
0.0
 10
4.9937575035
 20
21.4095689984
 30
0.0
 10
5.366396236
 20
21.7023849071
 30
0.0
 10
5.6390832811
 20
21.8781323526
 30
0.0
 10
5.7823486148
 20
21.9622898274
 30
0.0
  0
SPLINE
  5
2AD
100
AcDbEntity
  8
00_COMPONENTS
100
AcDbSpline
 62
7
  6
BYLAYER
 70
0
 71
3
 72
15
 73
11
 74
0
 42
0.0000001
 43
0.0000001
 44
0.0000000001
 40
0.0
 40
0.0
 40
0.0
 40
0.0
 40
0.1074966949
 40
0.2171594301
 40
0.3308664425
 40
0.4501616446
 40
0.5761691936
 40
0.7096281762
 40
0.8509397638
 40
1.0
 40
1.0
 40
1.0
 40
1.0
 10
3.9224954838
 20
17.9709981722
 30
0.0
 10
3.9224972136
 20
17.8517756146
 30
0.0
 10
3.9434312017
 20
17.6104405306
 30
0.0
 10
4.0366573252
 20
17.2538907018
 30
0.0
 10
4.1905049899
 20
16.9047359017
 30
0.0
 10
4.4030398125
 20
16.5665367424
 30
0.0
 10
4.67179059
 20
16.2422857215
 30
0.0
 10
4.9940984336
 20
15.9348748804
 30
0.0
 10
5.3667257168
 20
15.6471363973
 30
0.0
 10
5.6392048775
 20
15.4745564552
 30
0.0
 10
5.7823769184
 20
15.3918979088
 30
0.0
  0
SPLINE
  5
2AE
100
AcDbEntity
  8
00_COMPONENTS
100
AcDbSpline
 62
7
  6
BYLAYER
 70
0
 71
3
 72
15
 73
11
 74
0
 42
0.0000001
 43
0.0000001
 44
0.0000000001
 40
0.0
 40
0.0
 40
0.0
 40
0.0
 40
0.1514669993
 40
0.2947255332
 40
0.4294736621
 40
0.5559561724
 40
0.6748972342
 40
0.787439651
 40
0.8951490799
 40
1.0
 40
1.0
 40
1.0
 40
1.0
 10
28.1978115905
 20
26.2395835969
 30
0.0
 10
28.2349350917
 20
26.2181508184
 30
0.0
 10
28.3055523458
 20
26.1735403694
 30
0.0
 10
28.4022362548
 20
26.0995961345
 30
0.0
 10
28.485872695
 20
26.0211142165
 30
0.0
 10
28.555626547
 20
25.9388525203
 30
0.0
 10
28.6108034863
 20
25.853510514
 30
0.0
 10
28.650786552
 20
25.7658172869
 30
0.0
 10
28.675113646
 20
25.6766539832
 30
0.0
 10
28.6806077769
 20
25.6163702177
 30
0.0
 10
28.6806240624
 20
25.586696634
 30
0.0
  0
SPLINE
  5
2AF
100
AcDbEntity
  8
00_COMPONENTS
100
AcDbSpline
 62
7
  6
BYLAYER
 70
0
 71
3
 72
18
 73
14
 74
0
 42
0.0000001
 43
0.0000001
 44
0.0000000001
 40
0.0
 40
0.0
 40
0.0
 40
0.0
 40
0.1532357319
 40
0.3018396495
 40
0.4430911418
 40
0.5750302196
 40
0.6370829554
 40
0.6963741628
 40
0.8065804086
 40
0.8578950309
 40
0.9069857162
 40
0.9542116763
 40
1.0
 40
1.0
 40
1.0
 40
1.0
 10
23.8373410037
 20
14.284329768
 30
0.0
 10
23.888186508
 20
14.3609160244
 30
0.0
 10
23.9957677238
 20
14.507006605
 30
0.0
 10
24.174657707
 20
14.7042709643
 30
0.0
 10
24.3647305964
 20
14.8721403567
 30
0.0
 10
24.5313517105
 20
14.985969266
 30
0.0
 10
24.6657219241
 20
15.0572458337
 30
0.0
 10
24.7933032013
 20
15.1123976534
 30
0.0
 10
24.9215708733
 20
15.149291811
 30
0.0
 10
25.0472885836
 20
15.1640731461
 30
0.0
 10
25.1360861051
 20
15.1640043937
 30
0.0
 10
25.220865293
 20
15.1530590642
 30
0.0
 10
25.2749296049
 20
15.1383888099
 30
0.0
 10
25.3008437379
 20
15.1292784219
 30
0.0
  0
SPLINE
  5
2B0
100
AcDbEntity
  8
00_COMPONENTS
100
AcDbSpline
 62
7
  6
BYLAYER
 70
0
 71
3
 72
15
 73
11
 74
0
 42
0.0000001
 43
0.0000001
 44
0.0000000001
 40
0.0
 40
0.0
 40
0.0
 40
0.0
 40
0.1140768061
 40
0.2373651138
 40
0.3669966119
 40
0.5000108793
 40
0.6330241447
 40
0.7626512686
 40
0.8859293777
 40
1.0
 40
1.0
 40
1.0
 40
1.0
 10
16.9835419359
 20
14.1956591702
 30
0.0
 10
16.983541585
 20
14.1743787085
 30
0.0
 10
16.9874684825
 20
14.1300609779
 30
0.0
 10
17.0029868792
 20
14.0631995199
 30
0.0
 10
17.0279122807
 20
13.995469739
 30
0.0
 10
17.0612683913
 20
13.9294550211
 30
0.0
 10
17.1017667994
 20
13.8675654036
 30
0.0
 10
17.1479632993
 20
13.812121116
 30
0.0
 10
17.198112287
 20
13.7652611472
 30
0.0
 10
17.2345299846
 20
13.7397088039
 30
0.0
 10
17.2529585103
 20
13.7290693303
 30
0.0
  0
SPLINE
  5
2B1
100
AcDbEntity
  8
00_COMPONENTS
100
AcDbSpline
 62
7
  6
BYLAYER
 70
0
 71
3
 72
21
 73
17
 74
0
 42
0.0000001
 43
0.0000001
 44
0.0000000001
 40
0.0
 40
0.0
 40
0.0
 40
0.0
 40
0.0287321467
 40
0.0574774398
 40
0.0865389578
 40
0.1161072328
 40
0.176804541
 40
0.239486159
 40
0.3035049621
 40
0.3683001807
 40
0.4334570228
 40
0.4986727315
 40
0.6283214915
 40
0.755863226
 40
0.8800845094
 40
1.0
 40
1.0
 40
1.0
 40
1.0
 10
21.0586377304
 20
15.8885785579
 30
0.0
 10
21.0494618406
 20
15.8938761405
 30
0.0
 10
21.032127251
 20
15.9063737894
 30
0.0
 10
21.010415518
 20
15.93003552
 30
0.0
 10
20.9934592883
 20
15.9576501227
 30
0.0
 10
20.9771535448
 20
15.9987161331
 30
0.0
 10
20.9686649688
 20
16.0552337431
 30
0.0
 10
20.9741311194
 20
16.1245336227
 30
0.0
 10
20.9918125202
 20
16.1931929777
 30
0.0
 10
21.0190116285
 20
16.2595385878
 30
0.0
 10
21.0535620795
 20
16.3228131837
 30
0.0
 10
21.1070995286
 20
16.4024868337
 30
0.0
 10
21.1845992736
 20
16.4931790805
 30
0.0
 10
21.2878772045
 20
16.5889944463
 30
0.0
 10
21.3968180611
 20
16.6724490487
 30
0.0
 10
21.4727439896
 20
16.7210559305
 30
0.0
 10
21.5109842707
 20
16.7432622695
 30
0.0
  0
SPLINE
  5
2B2
100
AcDbEntity
  8
00_COMPONENTS
100
AcDbSpline
 62
7
  6
BYLAYER
 70
0
 71
3
 72
16
 73
12
 74
0
 42
0.0000001
 43
0.0000001
 44
0.0000000001
 40
0.0
 40
0.0
 40
0.0
 40
0.0
 40
0.0682357595
 40
0.1433561956
 40
0.291180316
 40
0.4231163438
 40
0.5417227864
 40
0.6539337941
 40
0.7655335545
 40
0.8802560303
 40
1.0
 40
1.0
 40
1.0
 40
1.0
 10
22.5285171282
 20
16.7298457266
 30
0.0
 10
22.5082433715
 20
16.7415505207
 30
0.0
 10
22.4651023086
 20
16.7652003364
 30
0.0
 10
22.3758749374
 20
16.8101326266
 30
0.0
 10
22.2636222061
 20
16.8579416942
 30
0.0
 10
22.1312760756
 20
16.8942195481
 30
0.0
 10
22.0067366178
 20
16.9061782696
 30
0.0
 10
21.8890943727
 20
16.8965804857
 30
0.0
 10
21.7758607038
 20
16.869038814
 30
0.0
 10
21.6647989052
 20
16.8263731807
 30
0.0
 10
21.592962637
 20
16.789869777
 30
0.0
 10
21.5571755034
 20
16.7696969416
 30
0.0
  0
SPLINE
  5
2B3
100
AcDbEntity
  8
00_COMPONENTS
100
AcDbSpline
 62
7
  6
BYLAYER
 70
0
 71
3
 72
12
 73
8
 74
0
 42
0.0000001
 43
0.0000001
 44
0.0000000001
 40
0.0
 40
0.0
 40
0.0
 40
0.0
 40
0.1161173685
 40
0.2443329191
 40
0.504650671
 40
0.7540305863
 40
1.0
 40
1.0
 40
1.0
 40
1.0
 10
21.5337531647
 20
16.7776441269
 30
0.0
 10
21.533754185
 20
16.7760102181
 30
0.0
 10
21.5332549003
 20
16.7725722391
 30
0.0
 10
21.5308877216
 20
16.765830295
 30
0.0
 10
21.5255618206
 20
16.758447111
 30
0.0
 10
21.5183016404
 20
16.7507027185
 30
0.0
 10
21.5133672393
 20
16.7457723582
 30
0.0
 10
21.5109842707
 20
16.7432622695
 30
0.0
  0
SPLINE
  5
2B4
100
AcDbEntity
  8
00_COMPONENTS
100
AcDbSpline
 62
7
  6
BYLAYER
 70
0
 71
3
 72
13
 73
9
 74
0
 42
0.0000001
 43
0.0000001
 44
0.0000000001
 40
0.0
 40
0.0
 40
0.0
 40
0.0
 40
0.2615078176
 40
0.3732650547
 40
0.4913415024
 40
0.6146926622
 40
0.7421066804
 40
1.0
 40
1.0
 40
1.0
 40
1.0
 10
21.5337531647
 20
16.7776678161
 30
0.0
 10
21.5337547913
 20
16.7751296499
 30
0.0
 10
21.534659117
 20
16.7709560413
 30
0.0
 10
21.5390700834
 20
16.7686356161
 30
0.0
 10
21.5424965606
 20
16.7682217602
 30
0.0
 10
21.5460816822
 20
16.7682995627
 30
0.0
 10
21.5509894905
 20
16.7688620395
 30
0.0
 10
21.5546858874
 20
16.7694376244
 30
0.0
 10
21.5571755034
 20
16.7696969416
 30
0.0
  0
SPLINE
  5
2B5
100
AcDbEntity
  8
00_COMPONENTS
100
AcDbSpline
 62
7
  6
BYLAYER
 70
0
 71
3
 72
9
 73
5
 74
0
 42
0.0000001
 43
0.0000001
 44
0.0000000001
 40
0.0
 40
0.0
 40
0.0
 40
0.0
 40
0.248371851
 40
1.0
 40
1.0
 40
1.0
 40
1.0
 10
22.3006764778
 20
24.2466174403
 30
0.0
 10
22.3030126145
 20
24.2480134085
 30
0.0
 10
22.3122377824
 20
24.2539320418
 30
0.0
 10
22.3206931097
 20
24.261040864
 30
0.0
 10
22.3264839938
 20
24.2668968282
 30
0.0
  0
SPLINE
  5
2B6
100
AcDbEntity
  8
00_COMPONENTS
100
AcDbSpline
 62
7
  6
BYLAYER
 70
0
 71
3
 72
11
 73
7
 74
0
 42
0.0000001
 43
0.0000001
 44
0.0000000001
 40
0.0
 40
0.0
 40
0.0
 40
0.0
 40
0.219738856
 40
0.4571220004
 40
0.7170096166
 40
1.0
 40
1.0
 40
1.0
 40
1.0
 10
22.3264839938
 20
24.2668968282
 30
0.0
 10
22.3350000118
 20
24.2755085525
 30
0.0
 10
22.3503309865
 20
24.2958843386
 30
0.0
 10
22.3663932242
 20
24.3322916795
 30
0.0
 10
22.3759424834
 20
24.3744451457
 30
0.0
 10
22.3779021604
 20
24.4044234332
 30
0.0
 10
22.3779007552
 20
24.4200209952
 30
0.0
  0
SPLINE
  5
2B7
100
AcDbEntity
  8
00_COMPONENTS
100
AcDbSpline
 62
7
  6
BYLAYER
 70
0
 71
3
 72
15
 73
11
 74
0
 42
0.0000001
 43
0.0000001
 44
0.0000000001
 40
0.0
 40
0.0
 40
0.0
 40
0.0
 40
0.106853736
 40
0.2155094032
 40
0.3281700656
 40
0.4466688666
 40
0.5724158003
 40
0.7063813192
 40
0.8489909157
 40
1.0
 40
1.0
 40
1.0
 40
1.0
 10
28.6806240624
 20
25.586696634
 30
0.0
 10
28.6806402992
 20
25.557111731
 30
0.0
 10
28.6752705325
 20
25.4972991658
 30
0.0
 10
28.650954876
 20
25.4092921794
 30
0.0
 10
28.6108476924
 20
25.3237232754
 30
0.0
 10
28.5554391005
 20
25.2414785193
 30
0.0
 10
28.4853635173
 20
25.1632723846
 30
0.0
 10
28.4013140627
 20
25.0897991321
 30
0.0
 10
28.3042043275
 20
25.0217549286
 30
0.0
 10
28.2334614679
 20
24.9814522436
 30
0.0
 10
28.1963185761
 20
24.9622556514
 30
0.0
  0
SPLINE
  5
2B8
100
AcDbEntity
  8
00_COMPONENTS
100
AcDbSpline
 62
7
  6
BYLAYER
 70
0
 71
3
 72
11
 73
7
 74
0
 42
0.0000001
 43
0.0000001
 44
0.0000000001
 40
0.0
 40
0.0
 40
0.0
 40
0.0
 40
0.2612546518
 40
0.522476707
 40
0.772031679
 40
1.0
 40
1.0
 40
1.0
 40
1.0
 10
4.9204782511
 20
28.6945346357
 30
0.0
 10
4.939724484
 20
28.6705636841
 30
0.0
 10
4.9744589178
 20
28.6194999621
 30
0.0
 10
5.0140357182
 20
28.5373603806
 30
0.0
 10
5.0393588346
 20
28.4538375593
 30
0.0
 10
5.0459929064
 20
28.3975856933
 30
0.0
 10
5.0459929064
 20
28.3707611777
 30
0.0
  0
SPLINE
  5
2B9
100
AcDbEntity
  8
00_COMPONENTS
100
AcDbSpline
 62
7
  6
BYLAYER
 70
0
 71
3
 72
11
 73
7
 74
0
 42
0.0000001
 43
0.0000001
 44
0.0000000001
 40
0.0
 40
0.0
 40
0.0
 40
0.0
 40
0.2897096274
 40
0.5490912821
 40
0.7820537545
 40
1.0
 40
1.0
 40
1.0
 40
1.0
 10
5.0459929064
 20
28.3707611777
 30
0.0
 10
5.0459929064
 20
28.3526345309
 30
0.0
 10
5.0432105828
 20
28.3181622441
 30
0.0
 10
5.0291739824
 20
28.2708278277
 30
0.0
 10
5.0054808277
 20
28.2324851156
 30
0.0
 10
4.9832155314
 20
28.2141339771
 30
0.0
 10
4.9713456414
 20
28.2074212489
 30
0.0
  0
SPLINE
  5
2BA
100
AcDbEntity
  8
00_COMPONENTS
100
AcDbSpline
 62
7
  6
BYLAYER
 70
0
 71
3
 72
15
 73
11
 74
0
 42
0.0000001
 43
0.0000001
 44
0.0000000001
 40
0.0
 40
0.0
 40
0.0
 40
0.0
 40
0.1107501262
 40
0.2280995429
 40
0.3508434761
 40
0.4777799271
 40
0.6076289916
 40
0.739004215
 40
0.8704037631
 40
1.0
 40
1.0
 40
1.0
 40
1.0
 10
4.7047417531
 20
27.7541789876
 30
0.0
 10
4.7047417531
 20
27.7203794858
 30
0.0
 10
4.7088502887
 20
27.6507291124
 30
0.0
 10
4.7257623849
 20
27.5448499078
 30
0.0
 10
4.7534635104
 20
27.4361665487
 30
0.0
 10
4.7913680644
 20
27.3265836684
 30
0.0
 10
4.8388847521
 20
27.2179400381
 30
0.0
 10
4.8951824898
 20
27.1120323008
 30
0.0
 10
4.9593311634
 20
27.0107888065
 30
0.0
 10
5.0070065791
 20
26.9468606957
 30
0.0
 10
5.031915203
 20
26.9161385669
 30
0.0
  0
SPLINE
  5
2BB
100
AcDbEntity
  8
00_COMPONENTS
100
AcDbSpline
 62
7
  6
BYLAYER
 70
0
 71
3
 72
15
 73
11
 74
0
 42
0.0000001
 43
0.0000001
 44
0.0000000001
 40
0.0
 40
0.0
 40
0.0
 40
0.0
 40
0.1484799071
 40
0.289471893
 40
0.4227505909
 40
0.548658044
 40
0.6679956116
 40
0.7819328339
 40
0.8919879269
 40
1.0
 40
1.0
 40
1.0
 40
1.0
 10
28.1970744174
 20
21.2676385111
 30
0.0
 10
28.2342834613
 20
21.2891210344
 30
0.0
 10
28.3051298286
 20
21.3340517377
 30
0.0
 10
28.4020351113
 20
21.4090248523
 30
0.0
 10
28.4858671495
 20
21.4892560867
 30
0.0
 10
28.5557501326
 20
21.5739640831
 30
0.0
 10
28.6109860234
 20
21.6623991867
 30
0.0
 10
28.6509594683
 20
21.7537757703
 30
0.0
 10
28.6752170746
 20
21.8471580288
 30
0.0
 10
28.6806285486
 20
21.9103888282
 30
0.0
 10
28.6806285482
 20
21.9416439968
 30
0.0
  0
SPLINE
  5
2BC
100
AcDbEntity
  8
00_COMPONENTS
100
AcDbSpline
 62
7
  6
BYLAYER
 70
0
 71
3
 72
15
 73
11
 74
0
 42
0.0000001
 43
0.0000001
 44
0.0000000001
 40
0.0
 40
0.0
 40
0.0
 40
0.0
 40
0.1080127053
 40
0.2180683521
 40
0.3320059854
 40
0.4513437625
 40
0.5772511829
 40
0.7105295771
 40
0.8515209773
 40
1.0
 40
1.0
 40
1.0
 40
1.0
 10
27.855128709
 20
20.5118406011
 30
0.0
 10
27.8821976502
 20
20.5274687693
 30
0.0
 10
27.9342536636
 20
20.5637719636
 30
0.0
 10
28.0029993998
 20
20.6314732111
 30
0.0
 10
28.0621499127
 20
20.7117823357
 30
0.0
 10
28.1111214358
 20
20.8038387205
 30
0.0
 10
28.1495412163
 20
20.9067165878
 30
0.0
 10
28.1771090346
 20
21.019436522
 30
0.0
 10
28.1935860857
 20
21.1408492997
 30
0.0
 10
28.1970744174
 20
21.224671984
 30
0.0
 10
28.1970744174
 20
21.2676385111
 30
0.0
  0
SPLINE
  5
2BD
100
AcDbEntity
  8
00_COMPONENTS
100
AcDbSpline
 62
7
  6
BYLAYER
 70
0
 71
3
 72
14
 73
10
 74
0
 42
0.0000001
 43
0.0000001
 44
0.0000000001
 40
0.0
 40
0.0
 40
0.0
 40
0.0
 40
0.1081630364
 40
0.218248604
 40
0.3321322276
 40
0.4514139275
 40
0.5773033472
 40
0.7106132109
 40
1.0
 40
1.0
 40
1.0
 40
1.0
 10
4.8966779767
 20
28.1742204209
 30
0.0
 10
4.8814961678
 20
28.1656475515
 30
0.0
 10
4.8522876363
 20
28.1456757727
 30
0.0
 10
4.8136900648
 20
28.1082381759
 30
0.0
 10
4.7804925594
 20
28.063697433
 30
0.0
 10
4.7530071558
 20
28.0125510277
 30
0.0
 10
4.7314313131
 20
27.9553083694
 30
0.0
 10
4.710228982
 20
27.8693012391
 30
0.0
 10
4.7047417531
 20
27.8008259474
 30
0.0
 10
4.7047417531
 20
27.7541789876
 30
0.0
  0
SPLINE
  5
2BE
100
AcDbEntity
  8
00_COMPONENTS
100
AcDbSpline
 62
7
  6
BYLAYER
 70
0
 71
3
 72
23
 73
19
 74
0
 42
0.0000001
 43
0.0000001
 44
0.0000000001
 40
0.0
 40
0.0
 40
0.0
 40
0.0
 40
0.0560116133
 40
0.1145149394
 40
0.175227826
 40
0.237874079
 40
0.3021160706
 40
0.367576465
 40
0.4338564426
 40
0.500541341
 40
0.5672073037
 40
0.6334308617
 40
0.6987984604
 40
0.7629131572
 40
0.8254003187
 40
0.8859258631
 40
0.9442180961
 40
1.0
 40
1.0
 40
1.0
 40
1.0
 10
21.4798925842
 20
12.8995136185
 30
0.0
 10
21.3295519783
 20
12.8111999601
 30
0.0
 10
21.0142234174
 20
12.6439371818
 30
0.0
 10
20.513650016
 20
12.4260492929
 30
0.0
 10
19.979338268
 20
12.2375611958
 30
0.0
 10
19.4165112189
 20
12.0802659658
 30
0.0
 10
18.8304799777
 20
11.9555878647
 30
0.0
 10
18.2268344517
 20
11.8647779576
 30
0.0
 10
17.6113572793
 20
11.8086762703
 30
0.0
 10
16.9899317239
 20
11.7878027643
 30
0.0
 10
16.3685024549
 20
11.8023995822
 30
0.0
 10
15.7530145411
 20
11.8522846594
 30
0.0
 10
15.1493508939
 20
11.9369974871
 30
0.0
 10
14.5632936182
 20
12.0557567242
 30
0.0
 10
14.0004328325
 20
12.2073679301
 30
0.0
 10
13.4660785133
 20
12.3904619932
 30
0.0
 10
12.9654544496
 20
12.603296524
 30
0.0
 10
12.6500187072
 20
12.7674184972
 30
0.0
 10
12.4996364636
 20
12.8542397619
 30
0.0
  0
SPLINE
  5
2BF
100
AcDbEntity
  8
00_COMPONENTS
100
AcDbSpline
 62
7
  6
BYLAYER
 70
0
 71
3
 72
15
 73
11
 74
0
 42
0.0000001
 43
0.0000001
 44
0.0000000001
 40
0.0
 40
0.0
 40
0.0
 40
0.0
 40
0.1480923295
 40
0.2886589542
 40
0.4216355489
 40
0.5474565837
 40
0.6668844129
 40
0.7810498088
 40
0.8914782477
 40
1.0
 40
1.0
 40
1.0
 40
1.0
 10
5.7823769184
 20
16.7323636336
 30
0.0
 10
5.6391372578
 20
16.8150612193
 30
0.0
 10
5.3664816855
 20
16.9880393238
 30
0.0
 10
4.9938084897
 20
17.2771341591
 30
0.0
 10
4.6714725243
 20
17.5867734829
 30
0.0
 10
4.4027251084
 20
17.9140961897
 30
0.0
 10
4.1902353758
 20
18.2561657558
 30
0.0
 10
4.0364752936
 20
18.6099249914
 30
0.0
 10
3.9433559076
 20
18.9717451086
 30
0.0
 10
3.9224972119
 20
19.2167660736
 30
0.0
 10
3.9224954838
 20
19.3379693691
 30
0.0
  0
SPLINE
  5
2C0
100
AcDbEntity
  8
00_COMPONENTS
100
AcDbSpline
 62
7
  6
BYLAYER
 70
0
 71
3
 72
11
 73
7
 74
0
 42
0.0000001
 43
0.0000001
 44
0.0000000001
 40
0.0
 40
0.0
 40
0.0
 40
0.0
 40
0.2433630176
 40
0.4926246414
 40
0.7456013253
 40
1.0
 40
1.0
 40
1.0
 40
1.0
 10
15.2718776557
 20
20.32030916
 30
0.0
 10
15.30004959
 20
20.336037828
 30
0.0
 10
15.3540708874
 20
20.3733944183
 30
0.0
 10
15.4265330702
 20
20.4410107481
 30
0.0
 10
15.4910422893
 20
20.5181267845
 30
0.0
 10
15.5282778077
 20
20.5743363561
 30
0.0
 10
15.5453534723
 20
20.6034229007
 30
0.0
  0
SPLINE
  5
2C1
100
AcDbEntity
  8
00_COMPONENTS
100
AcDbSpline
 62
7
  6
BYLAYER
 70
0
 71
3
 72
12
 73
8
 74
0
 42
0.0000001
 43
0.0000001
 44
0.0000000001
 40
0.0
 40
0.0
 40
0.0
 40
0.0
 40
0.2897468005
 40
0.5489855664
 40
0.7815774559
 40
0.8916921881
 40
1.0
 40
1.0
 40
1.0
 40
1.0
 10
7.2433753206
 20
19.507974143
 30
0.0
 10
7.2603499259
 20
19.4981740718
 30
0.0
 10
7.2941480431
 20
19.4821733612
 30
0.0
 10
7.3460411068
 20
19.4698683564
 30
0.0
 10
7.3874219127
 20
19.4714633188
 30
0.0
 10
7.4167928891
 20
19.480182215
 30
0.0
 10
7.4301120435
 20
19.4867792447
 30
0.0
 10
7.436372458
 20
19.4905854995
 30
0.0
  0
ELLIPSE
  5
2C2
100
AcDbEntity
  8
00_COMPONENTS
100
AcDbEllipse
 62
7
  6
BYLAYER
 10
29.6518916869
 20
16.834309703
 30
0.0
 11
0.761992489
 21
0.0058096441
 31
0.0
 40
0.5823581608
 41
-0.7898340325
 42
-0.0044400326
  0
ELLIPSE
  5
2C3
100
AcDbEntity
  8
00_COMPONENTS
100
AcDbEllipse
 62
7
  6
BYLAYER
 10
28.2151500349
 20
28.2254125431
 30
0.0
 11
-0.1905136551
 21
0.3299812989
 31
0.0
 40
0.5773128343
 41
-3.1328664653
 42
-2.3562239275
  0
ELLIPSE
  5
2C4
100
AcDbEntity
  8
00_COMPONENTS
100
AcDbEllipse
 62
7
  6
BYLAYER
 10
27.9098405729
 20
20.1478103512
 30
0.0
 11
-0.1904991468
 21
0.3299561714
 31
0.0
 40
0.5774007686
 41
0.7854448811
 42
2.3561650555
  0
ELLIPSE
  5
2C5
100
AcDbEntity
  8
00_COMPONENTS
100
AcDbEllipse
 62
7
  6
BYLAYER
 10
7.4628852179
 20
26.5191647665
 30
0.0
 11
0.1649500629
 21
0.3443556226
 31
0.0
 40
0.5189095159
 41
-2.3961550699
 42
-0.8253587432
  0
ELLIPSE
  5
2C6
100
AcDbEntity
  8
00_COMPONENTS
100
AcDbEllipse
 62
7
  6
BYLAYER
 10
21.5337531647
 20
15.4088547339
 30
0.0
 11
0.8147658016
 21
1.4359876691
 31
0.0
 40
0.5722918721
 41
0.781097567
 42
0.8007740008
  0
ELLIPSE
  5
2C7
100
AcDbEntity
  8
00_COMPONENTS
100
AcDbEllipse
 62
7
  6
BYLAYER
 10
21.5337531647
 20
15.4088547339
 30
0.0
 11
0.8474505935
 21
1.41705721
 31
0.0
 40
0.5873387238
 41
0.7747016599
 42
0.7944219291
  0
ELLIPSE
  5
2C8
100
AcDbEntity
  8
00_COMPONENTS
100
AcDbEllipse
 62
7
  6
BYLAYER
 10
15.7714186604
 20
14.8955166775
 30
0.0
 11
-0.1905136551
 21
0.3299812989
 31
0.0
 40
0.5773128343
 41
-3.9269441019
 42
-2.3562239275
  0
ELLIPSE
  5
2C9
100
AcDbEntity
  8
00_COMPONENTS
100
AcDbEllipse
 62
7
  6
BYLAYER
 10
15.2783059112
 20
23.4091424578
 30
0.0
 11
0.379800389
 21
0.1363802415
 31
0.0
 40
0.2215155034
 41
-2.4355658765
 42
-0.873496196
  0
ELLIPSE
  5
2CA
100
AcDbEntity
  8
00_COMPONENTS
100
AcDbEllipse
 62
7
  6
BYLAYER
 10
12.7947853699
 20
23.440860419
 30
0.0
 11
0.2209795121
 21
0.3115961264
 31
0.0
 40
0.6302353515
 41
-2.2973189858
 42
-0.726522659
  0
ELLIPSE
  5
2CB
100
AcDbEntity
  8
00_COMPONENTS
100
AcDbEllipse
 62
7
  6
BYLAYER
 10
4.6201559272
 20
29.5624890128
 30
0.0
 11
-0.3194563514
 21
0.2953716525
 31
0.0
 40
0.702932051
 41
6.0828482218
 42
7.6449179023
  0
ELLIPSE
  5
2CC
100
AcDbEntity
  8
00_COMPONENTS
100
AcDbEllipse
 62
7
  6
BYLAYER
 10
8.7249151692
 20
18.9637253298
 30
0.0
 11
-0.1904991468
 21
0.3299561714
 31
0.0
 40
0.5774007686
 41
0.7854448811
 42
2.3561650555
  0
ELLIPSE
  5
2CD
100
AcDbEntity
  8
00_COMPONENTS
100
AcDbEllipse
 62
7
  6
BYLAYER
 10
29.6518916869
 20
18.2142308858
 30
0.0
 11
0.7619929955
 21
-0.0057091306
 31
0.0
 40
0.5722818953
 41
-0.7811062807
 42
0.7896900461
  0
ENDSEC
  0
SECTION
  2
OBJECTS
  0
DICTIONARY
  5
C
100
AcDbDictionary
280
0
281
1
  3
ACAD_GROUP
350
D
  3
ACAD_MLINESTYLE
350
17
  3
ACAD_LAYOUT
350
1A
  3
ACAD_PLOTSETTINGS
350
19
  3
ACAD_PLOTSTYLENAME
350
E
  0
DICTIONARY
  5
D
102
{ACAD_REACTORS
330
C
102
}
100
AcDbDictionary
280
0
281
1
  0
ACDBDICTIONARYWDFLT
  5
E
102
{ACAD_REACTORS
330
C
102
}
100
AcDbDictionary
281
1
  3
Normal
350
F
100
AcDbDictionaryWithDefault
340
F
  0
DICTIONARY
  5
17
102
{ACAD_REACTORS
330
C
102
}
100
AcDbDictionary
280
0
281
1
  3
Standard
350
18
  0
DICTIONARY
  5
19
102
{ACAD_REACTORS
330
C
102
}
100
AcDbDictionary
281
1
  0
DICTIONARY
  5
1A
102
{ACAD_REACTORS
330
C
102
}
100
AcDbDictionary
281
1
  3
Model
350
2CE
  3
Layout1
350
2CF
  0
ACDBPLACEHOLDER
  5
F
102
{ACAD_REACTORS
330
E
102
}
  0
MLINESTYLE
  5
18
102
{ACAD_REACTORS
330
17
102
}
100
AcDbMlineStyle
  2
STANDARD
 70
0
  3

 62
256
 51
90.0
 52
90.0
 71
2
 49
0.5
 62
256
  6
BYLAYER
 49
-0.5
 62
256
  6
BYLAYER
  0
LAYOUT
  5
2CE
102
{ACAD_REACTORS
330
1A
102
}
100
AcDbPlotSettings
  1

  2
none_device
  4

  6

 40
0.0
 41
0.0
 42
0.0
 43
0.0
 44
210.0
 45
297.0
 46
0.0
 47
0.0
 48
0.0
 49
0.0
140
0.0
141
0.0
142
1.0
143
1.0
 70
1024
 72
1
 73
0
 74
0
  7

 75
0
147
1.0
148
0.0
149
0.0
100
AcDbLayout
  1
Model
 70
0
 71
0
 10
0.0
 20
0.0
 11
210.0
 21
297.0
 12
0.0
 22
0.0
 32
0.0
 14
0.0
 24
0.0
 34
0.0
 15
0.0
 25
0.0
 35
0.0
146
0.0
 13
0.0
 23
0.0
 33
0.0
 16
1.0
 26
0.0
 36
0.0
 17
0.0
 27
1.0
 37
0.0
 76
0
330
211
345
0
346
0
  0
LAYOUT
  5
2CF
102
{ACAD_REACTORS
330
1A
102
}
100
AcDbPlotSettings
  1

  2
none_device
  4

  6

 40
0.0
 41
0.0
 42
0.0
 43
0.0
 44
210.0
 45
297.0
 46
0.0
 47
0.0
 48
0.0
 49
0.0
140
0.0
141
0.0
142
1.0
143
1.0
 70
0
 72
1
 73
0
 74
0
  7

 75
0
147
1.0
148
0.0
149
0.0
100
AcDbLayout
  1
Layout1
 70
0
 71
1
 10
0.0
 20
0.0
 11
210.0
 21
297.0
 12
0.0
 22
0.0
 32
0.0
 14
0.0
 24
0.0
 34
0.0
 15
0.0
 25
0.0
 35
0.0
146
0.0
 13
0.0
 23
0.0
 33
0.0
 16
1.0
 26
0.0
 36
0.0
 17
0.0
 27
1.0
 37
0.0
 76
0
330
212
345
0
346
0
  0
ENDSEC
  0
EOF
