999
DXF file: C:\Users\sesa63760\Dev\_Creo\CAD\MCADID0000571_3D-CAD\drw0001_6.dxf
999
Pro/ENGINEER 2019471 by Parametric Technology Corporation
  0
SECTION
  2
HEADER
  9
$ACADVER
  1
AC1024
  9
$DWGCODEPAGE
  3
ANSI_1252
  9
$EXTMAX
 10
102.4910394265
 20
144.9516129032
 30
0.0
  9
$EXTMIN
 10
0.0
 20
0.0
 30
0.0
  9
$LIMMIN
 10
0.0
 20
0.0
  9
$LIMMAX
 10
102.4910394265
 20
144.9516129032
  9
$VIEWCTR
 10
51.2455197133
 20
72.4758064516
  9
$VIEWSIZE
 40
144.9516129032
  9
$CLAYER
  8
0
  9
$LTSCALE
 40
9.44869773
  9
$CELTYPE
  6
BYLAYER
  9
$DIMSCALE
 40
1.0
  9
$DIMASZ
 40
1.2201314217
  9
$DIMEXO
 40
1.0
  9
$DIMDLI
 40
6.5281911589
  9
$DIMEXE
 40
1.0
  9
$DIMCEN
 40
1.5461505376
  9
$DIMLFAC
 40
1.0
  9
$DIMBLK
  1
_FILLED
  9
$DIMALT
 70
0
  9
$DIMALTF
 40
0.0393700787
  9
$DIMTXT
 40
1.7081839904
  9
$DIMTOL
 70
1
  9
$DIMLIM
 70
0
  9
$DIMTFAC
 40
1.0
  9
$DIMTP
 40
0.01
  9
$DIMTM
 40
0.01
  9
$DIMGAP
 40
0.625
  9
$DIMDSEP
 70
46
  9
$AUNITS
 70
0
  9
$PDMODE
 70
3
  9
$PDSIZE
 40
0.3125
  9
$HANDSEED
  5
2B2
  9
$TILEMODE
 70
1
  9
$MEASUREMENT
 70
1
  9
$INSUNITS
 70
4
  0
ENDSEC
  0
SECTION
  2
CLASSES
  0
CLASS
  1
ACDBDICTIONARYWDFLT
  2
AcDbDictionaryWithDefault
  3
AutoCAD 2000
 90
0
 91
1
280
0
281
0
  0
CLASS
  1
ACDBPLACEHOLDER
  2
AcDbPlaceHolder
  3
AutoCAD 2000
 90
0
 91
1
280
0
281
0
  0
CLASS
  1
LAYOUT
  2
AcDbLayout
  3
AutoCAD 2000
 90
0
 91
0
280
0
281
0
  0
ENDSEC
  0
SECTION
  2
TABLES
  0
TABLE
  2
VPORT
  5
8
100
AcDbSymbolTable
 70
2
  0
VPORT
  5
1F4
100
AcDbSymbolTableRecord
100
AcDbViewportTableRecord
  2
*ACTIVE
 70
0
 10
0.0
 20
0.0
 11
1.0
 21
1.0
 12
51.2455197133
 22
72.4758064516
 13
0.0
 23
0.0
 14
1.0
 24
1.0
 15
0.0
 25
0.0
 16
0.0
 26
0.0
 36
1.0
 17
0.0
 27
0.0
 37
0.0
 40
144.9516129032
 41
0.7070707071
 42
50.0
 43
0.0
 44
0.0
 50
0.0
 51
0.0
 71
0
 72
100
 73
1
 74
1
 75
0
 76
0
 77
0
 78
0
  0
ENDTAB
  0
TABLE
  2
LTYPE
  5
5
100
AcDbSymbolTable
 70
6
  0
LTYPE
  5
14
100
AcDbSymbolTableRecord
100
AcDbLinetypeTableRecord
  2
BYBLOCK
 70
0
  3

 72
65
 73
0
 40
0.0
  0
LTYPE
  5
15
100
AcDbSymbolTableRecord
100
AcDbLinetypeTableRecord
  2
BYLAYER
 70
0
  3

 72
65
 73
0
 40
0.0
  0
LTYPE
  5
16
100
AcDbSymbolTableRecord
100
AcDbLinetypeTableRecord
  2
CONTINUOUS
 70
64
  3
Solid line
 72
65
 73
0
 40
0.0
  0
LTYPE
  5
1F5
100
AcDbSymbolTableRecord
100
AcDbLinetypeTableRecord
  2
CENTER
 70
64
  3
____ _ ____ _ ____ _ ____ _ ____ _ ____ _ ____
 72
65
 73
4
 40
0.6
 49
0.375
 74
0
 49
-0.075
 74
0
 49
0.075
 74
0
 49
-0.075
 74
0
  0
LTYPE
  5
1F6
100
AcDbSymbolTableRecord
100
AcDbLinetypeTableRecord
  2
HIDDEN
 70
64
  3
- - - - - - - - - - - - - - - - - - - -
 72
65
 73
2
 40
0.2
 49
0.1
 74
0
 49
-0.1
 74
0
  0
LTYPE
  5
1F7
100
AcDbSymbolTableRecord
100
AcDbLinetypeTableRecord
  2
PHANTOM
 70
64
  3
_____ _ _ _____ _ _ _____ _ _ _____
 72
65
 73
6
 40
0.8
 49
0.45
 74
0
 49
-0.05
 74
0
 49
0.1
 74
0
 49
-0.05
 74
0
 49
0.1
 74
0
 49
-0.05
 74
0
  0
LTYPE
  5
1F8
100
AcDbSymbolTableRecord
100
AcDbLinetypeTableRecord
  2
DOT
 70
64
  3
. . . . . . . . . . . . . . . . . . . .
 72
65
 73
2
 40
0.2
 49
0.1
 74
0
 49
-0.1
 74
0
  0
LTYPE
  5
1F9
100
AcDbSymbolTableRecord
100
AcDbLinetypeTableRecord
  2
DASHED
 70
64
  3
- - - - - - - - - - - - - - - - - - - -
 72
65
 73
2
 40
0.2
 49
0.1
 74
0
 49
-0.1
 74
0
  0
ENDTAB
  0
TABLE
  2
LAYER
  5
2
100
AcDbSymbolTable
 70
36
  0
LAYER
  5
10
100
AcDbSymbolTableRecord
100
AcDbLayerTableRecord
  2
0
 70
0
 62
7
  6
CONTINUOUS
370
-3
390
F
  0
LAYER
  5
1FA
100
AcDbSymbolTableRecord
100
AcDbLayerTableRecord
  2
DEFAULT_1
 70
0
 62
7
  6
CENTER
370
-3
390
F
  0
LAYER
  5
1FB
100
AcDbSymbolTableRecord
100
AcDbLayerTableRecord
  2
DEFAULT_2
 70
0
 62
8
  6
HIDDEN
370
-3
390
F
  0
LAYER
  5
1FC
100
AcDbSymbolTableRecord
100
AcDbLayerTableRecord
  2
DEFAULT_3
 70
0
 62
7
  6
PHANTOM
370
-3
390
F
  0
LAYER
  5
1FD
100
AcDbSymbolTableRecord
100
AcDbLayerTableRecord
  2
00_COMPONENTS
 70
0
 62
7
  6
CONTINUOUS
370
-3
390
F
  0
LAYER
  5
1FE
100
AcDbSymbolTableRecord
100
AcDbLayerTableRecord
  2
01_1_DEFAULT_DATUMS
 70
0
 62
7
  6
CONTINUOUS
370
-3
390
F
  0
LAYER
  5
1FF
100
AcDbSymbolTableRecord
100
AcDbLayerTableRecord
  2
01_PLANES
 70
0
 62
7
  6
CONTINUOUS
370
-3
390
F
  0
LAYER
  5
200
100
AcDbSymbolTableRecord
100
AcDbLayerTableRecord
  2
02_COORD_SYS
 70
0
 62
7
  6
CONTINUOUS
370
-3
390
F
  0
LAYER
  5
201
100
AcDbSymbolTableRecord
100
AcDbLayerTableRecord
  2
03_AXES
 70
0
 62
7
  6
CONTINUOUS
370
-3
390
F
  0
LAYER
  5
202
100
AcDbSymbolTableRecord
100
AcDbLayerTableRecord
  2
04_POINTS
 70
0
 62
7
  6
CONTINUOUS
370
-3
390
F
  0
LAYER
  5
203
100
AcDbSymbolTableRecord
100
AcDbLayerTableRecord
  2
05_CURVES
 70
0
 62
7
  6
CONTINUOUS
370
-3
390
F
  0
LAYER
  5
204
100
AcDbSymbolTableRecord
100
AcDbLayerTableRecord
  2
06_SURFS
 70
0
 62
7
  6
CONTINUOUS
370
-3
390
F
  0
LAYER
  5
205
100
AcDbSymbolTableRecord
100
AcDbLayerTableRecord
  2
07_COSMETICS
 70
0
 62
7
  6
CONTINUOUS
370
-3
390
F
  0
LAYER
  5
206
100
AcDbSymbolTableRecord
100
AcDbLayerTableRecord
  2
10_NOTES
 70
0
 62
7
  6
CONTINUOUS
370
-3
390
F
  0
LAYER
  5
207
100
AcDbSymbolTableRecord
100
AcDbLayerTableRecord
  2
11_NOTES_PUB
 70
0
 62
7
  6
CONTINUOUS
370
-3
390
F
  0
LAYER
  5
208
100
AcDbSymbolTableRecord
100
AcDbLayerTableRecord
  2
13_REF_GTOL
 70
0
 62
7
  6
CONTINUOUS
370
-3
390
F
  0
LAYER
  5
209
100
AcDbSymbolTableRecord
100
AcDbLayerTableRecord
  2
16_MISC
 70
0
 62
7
  6
CONTINUOUS
370
-3
390
F
  0
LAYER
  5
20A
100
AcDbSymbolTableRecord
100
AcDbLayerTableRecord
  2
17_NO_PRINT
 70
0
 62
7
  6
CONTINUOUS
370
-3
390
F
  0
LAYER
  5
20B
100
AcDbSymbolTableRecord
100
AcDbLayerTableRecord
  2
18_DATUM_CAMS_JOINTS
 70
0
 62
7
  6
CONTINUOUS
370
-3
390
F
  0
LAYER
  5
20C
100
AcDbSymbolTableRecord
100
AcDbLayerTableRecord
  2
19_DATUM_FUNCTIONAL
 70
0
 62
7
  6
CONTINUOUS
370
-3
390
F
  0
LAYER
  5
20D
100
AcDbSymbolTableRecord
100
AcDbLayerTableRecord
  2
20_DATUM_KINEMATIC_SCHEME
 70
0
 62
7
  6
CONTINUOUS
370
-3
390
F
  0
ENDTAB
  0
TABLE
  2
STYLE
  5
3
100
AcDbSymbolTable
 70
1
  0
STYLE
  5
11
100
AcDbSymbolTableRecord
100
AcDbTextStyleTableRecord
  2
STANDARD
 70
0
 40
0.0
 41
0.8
 50
0.0
 71
0
 42
0.2
  3
txt
  4

  0
STYLE
  5
20E
100
AcDbSymbolTableRecord
100
AcDbTextStyleTableRecord
  2
TEXTSTYLE_1
 70
0
 40
0.0
 41
0.8
 50
0.0
 71
0
 42
0.2
  3
gdt
  4

  0
ENDTAB
  0
TABLE
  2
VIEW
  5
6
100
AcDbSymbolTable
 70
0
  0
ENDTAB
  0
TABLE
  2
UCS
  5
7
100
AcDbSymbolTable
 70
0
  0
ENDTAB
  0
TABLE
  2
APPID
  5
9
100
AcDbSymbolTable
 70
1
  0
APPID
  5
20F
100
AcDbSymbolTableRecord
100
AcDbRegAppTableRecord
  2
ACAD
 70
0
  0
ENDTAB
  0
TABLE
  2
BLOCK_RECORD
  5
1
100
AcDbSymbolTable
 70
0
  0
BLOCK_RECORD
  5
210
100
AcDbSymbolTableRecord
100
AcDbBlockTableRecord
  2
*Model_Space
  0
BLOCK_RECORD
  5
211
100
AcDbSymbolTableRecord
100
AcDbBlockTableRecord
  2
*Paper_Space
  0
BLOCK_RECORD
  5
212
100
AcDbSymbolTableRecord
100
AcDbBlockTableRecord
  2
_FILLED
  0
ENDTAB
  0
TABLE
  2
DIMSTYLE
  5
A
100
AcDbSymbolTable
 70
1
100
AcDbDimStyleTable
 71
0
  0
DIMSTYLE
105
213
100
AcDbSymbolTableRecord
100
AcDbDimStyleTableRecord
  2
STANDARD
 70
0
  3

  4

 40
1.0
 41
1.2201314217
 42
1.0
 43
0.38
 44
1.0
 45
0.0
 46
0.0
 47
0.01
 48
0.01
140
1.7081839904
141
0.09
142
0.0
143
25.4
144
1.0
145
0.0
146
1.0
147
0.625
 71
1
 72
0
 73
0
 74
0
 75
0
 76
0
 77
1
 78
8
 79
2
170
0
171
1
172
0
173
0
174
0
175
0
176
0
177
0
178
0
270
2
179
2
271
2
272
2
273
2
274
2
275
0
280
0
281
0
282
0
283
1
284
8
285
0
286
0
287
3
288
0
340
11
278
46
341
212
342
212
343
212
344
212
  0
ENDTAB
  0
ENDSEC
  0
SECTION
  2
BLOCKS
  0
BLOCK
  5
20
100
AcDbEntity
  8
0
100
AcDbBlockBegin
  2
*Model_Space
 70
0
 10
0.0
 20
0.0
 30
0.0
  3
*Model_Space
  1

  0
ENDBLK
  5
21
100
AcDbEntity
  8
0
100
AcDbBlockEnd
  0
BLOCK
  5
1C
100
AcDbEntity
  8
0
100
AcDbBlockBegin
  2
*Paper_Space
 70
0
 10
0.0
 20
0.0
 30
0.0
  3
*Paper_Space
  1

  0
ENDBLK
  5
1D
100
AcDbEntity
  8
0
100
AcDbBlockEnd
  0
BLOCK
  5
214
100
AcDbEntity
  8
0
100
AcDbBlockBegin
  2
_FILLED
 70
64
 10
0.0
 20
0.0
  3
_FILLED
  1

  0
SOLID
  5
215
100
AcDbEntity
  8
0
  6
BYBLOCK
 62
0
100
AcDbTrace
 10
0.0
 20
0.0
 11
-1.0
 21
0.25
 12
-1.0
 22
-0.25
 13
-1.0
 23
-0.25
  0
ENDBLK
  5
216
100
AcDbEntity
  8
0
  6
BYBLOCK
 62
0
100
AcDbBlockEnd
  0
ENDSEC
  0
SECTION
  2
ENTITIES
  0
LINE
  5
217
100
AcDbEntity
  8
0
100
AcDbLine
 62
7
  6
CONTINUOUS
 10
78.8826164875
 20
11.9758064516
 11
26.4826164875
 21
11.9758064516
  0
LINE
  5
218
100
AcDbEntity
  8
0
100
AcDbLine
 62
7
  6
CONTINUOUS
 10
35.8826164875
 20
14.5758064516
 11
69.4826164875
 21
14.5758064516
  0
LINE
  5
219
100
AcDbEntity
  8
0
100
AcDbLine
 62
7
  6
CONTINUOUS
 10
35.8826164875
 20
14.5758064516
 11
22.2826164875
 21
28.1758064516
  0
LINE
  5
21A
100
AcDbEntity
  8
0
100
AcDbLine
 62
7
  6
CONTINUOUS
 10
18.5826164875
 20
92.2258155858
 11
18.5826164875
 21
101.7257973174
  0
LINE
  5
21B
100
AcDbEntity
  8
0
100
AcDbLine
 62
7
  6
CONTINUOUS
 10
19.6826164875
 20
18.7758064516
 11
19.6826164875
 21
71.1758064516
  0
LINE
  5
21C
100
AcDbEntity
  8
0
100
AcDbLine
 62
7
  6
CONTINUOUS
 10
39.1826164875
 20
102.7493091435
 11
34.1826164875
 21
99.8625577976
  0
LINE
  5
21D
100
AcDbEntity
  8
0
100
AcDbLine
 62
7
  6
CONTINUOUS
 10
22.0826164875
 20
82.3758064516
 11
22.0826164875
 21
112.4758064516
  0
LINE
  5
21E
100
AcDbEntity
  8
0
100
AcDbLine
 62
7
  6
CONTINUOUS
 10
22.2826164875
 20
61.7758064516
 11
22.2826164875
 21
28.1758064516
  0
LINE
  5
21F
100
AcDbEntity
  8
0
100
AcDbLine
 62
7
  6
CONTINUOUS
 10
24.0826164875
 20
115.9758064516
 11
24.0826164875
 21
77.3792290896
  0
LINE
  5
220
100
AcDbEntity
  8
0
100
AcDbLine
 62
7
  6
CONTINUOUS
 10
24.1826164875
 20
81.5758064516
 11
24.1826164875
 21
77.4274823113
  0
LINE
  5
221
100
AcDbEntity
  8
0
100
AcDbLine
 62
7
  6
CONTINUOUS
 10
24.5826164875
 20
114.5758064516
 11
24.5826164875
 21
112.9758064516
  0
LINE
  5
222
100
AcDbEntity
  8
0
100
AcDbLine
 62
7
  6
CONTINUOUS
 10
27.0826164875
 20
81.6758064516
 11
27.0826164875
 21
112.9758064516
  0
LINE
  5
223
100
AcDbEntity
  8
0
100
AcDbLine
 62
7
  6
CONTINUOUS
 10
27.5826164875
 20
115.9758064516
 11
27.5826164875
 21
115.3758101564
  0
LINE
  5
224
100
AcDbEntity
  8
0
100
AcDbLine
 62
7
  6
CONTINUOUS
 10
28.8826164875
 20
112.4758064516
 11
28.8826164875
 21
87.1758064516
  0
LINE
  5
225
100
AcDbEntity
  8
0
100
AcDbLine
 62
7
  6
CONTINUOUS
 10
29.0826164875
 20
115.9758064516
 11
29.0826164875
 21
118.4758064516
  0
LINE
  5
226
100
AcDbEntity
  8
0
100
AcDbLine
 62
7
  6
CONTINUOUS
 10
47.6826164875
 20
99.8625577976
 11
52.6826164875
 21
102.7493091435
  0
LINE
  5
227
100
AcDbEntity
  8
0
100
AcDbLine
 62
7
  6
CONTINUOUS
 10
39.1826164875
 20
91.2023037597
 11
44.1826164875
 21
94.0890551057
  0
LINE
  5
228
100
AcDbEntity
  8
0
100
AcDbLine
 62
7
  6
CONTINUOUS
 10
30.0169230568
 20
115.9758064516
 11
30.0169230568
 21
118.4758064516
  0
LINE
  5
229
100
AcDbEntity
  8
0
100
AcDbLine
 62
7
  6
CONTINUOUS
 10
30.0826164875
 20
118.4758064516
 11
30.0826164875
 21
120.0758064516
  0
LINE
  5
22A
100
AcDbEntity
  8
0
100
AcDbLine
 62
7
  6
CONTINUOUS
 10
30.5826164875
 20
115.9758064516
 11
30.5826164875
 21
112.9758064516
  0
LINE
  5
22B
100
AcDbEntity
  8
0
100
AcDbLine
 62
7
  6
CONTINUOUS
 10
33.1826164875
 20
120.8665924682
 11
33.1826164875
 21
121.9758064516
  0
LINE
  5
22C
100
AcDbEntity
  8
0
100
AcDbLine
 62
7
  6
CONTINUOUS
 10
34.1826164875
 20
94.0890551057
 11
34.1826164875
 21
99.8625577976
  0
LINE
  5
22D
100
AcDbEntity
  8
0
100
AcDbLine
 62
7
  6
CONTINUOUS
 10
61.1826164875
 20
99.8625577976
 11
66.1826164875
 21
102.7493091435
  0
LINE
  5
22E
100
AcDbEntity
  8
0
100
AcDbLine
 62
7
  6
CONTINUOUS
 10
34.6826164875
 20
121.9758064516
 11
34.6826164875
 21
131.9758064516
  0
LINE
  5
22F
100
AcDbEntity
  8
0
100
AcDbLine
 62
7
  6
CONTINUOUS
 10
35.4326164875
 20
131.9758064516
 11
35.4326164875
 21
132.9758064516
  0
LINE
  5
230
100
AcDbEntity
  8
0
100
AcDbLine
 62
7
  6
CONTINUOUS
 10
36.0826164875
 20
120.0758064516
 11
36.0826164875
 21
118.4758064516
  0
LINE
  5
231
100
AcDbEntity
  8
0
100
AcDbLine
 62
7
  6
CONTINUOUS
 10
37.0826164875
 20
128.4758064516
 11
37.0826164875
 21
115.9758064516
  0
LINE
  5
232
100
AcDbEntity
  8
0
100
AcDbLine
 62
7
  6
CONTINUOUS
 10
38.5826164875
 20
128.4758064516
 11
38.5826164875
 21
118.4758064516
  0
LINE
  5
233
100
AcDbEntity
  8
0
100
AcDbLine
 62
7
  6
CONTINUOUS
 10
22.2826164875
 20
61.7758064516
 11
35.8826164875
 21
75.3758064516
  0
LINE
  5
234
100
AcDbEntity
  8
0
100
AcDbLine
 62
7
  6
CONTINUOUS
 10
57.6826164875
 20
94.0890551057
 11
52.6826164875
 21
91.2023037597
  0
LINE
  5
235
100
AcDbEntity
  8
0
100
AcDbLine
 62
7
  6
CONTINUOUS
 10
71.1826164875
 20
94.0890551057
 11
66.1826164875
 21
91.2023037597
  0
LINE
  5
236
100
AcDbEntity
  8
0
100
AcDbLine
 62
7
  6
CONTINUOUS
 10
44.1826164875
 20
99.8625577976
 11
44.1826164875
 21
94.0890551057
  0
LINE
  5
237
100
AcDbEntity
  8
0
100
AcDbLine
 62
7
  6
CONTINUOUS
 10
45.9326164875
 20
131.9758064516
 11
45.9326164875
 21
132.9758064516
  0
LINE
  5
238
100
AcDbEntity
  8
0
100
AcDbLine
 62
7
  6
CONTINUOUS
 10
46.6826164875
 20
128.4758064516
 11
46.6826164875
 21
131.9758064516
  0
LINE
  5
239
100
AcDbEntity
  8
0
100
AcDbLine
 62
7
  6
CONTINUOUS
 10
47.6826164875
 20
94.0890551057
 11
47.6826164875
 21
99.8625577976
  0
LINE
  5
23A
100
AcDbEntity
  8
0
100
AcDbLine
 62
7
  6
CONTINUOUS
 10
51.5826164875
 20
128.4758064516
 11
51.5826164875
 21
118.4758064516
  0
LINE
  5
23B
100
AcDbEntity
  8
0
100
AcDbLine
 62
7
  6
CONTINUOUS
 10
53.0826164875
 20
128.4758064516
 11
53.0826164875
 21
115.9758064516
  0
LINE
  5
23C
100
AcDbEntity
  8
0
100
AcDbLine
 62
7
  6
CONTINUOUS
 10
54.0826164875
 20
118.4758064516
 11
54.0826164875
 21
120.0758064516
  0
LINE
  5
23D
100
AcDbEntity
  8
0
100
AcDbLine
 62
7
  6
CONTINUOUS
 10
57.1826164875
 20
120.8665924682
 11
57.1826164875
 21
121.4758064516
  0
LINE
  5
23E
100
AcDbEntity
  8
0
100
AcDbLine
 62
7
  6
CONTINUOUS
 10
69.4826164875
 20
75.3758064516
 11
35.8826164875
 21
75.3758064516
  0
LINE
  5
23F
100
AcDbEntity
  8
0
100
AcDbLine
 62
7
  6
CONTINUOUS
 10
57.528061549
 20
120.8347632175
 11
57.528061549
 21
121.4758064516
  0
LINE
  5
240
100
AcDbEntity
  8
0
100
AcDbLine
 62
7
  6
CONTINUOUS
 10
57.6826164875
 20
94.0890551057
 11
57.6826164875
 21
99.8625577976
  0
LINE
  5
241
100
AcDbEntity
  8
0
100
AcDbLine
 62
7
  6
CONTINUOUS
 10
57.9326164875
 20
121.4758064516
 11
57.9326164875
 21
127.9758064516
  0
LINE
  5
242
100
AcDbEntity
  8
0
100
AcDbLine
 62
7
  6
CONTINUOUS
 10
59.1618211154
 20
121.4758064516
 11
59.1618211154
 21
127.9758064516
  0
LINE
  5
243
100
AcDbEntity
  8
0
100
AcDbLine
 62
7
  6
CONTINUOUS
 10
60.0826164875
 20
120.0758064516
 11
60.0826164875
 21
118.4758064516
  0
LINE
  5
244
100
AcDbEntity
  8
0
100
AcDbLine
 62
7
  6
CONTINUOUS
 10
60.1483099181
 20
118.4758064516
 11
60.1483099181
 21
115.9758064516
  0
LINE
  5
245
100
AcDbEntity
  8
0
100
AcDbLine
 62
7
  6
CONTINUOUS
 10
60.6826164875
 20
127.9758064516
 11
60.6826164875
 21
129.9758064516
  0
LINE
  5
246
100
AcDbEntity
  8
0
100
AcDbLine
 62
7
  6
CONTINUOUS
 10
60.7988916698
 20
127.9758064516
 11
60.7988916698
 21
121.4758064516
  0
LINE
  5
247
100
AcDbEntity
  8
0
100
AcDbLine
 62
7
  6
CONTINUOUS
 10
61.0826164875
 20
115.9758064516
 11
61.0826164875
 21
118.4758064516
  0
LINE
  5
248
100
AcDbEntity
  8
0
100
AcDbLine
 62
7
  6
CONTINUOUS
 10
61.1826164875
 20
94.0890551057
 11
61.1826164875
 21
99.8625577976
  0
LINE
  5
249
100
AcDbEntity
  8
0
100
AcDbLine
 62
7
  6
CONTINUOUS
 10
26.4826164875
 20
77.9758064516
 11
78.8826164875
 21
77.9758064516
  0
LINE
  5
24A
100
AcDbEntity
  8
0
100
AcDbLine
 62
7
  6
CONTINUOUS
 10
68.6826164875
 20
78.2758064516
 11
36.6826164875
 21
78.2758064516
  0
LINE
  5
24B
100
AcDbEntity
  8
0
100
AcDbLine
 62
7
  6
CONTINUOUS
 10
81.1826164875
 20
81.5758064516
 11
24.1826164875
 21
81.5758064516
  0
LINE
  5
24C
100
AcDbEntity
  8
0
100
AcDbLine
 62
7
  6
CONTINUOUS
 10
81.2826164875
 20
81.6758064516
 11
24.0826164875
 21
81.6758064516
  0
LINE
  5
24D
100
AcDbEntity
  8
0
100
AcDbLine
 62
7
  6
CONTINUOUS
 10
34.1826164875
 20
94.0890551057
 11
39.1826164875
 21
91.2023037597
  0
LINE
  5
24E
100
AcDbEntity
  8
0
100
AcDbLine
 62
7
  6
CONTINUOUS
 10
62.4326512362
 20
121.4758064516
 11
62.4326512362
 21
118.9758064516
  0
LINE
  5
24F
100
AcDbEntity
  8
0
100
AcDbLine
 62
7
  6
CONTINUOUS
 10
63.9575337051
 20
118.9758064516
 11
63.9575337051
 21
115.9758064516
  0
LINE
  5
250
100
AcDbEntity
  8
0
100
AcDbLine
 62
7
  6
CONTINUOUS
 10
65.4076992698
 20
115.9758064516
 11
65.4076992698
 21
118.9758064516
  0
LINE
  5
251
100
AcDbEntity
  8
0
100
AcDbLine
 62
7
  6
CONTINUOUS
 10
22.0826164875
 20
82.3758064516
 11
24.0826164875
 21
82.3758064516
  0
LINE
  5
252
100
AcDbEntity
  8
0
100
AcDbLine
 62
7
  6
CONTINUOUS
 10
33.6826164875
 20
82.3758064516
 11
71.6826164875
 21
82.3758064516
  0
LINE
  5
253
100
AcDbEntity
  8
0
100
AcDbLine
 62
7
  6
CONTINUOUS
 10
18.5826164875
 20
92.2258064516
 11
22.0826164875
 21
91.6086620191
  0
LINE
  5
254
100
AcDbEntity
  8
0
100
AcDbLine
 62
7
  6
CONTINUOUS
 10
69.4826164875
 20
75.3758064516
 11
83.0826164875
 21
61.7758064516
  0
LINE
  5
255
100
AcDbEntity
  8
0
100
AcDbLine
 62
7
  6
CONTINUOUS
 10
68.6826164875
 20
127.9758064516
 11
68.6826164875
 21
129.9758064516
  0
LINE
  5
256
100
AcDbEntity
  8
0
100
AcDbLine
 62
7
  6
CONTINUOUS
 10
70.0826164875
 20
119.4758064516
 11
70.0826164875
 21
115.9758064516
  0
LINE
  5
257
100
AcDbEntity
  8
0
100
AcDbLine
 62
7
  6
CONTINUOUS
 10
71.1826164875
 20
94.0890551057
 11
71.1826164875
 21
99.8625577976
  0
LINE
  5
258
100
AcDbEntity
  8
0
100
AcDbLine
 62
7
  6
CONTINUOUS
 10
24.0826164875
 20
87.1758064516
 11
22.0826164875
 21
87.1758064516
  0
LINE
  5
259
100
AcDbEntity
  8
0
100
AcDbLine
 62
7
  6
CONTINUOUS
 10
39.1826164875
 20
89.9758064516
 11
66.1826164875
 21
89.9758064516
  0
LINE
  5
25A
100
AcDbEntity
  8
0
100
AcDbLine
 62
7
  6
CONTINUOUS
 10
52.6826164875
 20
91.2023037597
 11
47.6826164875
 21
94.0890551057
  0
LINE
  5
25B
100
AcDbEntity
  8
0
100
AcDbLine
 62
7
  6
CONTINUOUS
 10
71.4326164875
 20
121.4758064516
 11
71.4326164875
 21
127.9758064516
  0
LINE
  5
25C
100
AcDbEntity
  8
0
100
AcDbLine
 62
7
  6
CONTINUOUS
 10
72.1826164875
 20
120.3120514297
 11
72.1826164875
 21
121.4758064516
  0
LINE
  5
25D
100
AcDbEntity
  8
0
100
AcDbLine
 62
7
  6
CONTINUOUS
 10
74.7826164875
 20
115.9758064516
 11
74.7826164875
 21
112.9758064516
  0
LINE
  5
25E
100
AcDbEntity
  8
0
100
AcDbLine
 62
7
  6
CONTINUOUS
 10
44.1826164875
 20
99.8625577976
 11
39.1826164875
 21
102.7493091435
  0
LINE
  5
25F
100
AcDbEntity
  8
0
100
AcDbLine
 62
7
  6
CONTINUOUS
 10
66.1826164875
 20
91.2023037597
 11
61.1826164875
 21
94.0890551057
  0
LINE
  5
260
100
AcDbEntity
  8
0
100
AcDbLine
 62
7
  6
CONTINUOUS
 10
76.4826164875
 20
87.1758064516
 11
76.4826164875
 21
112.4758064516
  0
LINE
  5
261
100
AcDbEntity
  8
0
100
AcDbLine
 62
7
  6
CONTINUOUS
 10
77.7826164875
 20
115.3758064516
 11
77.7826164875
 21
115.9758064516
  0
LINE
  5
262
100
AcDbEntity
  8
0
100
AcDbLine
 62
7
  6
CONTINUOUS
 10
78.0826164875
 20
119.4758064516
 11
78.0826164875
 21
115.9758064516
  0
LINE
  5
263
100
AcDbEntity
  8
0
100
AcDbLine
 62
7
  6
CONTINUOUS
 10
78.2826164875
 20
112.9758064516
 11
78.2826164875
 21
81.6758064516
  0
LINE
  5
264
100
AcDbEntity
  8
0
100
AcDbLine
 62
7
  6
CONTINUOUS
 10
52.6826164875
 20
102.7493091435
 11
57.6826164875
 21
99.8625577976
  0
LINE
  5
265
100
AcDbEntity
  8
0
100
AcDbLine
 62
7
  6
CONTINUOUS
 10
80.7826164875
 20
114.5758064516
 11
80.7826164875
 21
112.9758064516
  0
LINE
  5
266
100
AcDbEntity
  8
0
100
AcDbLine
 62
7
  6
CONTINUOUS
 10
81.1826164875
 20
77.4274823113
 11
81.1826164875
 21
81.5758064516
  0
LINE
  5
267
100
AcDbEntity
  8
0
100
AcDbLine
 62
7
  6
CONTINUOUS
 10
81.2826164875
 20
77.3792290896
 11
81.2826164875
 21
115.9758064516
  0
LINE
  5
268
100
AcDbEntity
  8
0
100
AcDbLine
 62
7
  6
CONTINUOUS
 10
83.0826164875
 20
28.1758064516
 11
83.0826164875
 21
61.7758064516
  0
LINE
  5
269
100
AcDbEntity
  8
0
100
AcDbLine
 62
7
  6
CONTINUOUS
 10
66.1826164875
 20
103.9758064516
 11
39.1826164875
 21
103.9758064516
  0
LINE
  5
26A
100
AcDbEntity
  8
0
100
AcDbLine
 62
7
  6
CONTINUOUS
 10
85.6826164875
 20
71.1758064516
 11
85.6826164875
 21
18.7758064516
  0
LINE
  5
26B
100
AcDbEntity
  8
0
100
AcDbLine
 62
7
  6
CONTINUOUS
 10
18.5826164875
 20
101.7258064516
 11
22.0826164875
 21
102.3429508841
  0
LINE
  5
26C
100
AcDbEntity
  8
0
100
AcDbLine
 62
7
  6
CONTINUOUS
 10
81.2826164875
 20
109.9758064516
 11
76.4826164875
 21
109.9758064516
  0
LINE
  5
26D
100
AcDbEntity
  8
0
100
AcDbLine
 62
7
  6
CONTINUOUS
 10
28.8826164875
 20
109.9758064516
 11
24.0826164875
 21
109.9758064516
  0
LINE
  5
26E
100
AcDbEntity
  8
0
100
AcDbLine
 62
7
  6
CONTINUOUS
 10
66.1826164875
 20
102.7493091435
 11
71.1826164875
 21
99.8625577976
  0
LINE
  5
26F
100
AcDbEntity
  8
0
100
AcDbLine
 62
7
  6
CONTINUOUS
 10
76.4826164875
 20
112.4758064516
 11
28.8826164875
 21
112.4758064516
  0
LINE
  5
270
100
AcDbEntity
  8
0
100
AcDbLine
 62
7
  6
CONTINUOUS
 10
22.0826164875
 20
112.4758064516
 11
24.0826164875
 21
112.4758064516
  0
LINE
  5
271
100
AcDbEntity
  8
0
100
AcDbLine
 62
7
  6
CONTINUOUS
 10
24.0826164875
 20
112.9758064516
 11
30.5826164875
 21
112.9758064516
  0
LINE
  5
272
100
AcDbEntity
  8
0
100
AcDbLine
 62
7
  6
CONTINUOUS
 10
74.7826164875
 20
112.9758064516
 11
81.2826164875
 21
112.9758064516
  0
LINE
  5
273
100
AcDbEntity
  8
0
100
AcDbLine
 62
7
  6
CONTINUOUS
 10
24.5826164875
 20
114.5758064516
 11
30.5826164875
 21
114.5758064516
  0
LINE
  5
274
100
AcDbEntity
  8
0
100
AcDbLine
 62
7
  6
CONTINUOUS
 10
74.7826164875
 20
114.5758064516
 11
80.7826164875
 21
114.5758064516
  0
LINE
  5
275
100
AcDbEntity
  8
0
100
AcDbLine
 62
7
  6
CONTINUOUS
 10
77.7892841421
 20
115.3758101564
 11
77.7759488328
 21
115.3758101564
  0
LINE
  5
276
100
AcDbEntity
  8
0
100
AcDbLine
 62
7
  6
CONTINUOUS
 10
27.5892841421
 20
115.3758101564
 11
27.5759488328
 21
115.3758101564
  0
LINE
  5
277
100
AcDbEntity
  8
0
100
AcDbLine
 62
7
  6
CONTINUOUS
 10
24.0826164875
 20
115.9758064516
 11
81.2826164875
 21
115.9758064516
  0
LINE
  5
278
100
AcDbEntity
  8
0
100
AcDbLine
 62
7
  6
CONTINUOUS
 10
29.0826289093
 20
118.4758064516
 11
61.0826040656
 21
118.4758064516
  0
LINE
  5
279
100
AcDbEntity
  8
0
100
AcDbLine
 62
7
  6
CONTINUOUS
 10
36.0826164875
 20
118.9758064516
 11
37.0826164875
 21
118.9758064516
  0
LINE
  5
27A
100
AcDbEntity
  8
0
100
AcDbLine
 62
7
  6
CONTINUOUS
 10
60.0826164875
 20
118.9758064516
 11
70.0826164875
 21
118.9758064516
  0
LINE
  5
27B
100
AcDbEntity
  8
0
100
AcDbLine
 62
7
  6
CONTINUOUS
 10
70.0826164875
 20
119.4758064516
 11
78.0826164875
 21
119.4758064516
  0
LINE
  5
27C
100
AcDbEntity
  8
0
100
AcDbLine
 62
7
  6
CONTINUOUS
 10
30.0826164875
 20
120.0758064516
 11
36.0826164875
 21
120.0758064516
  0
LINE
  5
27D
100
AcDbEntity
  8
0
100
AcDbLine
 62
7
  6
CONTINUOUS
 10
54.0826164875
 20
120.0758064516
 11
60.0826164875
 21
120.0758064516
  0
LINE
  5
27E
100
AcDbEntity
  8
0
100
AcDbLine
 62
7
  6
CONTINUOUS
 10
74.0888671762
 20
120.5758089562
 11
74.0763657987
 21
120.5758089562
  0
LINE
  5
27F
100
AcDbEntity
  8
0
100
AcDbLine
 62
7
  6
CONTINUOUS
 10
57.182816545
 20
121.4758064516
 11
59.1618211154
 21
121.4758064516
  0
LINE
  5
280
100
AcDbEntity
  8
0
100
AcDbLine
 62
7
  6
CONTINUOUS
 10
60.7988916698
 20
121.4758064516
 11
72.1824164299
 21
121.4758064516
  0
LINE
  5
281
100
AcDbEntity
  8
0
100
AcDbLine
 62
7
  6
CONTINUOUS
 10
33.1826309024
 20
121.9758064516
 11
37.0826164875
 21
121.9758064516
  0
LINE
  5
282
100
AcDbEntity
  8
0
100
AcDbLine
 62
7
  6
CONTINUOUS
 10
83.0826164875
 20
28.1758064516
 11
69.4826164875
 21
14.5758064516
  0
LINE
  5
283
100
AcDbEntity
  8
0
100
AcDbLine
 62
7
  6
CONTINUOUS
 10
57.9326418008
 20
127.9758064516
 11
71.4325911741
 21
127.9758064516
  0
LINE
  5
284
100
AcDbEntity
  8
0
100
AcDbLine
 62
7
  6
CONTINUOUS
 10
37.0826164875
 20
128.4758064516
 11
53.0826164875
 21
128.4758064516
  0
LINE
  5
285
100
AcDbEntity
  8
0
100
AcDbLine
 62
7
  6
CONTINUOUS
 10
60.6826286153
 20
129.9758064516
 11
68.6826043596
 21
129.9758064516
  0
LINE
  5
286
100
AcDbEntity
  8
0
100
AcDbLine
 62
7
  6
CONTINUOUS
 10
34.6828489217
 20
131.9758064516
 11
46.6823840532
 21
131.9758064516
  0
LINE
  5
287
100
AcDbEntity
  8
0
100
AcDbLine
 62
7
  6
CONTINUOUS
 10
35.4328256782
 20
132.9758064516
 11
45.9324072968
 21
132.9758064516
  0
ARC
  5
288
100
AcDbEntity
  8
0
100
AcDbCircle
 62
7
  6
CONTINUOUS
 10
26.4826164875
 20
18.7758064516
 40
6.8
100
AcDbArc
 50
180.0
 51
270.0
  0
CIRCLE
  5
289
100
AcDbEntity
  8
0
100
AcDbCircle
 62
7
  6
CONTINUOUS
 10
26.6826164875
 20
70.9758064516
 40
2.2
  0
CIRCLE
  5
28A
100
AcDbEntity
  8
0
100
AcDbCircle
 62
7
  6
CONTINUOUS
 10
26.6826164875
 20
18.9758064516
 40
2.2
  0
ARC
  5
28B
100
AcDbEntity
  8
0
100
AcDbCircle
 62
7
  6
CONTINUOUS
 10
39.1826164875
 20
96.9758064516
 40
7.0
100
AcDbArc
 50
90.0
 51
270.0
  0
ARC
  5
28C
100
AcDbEntity
  8
0
100
AcDbCircle
 62
7
  6
CONTINUOUS
 10
26.4826164875
 20
71.1758064516
 40
6.8
100
AcDbArc
 50
90.0
 51
180.0
  0
ARC
  5
28D
100
AcDbEntity
  8
0
100
AcDbCircle
 62
7
  6
CONTINUOUS
 10
33.1292364133
 20
114.6759817297
 40
6.2
100
AcDbArc
 50
90.4308306716
 51
119.4320036847
  0
ARC
  5
28E
100
AcDbEntity
  8
0
100
AcDbCircle
 62
7
  6
CONTINUOUS
 10
33.0359965616
 20
114.6759817297
 40
6.2
100
AcDbArc
 50
60.5679963153
 51
89.5691693284
  0
ARC
  5
28F
100
AcDbEntity
  8
0
100
AcDbCircle
 62
7
  6
CONTINUOUS
 10
27.5759488328
 20
109.3758101564
 40
6.0
100
AcDbArc
 50
90.0
 51
119.9265057808
  0
ARC
  5
290
100
AcDbEntity
  8
0
100
AcDbCircle
 62
7
  6
CONTINUOUS
 10
27.5892841421
 20
109.3758101564
 40
6.0
100
AcDbArc
 50
60.0734942192
 51
90.0
  0
ARC
  5
291
100
AcDbEntity
  8
0
100
AcDbCircle
 62
7
  6
CONTINUOUS
 10
36.6826164875
 20
72.9758064516
 40
5.3
100
AcDbArc
 50
90.0
 51
105.6672986867
  0
ARC
  5
292
100
AcDbEntity
  8
0
100
AcDbCircle
 62
7
  6
CONTINUOUS
 10
33.6826164875
 20
87.1758064516
 40
4.8
100
AcDbArc
 50
180.0
 51
270.0
  0
CIRCLE
  5
293
100
AcDbEntity
  8
0
100
AcDbCircle
 62
7
  6
CONTINUOUS
 10
39.1826164875
 20
96.9758064516
 40
4.0
  0
CIRCLE
  5
294
100
AcDbEntity
  8
0
100
AcDbCircle
 62
7
  6
CONTINUOUS
 10
39.1826164875
 20
96.9758064516
 40
3.5
  0
CIRCLE
  5
295
100
AcDbEntity
  8
0
100
AcDbCircle
 62
7
  6
CONTINUOUS
 10
39.1826164875
 20
96.9758064516
 40
2.9
  0
CIRCLE
  5
296
100
AcDbEntity
  8
0
100
AcDbCircle
 62
7
  6
CONTINUOUS
 10
45.0826164875
 20
123.4758064516
 40
2.0
  0
CIRCLE
  5
297
100
AcDbEntity
  8
0
100
AcDbCircle
 62
7
  6
CONTINUOUS
 10
52.6826164875
 20
31.9758064516
 40
8.0
  0
ARC
  5
298
100
AcDbEntity
  8
0
100
AcDbCircle
 62
7
  6
CONTINUOUS
 10
78.8826164875
 20
18.7758064516
 40
6.8
100
AcDbArc
 50
270.0
 51
360.0
  0
CIRCLE
  5
299
100
AcDbEntity
  8
0
100
AcDbCircle
 62
7
  6
CONTINUOUS
 10
52.6826164875
 20
31.9758064516
 40
5.0
  0
CIRCLE
  5
29A
100
AcDbEntity
  8
0
100
AcDbCircle
 62
7
  6
CONTINUOUS
 10
78.6826164875
 20
70.9758064516
 40
2.2
  0
CIRCLE
  5
29B
100
AcDbEntity
  8
0
100
AcDbCircle
 62
7
  6
CONTINUOUS
 10
78.6826164875
 20
18.9758064516
 40
2.2
  0
ARC
  5
29C
100
AcDbEntity
  8
0
100
AcDbCircle
 62
7
  6
CONTINUOUS
 10
74.0763657987
 20
112.7758089562
 40
7.8
100
AcDbArc
 50
90.0
 51
120.7984176416
  0
ARC
  5
29D
100
AcDbEntity
  8
0
100
AcDbCircle
 62
7
  6
CONTINUOUS
 10
74.0888671762
 20
112.7758089562
 40
7.8
100
AcDbArc
 50
59.2015823584
 51
90.0
  0
ARC
  5
29E
100
AcDbEntity
  8
0
100
AcDbCircle
 62
7
  6
CONTINUOUS
 10
66.1826164875
 20
96.9758064516
 40
7.0
100
AcDbArc
 50
270.0
 51
90.0
  0
ARC
  5
29F
100
AcDbEntity
  8
0
100
AcDbCircle
 62
7
  6
CONTINUOUS
 10
78.8826164875
 20
71.1758064516
 40
6.8
100
AcDbArc
 50
0.0
 51
90.0
  0
ARC
  5
2A0
100
AcDbEntity
  8
0
100
AcDbCircle
 62
7
  6
CONTINUOUS
 10
57.1292364133
 20
114.6759817297
 40
6.2
100
AcDbArc
 50
90.4308306716
 51
119.4320036847
  0
ARC
  5
2A1
100
AcDbEntity
  8
0
100
AcDbCircle
 62
7
  6
CONTINUOUS
 10
57.0359965616
 20
114.6759817297
 40
6.2
100
AcDbArc
 50
60.5679963153
 51
89.5691693284
  0
ARC
  5
2A2
100
AcDbEntity
  8
0
100
AcDbCircle
 62
7
  6
CONTINUOUS
 10
77.7892841421
 20
109.3758101564
 40
6.0
100
AcDbArc
 50
60.0734942192
 51
90.0
  0
ARC
  5
2A3
100
AcDbEntity
  8
0
100
AcDbCircle
 62
7
  6
CONTINUOUS
 10
77.7759488328
 20
109.3758101564
 40
6.0
100
AcDbArc
 50
90.0
 51
119.9265057808
  0
ARC
  5
2A4
100
AcDbEntity
  8
0
100
AcDbCircle
 62
7
  6
CONTINUOUS
 10
68.6826164875
 20
72.9758064516
 40
5.3
100
AcDbArc
 50
74.3322093575
 51
90.0
  0
ARC
  5
2A5
100
AcDbEntity
  8
0
100
AcDbCircle
 62
7
  6
CONTINUOUS
 10
71.6826164875
 20
87.1758064516
 40
4.8
100
AcDbArc
 50
270.0
 51
360.0
  0
CIRCLE
  5
2A6
100
AcDbEntity
  8
0
100
AcDbCircle
 62
7
  6
CONTINUOUS
 10
66.1826164875
 20
96.9758064516
 40
4.75
  0
CIRCLE
  5
2A7
100
AcDbEntity
  8
0
100
AcDbCircle
 62
7
  6
CONTINUOUS
 10
52.6826164875
 20
96.9758064516
 40
4.75
  0
CIRCLE
  5
2A8
100
AcDbEntity
  8
0
100
AcDbCircle
 62
7
  6
CONTINUOUS
 10
66.1826164875
 20
96.9758064516
 40
3.5
  0
CIRCLE
  5
2A9
100
AcDbEntity
  8
0
100
AcDbCircle
 62
7
  6
CONTINUOUS
 10
52.6826164875
 20
96.9758064516
 40
3.5
  0
CIRCLE
  5
2AA
100
AcDbEntity
  8
0
100
AcDbCircle
 62
7
  6
CONTINUOUS
 10
66.1826164875
 20
96.9758064516
 40
3.0
  0
CIRCLE
  5
2AB
100
AcDbEntity
  8
0
100
AcDbCircle
 62
7
  6
CONTINUOUS
 10
52.6826164875
 20
96.9758064516
 40
3.0
  0
SPLINE
  5
2AC
100
AcDbEntity
  8
0
100
AcDbSpline
 62
7
  6
CONTINUOUS
 70
0
 71
3
 72
17
 73
13
 74
0
 42
0.0000001
 43
0.0000001
 44
0.0000000001
 40
0.0
 40
0.0
 40
0.0
 40
0.0
 40
0.1250282702
 40
0.2500557742
 40
0.3750811642
 40
0.5001006679
 40
0.6251008408
 40
0.7500417335
 40
0.8125567183
 40
0.875059797
 40
0.9375380589
 40
1.0
 40
1.0
 40
1.0
 40
1.0
 10
22.0807563794
 20
98.9258661444
 30
0.0
 10
21.9691445459
 20
98.871706998
 30
0.0
 10
21.7474372473
 20
98.7602167276
 30
0.0
 10
21.4209425494
 20
98.5813775206
 30
0.0
 10
21.1028147983
 20
98.3879484169
 30
0.0
 10
20.7967797754
 20
98.1756427075
 30
0.0
 10
20.5096308658
 20
97.9382870596
 30
0.0
 10
20.2961299962
 20
97.7113343265
 30
0.0
 10
20.1550743904
 20
97.5066955863
 30
0.0
 10
20.0701451071
 20
97.3403926558
 30
0.0
 10
20.0137662519
 20
97.1621159998
 30
0.0
 10
20.0004369424
 20
97.0377837173
 30
0.0
 10
20.0004369424
 20
96.9758064516
 30
0.0
  0
SPLINE
  5
2AD
100
AcDbEntity
  8
0
100
AcDbSpline
 62
7
  6
CONTINUOUS
 70
0
 71
3
 72
31
 73
27
 74
0
 42
0.0000001
 43
0.0000001
 44
0.0000000001
 40
0.0
 40
0.0
 40
0.0
 40
0.0
 40
0.0720406016
 40
0.1431364425
 40
0.2129296624
 40
0.2808352738
 40
0.3137903155
 40
0.3458403569
 40
0.3767175606
 40
0.4060572955
 40
0.4333838167
 40
0.4581686838
 40
0.4801362853
 40
0.4999940996
 40
0.5198526981
 40
0.5418222172
 40
0.566609025
 40
0.5939370291
 40
0.6232776845
 40
0.6541556593
 40
0.686206648
 40
0.7191624396
 40
0.7870689809
 40
0.8568627917
 40
0.9279590851
 40
1.0
 40
1.0
 40
1.0
 40
1.0
 10
22.080656655
 20
102.2809392206
 30
0.0
 10
21.9696429034
 20
102.2540039942
 30
0.0
 10
21.7495040909
 20
102.1986754725
 30
0.0
 10
21.4238058759
 20
102.1095380183
 30
0.0
 10
21.1069625659
 20
102.0133145031
 30
0.0
 10
20.8511103494
 20
101.9248216019
 30
0.0
 10
20.6551039372
 20
101.847266481
 30
0.0
 10
20.5158611005
 20
101.7861008137
 30
0.0
 10
20.3848570969
 20
101.7207838936
 30
0.0
 10
20.2648808324
 20
101.6506872278
 30
0.0
 10
20.1597652313
 20
101.5751540948
 30
0.0
 10
20.0746320921
 20
101.4934132682
 30
0.0
 10
20.0156676052
 20
101.4040744892
 30
0.0
 10
19.9931979675
 20
101.3058951973
 30
0.0
 10
20.0157008404
 20
101.2077213687
 30
0.0
 10
20.0746870666
 20
101.1183895208
 30
0.0
 10
20.1598371636
 20
101.0366544174
 30
0.0
 10
20.2649648799
 20
100.9611267064
 30
0.0
 10
20.3849492003
 20
100.8910340317
 30
0.0
 10
20.5159590458
 20
100.8257194907
 30
0.0
 10
20.6552076648
 20
100.7645572407
 30
0.0
 10
20.8512200702
 20
100.6870060175
 30
0.0
 10
21.1070770217
 20
100.5985159345
 30
0.0
 10
21.4239244171
 20
100.5022950997
 30
0.0
 10
21.7496255273
 20
100.4131601255
 30
0.0
 10
21.9697657707
 20
100.357832313
 30
0.0
 10
22.0807802221
 20
100.330897864
 30
0.0
  0
SPLINE
  5
2AE
100
AcDbEntity
  8
0
100
AcDbSpline
 62
7
  6
CONTINUOUS
 70
0
 71
3
 72
17
 73
13
 74
0
 42
0.0000001
 43
0.0000001
 44
0.0000000001
 40
0.0
 40
0.0
 40
0.0
 40
0.0
 40
0.1250282712
 40
0.2500557761
 40
0.3750811681
 40
0.500100676
 40
0.6251008584
 40
0.7500417717
 40
0.812556774
 40
0.8750598594
 40
0.9375381027
 40
1.0
 40
1.0
 40
1.0
 40
1.0
 10
22.0807552548
 20
95.0257473018
 30
0.0
 10
21.9691434736
 20
95.079906439
 30
0.0
 10
21.7474362749
 20
95.1913966806
 30
0.0
 10
21.4209417315
 20
95.3702358534
 30
0.0
 10
21.10281413
 20
95.5636649164
 30
0.0
 10
20.7967792525
 20
95.7759705892
 30
0.0
 10
20.5096304739
 20
96.0133262039
 30
0.0
 10
20.2961297082
 20
96.2402789232
 30
0.0
 10
20.1550741974
 20
96.4449176565
 30
0.0
 10
20.0701449904
 20
96.6112205445
 30
0.0
 10
20.0137662257
 20
96.789497088
 30
0.0
 10
20.0004369424
 20
96.9138292553
 30
0.0
 10
20.0004369424
 20
96.9758064516
 30
0.0
  0
SPLINE
  5
2AF
100
AcDbEntity
  8
0
100
AcDbSpline
 62
7
  6
CONTINUOUS
 70
0
 71
3
 72
31
 73
27
 74
0
 42
0.0000001
 43
0.0000001
 44
0.0000000001
 40
0.0
 40
0.0
 40
0.0
 40
0.0
 40
0.0720406016
 40
0.1431364425
 40
0.2129296624
 40
0.2808352738
 40
0.3137903155
 40
0.3458403569
 40
0.3767175606
 40
0.4060572955
 40
0.4333838167
 40
0.4581686838
 40
0.4801362853
 40
0.4999940996
 40
0.5198526981
 40
0.5418222172
 40
0.566609025
 40
0.5939370291
 40
0.6232776845
 40
0.6541556593
 40
0.686206648
 40
0.7191624396
 40
0.7870689809
 40
0.8568627917
 40
0.9279590851
 40
1.0
 40
1.0
 40
1.0
 40
1.0
 10
22.080656655
 20
93.6206851828
 30
0.0
 10
21.9696429034
 20
93.5937499564
 30
0.0
 10
21.7495040909
 20
93.5384214347
 30
0.0
 10
21.4238058759
 20
93.4492839804
 30
0.0
 10
21.1069625659
 20
93.3530604653
 30
0.0
 10
20.8511103494
 20
93.264567564
 30
0.0
 10
20.6551039372
 20
93.1870124432
 30
0.0
 10
20.5158611005
 20
93.1258467758
 30
0.0
 10
20.3848570969
 20
93.0605298557
 30
0.0
 10
20.2648808324
 20
92.99043319
 30
0.0
 10
20.1597652313
 20
92.914900057
 30
0.0
 10
20.0746320921
 20
92.8331592304
 30
0.0
 10
20.0156676052
 20
92.7438204513
 30
0.0
 10
19.9931979675
 20
92.6456411595
 30
0.0
 10
20.0157008404
 20
92.5474673308
 30
0.0
 10
20.0746870666
 20
92.4581354829
 30
0.0
 10
20.1598371636
 20
92.3764003796
 30
0.0
 10
20.2649648799
 20
92.3008726686
 30
0.0
 10
20.3849492003
 20
92.2307799938
 30
0.0
 10
20.5159590458
 20
92.1654654529
 30
0.0
 10
20.6552076648
 20
92.1043032028
 30
0.0
 10
20.8512200702
 20
92.0267519797
 30
0.0
 10
21.1070770217
 20
91.9382618967
 30
0.0
 10
21.4239244171
 20
91.8420410618
 30
0.0
 10
21.7496255273
 20
91.7529060876
 30
0.0
 10
21.9697657707
 20
91.6975782751
 30
0.0
 10
22.0807802221
 20
91.6706438262
 30
0.0
  0
ENDSEC
  0
SECTION
  2
OBJECTS
  0
DICTIONARY
  5
C
100
AcDbDictionary
280
0
281
1
  3
ACAD_GROUP
350
D
  3
ACAD_MLINESTYLE
350
17
  3
ACAD_LAYOUT
350
1A
  3
ACAD_PLOTSETTINGS
350
19
  3
ACAD_PLOTSTYLENAME
350
E
  0
DICTIONARY
  5
D
102
{ACAD_REACTORS
330
C
102
}
100
AcDbDictionary
280
0
281
1
  0
ACDBDICTIONARYWDFLT
  5
E
102
{ACAD_REACTORS
330
C
102
}
100
AcDbDictionary
281
1
  3
Normal
350
F
100
AcDbDictionaryWithDefault
340
F
  0
DICTIONARY
  5
17
102
{ACAD_REACTORS
330
C
102
}
100
AcDbDictionary
280
0
281
1
  3
Standard
350
18
  0
DICTIONARY
  5
19
102
{ACAD_REACTORS
330
C
102
}
100
AcDbDictionary
281
1
  0
DICTIONARY
  5
1A
102
{ACAD_REACTORS
330
C
102
}
100
AcDbDictionary
281
1
  3
Model
350
2B0
  3
Layout1
350
2B1
  0
ACDBPLACEHOLDER
  5
F
102
{ACAD_REACTORS
330
E
102
}
  0
MLINESTYLE
  5
18
102
{ACAD_REACTORS
330
17
102
}
100
AcDbMlineStyle
  2
STANDARD
 70
0
  3

 62
256
 51
90.0
 52
90.0
 71
2
 49
0.5
 62
256
  6
BYLAYER
 49
-0.5
 62
256
  6
BYLAYER
  0
LAYOUT
  5
2B0
102
{ACAD_REACTORS
330
1A
102
}
100
AcDbPlotSettings
  1

  2
none_device
  4

  6

 40
0.0
 41
0.0
 42
0.0
 43
0.0
 44
210.0
 45
297.0
 46
0.0
 47
0.0
 48
0.0
 49
0.0
140
0.0
141
0.0
142
1.0
143
1.0
 70
1024
 72
1
 73
0
 74
0
  7

 75
0
147
1.0
148
0.0
149
0.0
100
AcDbLayout
  1
Model
 70
0
 71
0
 10
0.0
 20
0.0
 11
210.0
 21
297.0
 12
0.0
 22
0.0
 32
0.0
 14
0.0
 24
0.0
 34
0.0
 15
0.0
 25
0.0
 35
0.0
146
0.0
 13
0.0
 23
0.0
 33
0.0
 16
1.0
 26
0.0
 36
0.0
 17
0.0
 27
1.0
 37
0.0
 76
0
330
210
345
0
346
0
  0
LAYOUT
  5
2B1
102
{ACAD_REACTORS
330
1A
102
}
100
AcDbPlotSettings
  1

  2
none_device
  4

  6

 40
0.0
 41
0.0
 42
0.0
 43
0.0
 44
210.0
 45
297.0
 46
0.0
 47
0.0
 48
0.0
 49
0.0
140
0.0
141
0.0
142
1.0
143
1.0
 70
0
 72
1
 73
0
 74
0
  7

 75
0
147
1.0
148
0.0
149
0.0
100
AcDbLayout
  1
Layout1
 70
0
 71
1
 10
0.0
 20
0.0
 11
210.0
 21
297.0
 12
0.0
 22
0.0
 32
0.0
 14
0.0
 24
0.0
 34
0.0
 15
0.0
 25
0.0
 35
0.0
146
0.0
 13
0.0
 23
0.0
 33
0.0
 16
1.0
 26
0.0
 36
0.0
 17
0.0
 27
1.0
 37
0.0
 76
0
330
211
345
0
346
0
  0
ENDSEC
  0
EOF
