999
DXF file: C:\Users\sesa63760\Dev\_Creo\CAD\MCADFD0002483_3D-CAD\drw0001_1.dxf
999
Pro/ENGINEER 2019471 by Parametric Technology Corporation
  0
SECTION
  2
HEADER
  9
$ACADVER
  1
AC1024
  9
$DWGCODEPAGE
  3
ANSI_1252
  9
$EXTMAX
 10
121.5907883034
 20
171.9641148862
 30
0.0
  9
$EXTMIN
 10
0.0
 20
0.0
 30
0.0
  9
$LIMMIN
 10
0.0
 20
0.0
  9
$LIMMAX
 10
121.5907883034
 20
171.9641148862
  9
$VIEWCTR
 10
60.7953941517
 20
85.9820574431
  9
$VIEWSIZE
 40
171.9641148862
  9
$CLAYER
  8
0
  9
$LTSCALE
 40
11.2095126741
  9
$CELTYPE
  6
BYLAYER
  9
$DIMSCALE
 40
1.0
  9
$DIMASZ
 40
1.4475093846
  9
$DIMEXO
 40
1.0
  9
$DIMDLI
 40
7.7447542112
  9
$DIMEXE
 40
1.0
  9
$DIMCEN
 40
1.8342838921
  9
$DIMLFAC
 40
1.0
  9
$DIMBLK
  1
_FILLED
  9
$DIMALT
 70
0
  9
$DIMALTF
 40
0.0393700787
  9
$DIMTXT
 40
2.0265131384
  9
$DIMTOL
 70
1
  9
$DIMLIM
 70
0
  9
$DIMTFAC
 40
1.0
  9
$DIMTP
 40
0.01
  9
$DIMTM
 40
0.01
  9
$DIMGAP
 40
0.625
  9
$DIMDSEP
 70
46
  9
$AUNITS
 70
0
  9
$PDMODE
 70
3
  9
$PDSIZE
 40
0.3125
  9
$HANDSEED
  5
316
  9
$TILEMODE
 70
1
  9
$MEASUREMENT
 70
1
  9
$INSUNITS
 70
4
  0
ENDSEC
  0
SECTION
  2
CLASSES
  0
CLASS
  1
ACDBDICTIONARYWDFLT
  2
AcDbDictionaryWithDefault
  3
AutoCAD 2000
 90
0
 91
1
280
0
281
0
  0
CLASS
  1
ACDBPLACEHOLDER
  2
AcDbPlaceHolder
  3
AutoCAD 2000
 90
0
 91
1
280
0
281
0
  0
CLASS
  1
LAYOUT
  2
AcDbLayout
  3
AutoCAD 2000
 90
0
 91
0
280
0
281
0
  0
ENDSEC
  0
SECTION
  2
TABLES
  0
TABLE
  2
VPORT
  5
8
100
AcDbSymbolTable
 70
2
  0
VPORT
  5
1F4
100
AcDbSymbolTableRecord
100
AcDbViewportTableRecord
  2
*ACTIVE
 70
0
 10
0.0
 20
0.0
 11
1.0
 21
1.0
 12
60.7953941517
 22
85.9820574431
 13
0.0
 23
0.0
 14
1.0
 24
1.0
 15
0.0
 25
0.0
 16
0.0
 26
0.0
 36
1.0
 17
0.0
 27
0.0
 37
0.0
 40
171.9641148862
 41
0.7070707071
 42
50.0
 43
0.0
 44
0.0
 50
0.0
 51
0.0
 71
0
 72
100
 73
1
 74
1
 75
0
 76
0
 77
0
 78
0
  0
ENDTAB
  0
TABLE
  2
LTYPE
  5
5
100
AcDbSymbolTable
 70
6
  0
LTYPE
  5
14
100
AcDbSymbolTableRecord
100
AcDbLinetypeTableRecord
  2
BYBLOCK
 70
0
  3

 72
65
 73
0
 40
0.0
  0
LTYPE
  5
15
100
AcDbSymbolTableRecord
100
AcDbLinetypeTableRecord
  2
BYLAYER
 70
0
  3

 72
65
 73
0
 40
0.0
  0
LTYPE
  5
16
100
AcDbSymbolTableRecord
100
AcDbLinetypeTableRecord
  2
CONTINUOUS
 70
64
  3
Solid line
 72
65
 73
0
 40
0.0
  0
LTYPE
  5
1F5
100
AcDbSymbolTableRecord
100
AcDbLinetypeTableRecord
  2
CENTER
 70
64
  3
____ _ ____ _ ____ _ ____ _ ____ _ ____ _ ____
 72
65
 73
4
 40
0.6
 49
0.375
 74
0
 49
-0.075
 74
0
 49
0.075
 74
0
 49
-0.075
 74
0
  0
LTYPE
  5
1F6
100
AcDbSymbolTableRecord
100
AcDbLinetypeTableRecord
  2
HIDDEN
 70
64
  3
- - - - - - - - - - - - - - - - - - - -
 72
65
 73
2
 40
0.2
 49
0.1
 74
0
 49
-0.1
 74
0
  0
LTYPE
  5
1F7
100
AcDbSymbolTableRecord
100
AcDbLinetypeTableRecord
  2
PHANTOM
 70
64
  3
_____ _ _ _____ _ _ _____ _ _ _____
 72
65
 73
6
 40
0.8
 49
0.45
 74
0
 49
-0.05
 74
0
 49
0.1
 74
0
 49
-0.05
 74
0
 49
0.1
 74
0
 49
-0.05
 74
0
  0
LTYPE
  5
1F8
100
AcDbSymbolTableRecord
100
AcDbLinetypeTableRecord
  2
DOT
 70
64
  3
. . . . . . . . . . . . . . . . . . . .
 72
65
 73
2
 40
0.2
 49
0.1
 74
0
 49
-0.1
 74
0
  0
LTYPE
  5
1F9
100
AcDbSymbolTableRecord
100
AcDbLinetypeTableRecord
  2
DASHED
 70
64
  3
- - - - - - - - - - - - - - - - - - - -
 72
65
 73
2
 40
0.2
 49
0.1
 74
0
 49
-0.1
 74
0
  0
ENDTAB
  0
TABLE
  2
LAYER
  5
2
100
AcDbSymbolTable
 70
36
  0
LAYER
  5
10
100
AcDbSymbolTableRecord
100
AcDbLayerTableRecord
  2
0
 70
0
 62
7
  6
CONTINUOUS
370
-3
390
F
  0
LAYER
  5
1FA
100
AcDbSymbolTableRecord
100
AcDbLayerTableRecord
  2
DEFAULT_1
 70
0
 62
7
  6
CENTER
370
-3
390
F
  0
LAYER
  5
1FB
100
AcDbSymbolTableRecord
100
AcDbLayerTableRecord
  2
DEFAULT_2
 70
0
 62
8
  6
HIDDEN
370
-3
390
F
  0
LAYER
  5
1FC
100
AcDbSymbolTableRecord
100
AcDbLayerTableRecord
  2
DEFAULT_3
 70
0
 62
7
  6
PHANTOM
370
-3
390
F
  0
LAYER
  5
1FD
100
AcDbSymbolTableRecord
100
AcDbLayerTableRecord
  2
00_COMPONENTS
 70
0
 62
7
  6
CONTINUOUS
370
-3
390
F
  0
LAYER
  5
1FE
100
AcDbSymbolTableRecord
100
AcDbLayerTableRecord
  2
01_1_DEFAULT_DATUMS
 70
0
 62
7
  6
CONTINUOUS
370
-3
390
F
  0
LAYER
  5
1FF
100
AcDbSymbolTableRecord
100
AcDbLayerTableRecord
  2
01_PLANES
 70
0
 62
7
  6
CONTINUOUS
370
-3
390
F
  0
LAYER
  5
200
100
AcDbSymbolTableRecord
100
AcDbLayerTableRecord
  2
02_COORD_SYS
 70
0
 62
7
  6
CONTINUOUS
370
-3
390
F
  0
LAYER
  5
201
100
AcDbSymbolTableRecord
100
AcDbLayerTableRecord
  2
03_AXES
 70
0
 62
7
  6
CONTINUOUS
370
-3
390
F
  0
LAYER
  5
202
100
AcDbSymbolTableRecord
100
AcDbLayerTableRecord
  2
04_POINTS
 70
0
 62
7
  6
CONTINUOUS
370
-3
390
F
  0
LAYER
  5
203
100
AcDbSymbolTableRecord
100
AcDbLayerTableRecord
  2
05_CURVES
 70
0
 62
7
  6
CONTINUOUS
370
-3
390
F
  0
LAYER
  5
204
100
AcDbSymbolTableRecord
100
AcDbLayerTableRecord
  2
06_SURFS
 70
0
 62
7
  6
CONTINUOUS
370
-3
390
F
  0
LAYER
  5
205
100
AcDbSymbolTableRecord
100
AcDbLayerTableRecord
  2
07_COSMETICS
 70
0
 62
7
  6
CONTINUOUS
370
-3
390
F
  0
LAYER
  5
206
100
AcDbSymbolTableRecord
100
AcDbLayerTableRecord
  2
10_NOTES
 70
0
 62
7
  6
CONTINUOUS
370
-3
390
F
  0
LAYER
  5
207
100
AcDbSymbolTableRecord
100
AcDbLayerTableRecord
  2
11_NOTES_PUB
 70
0
 62
7
  6
CONTINUOUS
370
-3
390
F
  0
LAYER
  5
208
100
AcDbSymbolTableRecord
100
AcDbLayerTableRecord
  2
13_REF_GTOL
 70
0
 62
7
  6
CONTINUOUS
370
-3
390
F
  0
LAYER
  5
209
100
AcDbSymbolTableRecord
100
AcDbLayerTableRecord
  2
16_MISC
 70
0
 62
7
  6
CONTINUOUS
370
-3
390
F
  0
LAYER
  5
20A
100
AcDbSymbolTableRecord
100
AcDbLayerTableRecord
  2
17_NO_PRINT
 70
0
 62
7
  6
CONTINUOUS
370
-3
390
F
  0
LAYER
  5
20B
100
AcDbSymbolTableRecord
100
AcDbLayerTableRecord
  2
18_DATUM_CAMS_JOINTS
 70
0
 62
7
  6
CONTINUOUS
370
-3
390
F
  0
LAYER
  5
20C
100
AcDbSymbolTableRecord
100
AcDbLayerTableRecord
  2
19_DATUM_FUNCTIONAL
 70
0
 62
7
  6
CONTINUOUS
370
-3
390
F
  0
LAYER
  5
20D
100
AcDbSymbolTableRecord
100
AcDbLayerTableRecord
  2
20_DATUM_KINEMATIC_SCHEME
 70
0
 62
7
  6
CONTINUOUS
370
-3
390
F
  0
ENDTAB
  0
TABLE
  2
STYLE
  5
3
100
AcDbSymbolTable
 70
1
  0
STYLE
  5
11
100
AcDbSymbolTableRecord
100
AcDbTextStyleTableRecord
  2
STANDARD
 70
0
 40
0.0
 41
0.8
 50
0.0
 71
0
 42
0.2
  3
txt
  4

  0
STYLE
  5
20E
100
AcDbSymbolTableRecord
100
AcDbTextStyleTableRecord
  2
TEXTSTYLE_1
 70
0
 40
0.0
 41
0.8
 50
0.0
 71
0
 42
0.2
  3
gdt
  4

  0
ENDTAB
  0
TABLE
  2
VIEW
  5
6
100
AcDbSymbolTable
 70
0
  0
ENDTAB
  0
TABLE
  2
UCS
  5
7
100
AcDbSymbolTable
 70
0
  0
ENDTAB
  0
TABLE
  2
APPID
  5
9
100
AcDbSymbolTable
 70
1
  0
APPID
  5
20F
100
AcDbSymbolTableRecord
100
AcDbRegAppTableRecord
  2
ACAD
 70
0
  0
ENDTAB
  0
TABLE
  2
BLOCK_RECORD
  5
1
100
AcDbSymbolTable
 70
0
  0
BLOCK_RECORD
  5
210
100
AcDbSymbolTableRecord
100
AcDbBlockTableRecord
  2
*Model_Space
  0
BLOCK_RECORD
  5
211
100
AcDbSymbolTableRecord
100
AcDbBlockTableRecord
  2
*Paper_Space
  0
BLOCK_RECORD
  5
212
100
AcDbSymbolTableRecord
100
AcDbBlockTableRecord
  2
_FILLED
  0
ENDTAB
  0
TABLE
  2
DIMSTYLE
  5
A
100
AcDbSymbolTable
 70
1
100
AcDbDimStyleTable
 71
0
  0
DIMSTYLE
105
213
100
AcDbSymbolTableRecord
100
AcDbDimStyleTableRecord
  2
STANDARD
 70
0
  3

  4

 40
1.0
 41
1.4475093846
 42
1.0
 43
0.38
 44
1.0
 45
0.0
 46
0.0
 47
0.01
 48
0.01
140
2.0265131384
141
0.09
142
0.0
143
25.4
144
1.0
145
0.0
146
1.0
147
0.625
 71
1
 72
0
 73
0
 74
0
 75
0
 76
0
 77
1
 78
8
 79
2
170
0
171
1
172
0
173
0
174
0
175
0
176
0
177
0
178
0
270
2
179
2
271
2
272
2
273
2
274
2
275
0
280
0
281
0
282
0
283
1
284
8
285
0
286
0
287
3
288
0
340
11
278
46
341
212
342
212
343
212
344
212
  0
ENDTAB
  0
ENDSEC
  0
SECTION
  2
BLOCKS
  0
BLOCK
  5
20
100
AcDbEntity
  8
0
100
AcDbBlockBegin
  2
*Model_Space
 70
0
 10
0.0
 20
0.0
 30
0.0
  3
*Model_Space
  1

  0
ENDBLK
  5
21
100
AcDbEntity
  8
0
100
AcDbBlockEnd
  0
BLOCK
  5
1C
100
AcDbEntity
  8
0
100
AcDbBlockBegin
  2
*Paper_Space
 70
0
 10
0.0
 20
0.0
 30
0.0
  3
*Paper_Space
  1

  0
ENDBLK
  5
1D
100
AcDbEntity
  8
0
100
AcDbBlockEnd
  0
BLOCK
  5
214
100
AcDbEntity
  8
0
100
AcDbBlockBegin
  2
_FILLED
 70
64
 10
0.0
 20
0.0
  3
_FILLED
  1

  0
SOLID
  5
215
100
AcDbEntity
  8
0
  6
BYBLOCK
 62
0
100
AcDbTrace
 10
0.0
 20
0.0
 11
-1.0
 21
0.25
 12
-1.0
 22
-0.25
 13
-1.0
 23
-0.25
  0
ENDBLK
  5
216
100
AcDbEntity
  8
0
  6
BYBLOCK
 62
0
100
AcDbBlockEnd
  0
ENDSEC
  0
SECTION
  2
ENTITIES
  0
LINE
  5
217
100
AcDbEntity
  8
0
100
AcDbLine
 62
7
  6
CONTINUOUS
 10
14.1059303784
 20
73.9555600451
 11
14.1059303784
 21
71.2611020686
  0
LINE
  5
218
100
AcDbEntity
  8
0
100
AcDbLine
 62
7
  6
CONTINUOUS
 10
14.6917409566
 20
105.5542719745
 11
14.6917409566
 21
66.1172052272
  0
LINE
  5
219
100
AcDbEntity
  8
0
100
AcDbLine
 62
7
  6
CONTINUOUS
 10
59.7266395603
 20
134.3562243205
 11
35.7204643431
 21
120.4963353291
  0
LINE
  5
21A
100
AcDbEntity
  8
0
100
AcDbLine
 62
7
  6
CONTINUOUS
 10
37.444930648
 20
121.435086216
 11
61.4511058652
 21
135.2949752075
  0
LINE
  5
21B
100
AcDbEntity
  8
0
100
AcDbLine
 62
7
  6
CONTINUOUS
 10
67.4939082639
 20
137.7520238258
 11
62.035856587
 21
134.600835031
  0
LINE
  5
21C
100
AcDbEntity
  8
0
100
AcDbLine
 62
7
  6
CONTINUOUS
 10
37.0177329362
 20
120.1567008264
 11
30.8991177254
 21
116.624137774
  0
LINE
  5
21D
100
AcDbEntity
  8
0
100
AcDbLine
 62
7
  6
CONTINUOUS
 10
61.4511058652
 20
135.2949752075
 11
59.7266395603
 21
134.3562243205
  0
LINE
  5
21E
100
AcDbEntity
  8
0
100
AcDbLine
 62
7
  6
CONTINUOUS
 10
35.7204643431
 20
120.4963353291
 11
37.444930648
 21
121.435086216
  0
LINE
  5
21F
100
AcDbEntity
  8
0
100
AcDbLine
 62
7
  6
CONTINUOUS
 10
71.8262067485
 20
34.519406371
 11
65.0088352497
 21
37.0672744895
  0
LINE
  5
220
100
AcDbEntity
  8
0
100
AcDbLine
 62
7
  6
CONTINUOUS
 10
62.4467583448
 20
134.1588959173
 11
68.5749814925
 21
137.6970060815
  0
LINE
  5
221
100
AcDbEntity
  8
0
100
AcDbLine
 62
7
  6
CONTINUOUS
 10
31.9452252479
 20
116.5489242262
 11
38.098814049
 21
120.1016791699
  0
LINE
  5
222
100
AcDbEntity
  8
0
100
AcDbLine
 62
7
  6
CONTINUOUS
 10
14.8988529202
 20
106.0120579162
 11
30.3017878684
 21
114.9048934718
  0
LINE
  5
223
100
AcDbEntity
  8
0
100
AcDbLine
 62
7
  6
CONTINUOUS
 10
30.2823197119
 20
114.5554571953
 11
15.3988506817
 21
105.9625336371
  0
LINE
  5
224
100
AcDbEntity
  8
0
100
AcDbLine
 62
7
  6
CONTINUOUS
 10
39.6644609572
 20
119.1509401488
 11
63.6706361744
 21
133.0108291403
  0
LINE
  5
225
100
AcDbEntity
  8
0
100
AcDbLine
 62
7
  6
CONTINUOUS
 10
27.7632289639
 20
111.5731710922
 11
30.3149300803
 21
113.0463876248
  0
LINE
  5
226
100
AcDbEntity
  8
0
100
AcDbLine
 62
7
  6
CONTINUOUS
 10
34.1045347804
 20
114.9346051804
 11
70.8856694762
 21
136.1700332233
  0
LINE
  5
227
100
AcDbEntity
  8
0
100
AcDbLine
 62
7
  6
CONTINUOUS
 10
34.1104205667
 20
114.9284520967
 11
70.8917314317
 21
136.1646988912
  0
LINE
  5
228
100
AcDbEntity
  8
0
100
AcDbLine
 62
7
  6
CONTINUOUS
 10
30.497695932
 20
112.4755141123
 11
28.763224487
 21
111.4741225342
  0
LINE
  5
229
100
AcDbEntity
  8
0
100
AcDbLine
 62
7
  6
CONTINUOUS
 10
31.5219095934
 20
113.0044108785
 11
31.3460000955
 21
112.9028500887
  0
LINE
  5
22A
100
AcDbEntity
  8
0
100
AcDbLine
 62
7
  6
CONTINUOUS
 10
28.8339354595
 20
111.4332984588
 11
30.5263058017
 21
112.410383099
  0
LINE
  5
22B
100
AcDbEntity
  8
0
100
AcDbLine
 62
7
  6
CONTINUOUS
 10
28.8339354595
 20
110.4534955582
 11
30.8696301719
 21
111.6287974328
  0
LINE
  5
22C
100
AcDbEntity
  8
0
100
AcDbLine
 62
7
  6
CONTINUOUS
 10
31.3871541052
 20
113.4875200733
 11
31.383504513
 21
113.4854486834
  0
LINE
  5
22D
100
AcDbEntity
  8
0
100
AcDbLine
 62
7
  6
CONTINUOUS
 10
33.0171680626
 20
114.3748537624
 11
31.3871541052
 21
113.4875200733
  0
LINE
  5
22E
100
AcDbEntity
  8
0
100
AcDbLine
 62
7
  6
CONTINUOUS
 10
53.8131927771
 20
45.8968050575
 11
55.6333940426
 21
46.3176269009
  0
LINE
  5
22F
100
AcDbEntity
  8
0
100
AcDbLine
 62
7
  6
CONTINUOUS
 10
14.6917409566
 20
66.1172052272
 11
28.4096696244
 21
58.1973345895
  0
LINE
  5
230
100
AcDbEntity
  8
0
100
AcDbLine
 62
7
  6
CONTINUOUS
 10
61.2902718438
 20
39.2141395043
 11
65.0088352497
 21
37.0672744895
  0
LINE
  5
231
100
AcDbEntity
  8
0
100
AcDbLine
 62
7
  6
CONTINUOUS
 10
30.2481212723
 20
59.2587799715
 11
30.6016944638
 21
59.0546490123
  0
LINE
  5
232
100
AcDbEntity
  8
0
100
AcDbLine
 62
7
  6
CONTINUOUS
 10
30.1774439373
 20
61.6674959974
 11
55.6333940426
 21
46.9708288347
  0
LINE
  5
233
100
AcDbEntity
  8
0
100
AcDbLine
 62
7
  6
CONTINUOUS
 10
61.2902718438
 20
39.2141395043
 11
53.7949087572
 21
45.0819855459
  0
LINE
  5
234
100
AcDbEntity
  8
0
100
AcDbLine
 62
7
  6
CONTINUOUS
 10
27.3490050367
 20
110.657599209
 11
27.3490050367
 21
99.0632648857
  0
LINE
  5
235
100
AcDbEntity
  8
0
100
AcDbLine
 62
7
  6
CONTINUOUS
 10
28.8339354595
 20
110.4534955582
 11
28.8339354595
 21
111.4332984588
  0
LINE
  5
236
100
AcDbEntity
  8
0
100
AcDbLine
 62
7
  6
CONTINUOUS
 10
32.9305375698
 20
109.0681776338
 11
33.5985539989
 21
109.6312248076
  0
LINE
  5
237
100
AcDbEntity
  8
0
100
AcDbLine
 62
7
  6
CONTINUOUS
 10
35.1457923344
 20
112.9107641231
 11
72.0674387617
 21
134.2273593839
  0
LINE
  5
238
100
AcDbEntity
  8
0
100
AcDbLine
 62
7
  6
CONTINUOUS
 10
32.5767551461
 20
110.2610571141
 11
32.9481962185
 21
110.4755074371
  0
LINE
  5
239
100
AcDbEntity
  8
0
100
AcDbLine
 62
7
  6
CONTINUOUS
 10
32.5612687825
 20
110.0213403106
 11
33.0463813474
 21
110.3014185087
  0
LINE
  5
23A
100
AcDbEntity
  8
0
100
AcDbLine
 62
7
  6
CONTINUOUS
 10
35.0465290454
 20
111.3742460006
 11
72.0485981133
 21
132.7372730174
  0
LINE
  5
23B
100
AcDbEntity
  8
0
100
AcDbLine
 62
7
  6
CONTINUOUS
 10
32.0866401952
 20
109.555390988
 11
33.1280367209
 21
110.1566379635
  0
LINE
  5
23C
100
AcDbEntity
  8
0
100
AcDbLine
 62
7
  6
CONTINUOUS
 10
60.0737844946
 20
125.1473718734
 11
59.2719324469
 21
124.6844251413
  0
LINE
  5
23D
100
AcDbEntity
  8
0
100
AcDbLine
 62
7
  6
CONTINUOUS
 10
47.5580465759
 20
117.9214503499
 11
46.7561945283
 21
117.4585036177
  0
LINE
  5
23E
100
AcDbEntity
  8
0
100
AcDbLine
 62
7
  6
CONTINUOUS
 10
35.0423086572
 20
110.6955288264
 11
33.3689762806
 21
109.7294356951
  0
LINE
  5
23F
100
AcDbEntity
  8
0
100
AcDbLine
 62
7
  6
CONTINUOUS
 10
35.5347148764
 20
110.7669327394
 11
37.7974471555
 21
112.0733140317
  0
LINE
  5
240
100
AcDbEntity
  8
0
100
AcDbLine
 62
7
  6
CONTINUOUS
 10
44.4442232253
 20
115.9108090781
 11
46.8483762718
 21
117.2988392013
  0
LINE
  5
241
100
AcDbEntity
  8
0
100
AcDbLine
 62
7
  6
CONTINUOUS
 10
48.0504527951
 20
117.9928542629
 11
50.3131850742
 21
119.2992355553
  0
LINE
  5
242
100
AcDbEntity
  8
0
100
AcDbLine
 62
7
  6
CONTINUOUS
 10
56.959961144
 20
123.1367306017
 11
59.3641141905
 21
124.5247607248
  0
LINE
  5
243
100
AcDbEntity
  8
0
100
AcDbLine
 62
7
  6
CONTINUOUS
 10
60.5661907138
 20
125.2187757864
 11
62.8289229928
 21
126.5251570788
  0
LINE
  5
244
100
AcDbEntity
  8
0
100
AcDbLine
 62
7
  6
CONTINUOUS
 10
69.4756990627
 20
130.3626521252
 11
71.8798521092
 21
131.7506822484
  0
LINE
  5
245
100
AcDbEntity
  8
0
100
AcDbLine
 62
7
  6
CONTINUOUS
 10
33.5985575294
 20
109.6312186933
 11
36.6037488375
 21
111.3662563472
  0
LINE
  5
246
100
AcDbEntity
  8
0
100
AcDbLine
 62
7
  6
CONTINUOUS
 10
44.4519653624
 20
115.8973992233
 11
49.1194867562
 21
118.5921778708
  0
LINE
  5
247
100
AcDbEntity
  8
0
100
AcDbLine
 62
7
  6
CONTINUOUS
 10
56.9677032811
 20
123.1233207468
 11
61.6352246749
 21
125.8180993943
  0
LINE
  5
248
100
AcDbEntity
  8
0
100
AcDbLine
 62
7
  6
CONTINUOUS
 10
69.4834411998
 20
130.3492422703
 11
71.1457712854
 21
131.3089832639
  0
LINE
  5
249
100
AcDbEntity
  8
0
100
AcDbLine
 62
7
  6
CONTINUOUS
 10
26.7208667952
 20
105.3841637289
 11
26.8947475363
 21
105.4845532224
  0
LINE
  5
24A
100
AcDbEntity
  8
0
100
AcDbLine
 62
7
  6
CONTINUOUS
 10
38.0084147332
 20
111.7076144305
 11
44.655190803
 21
115.5451094769
  0
LINE
  5
24B
100
AcDbEntity
  8
0
100
AcDbLine
 62
7
  6
CONTINUOUS
 10
50.5241526519
 20
118.933535954
 11
57.1709287217
 21
122.7710310004
  0
LINE
  5
24C
100
AcDbEntity
  8
0
100
AcDbLine
 62
7
  6
CONTINUOUS
 10
63.0398905706
 20
126.1594574776
 11
69.6866666404
 21
129.996952524
  0
LINE
  5
24D
100
AcDbEntity
  8
0
100
AcDbLine
 62
7
  6
CONTINUOUS
 10
35.0465290454
 20
111.3742460006
 11
34.945089851
 21
111.3190253602
  0
LINE
  5
24E
100
AcDbEntity
  8
0
100
AcDbLine
 62
7
  6
CONTINUOUS
 10
32.5612687825
 20
110.0213403106
 11
32.4598295881
 21
109.9661196702
  0
LINE
  5
24F
100
AcDbEntity
  8
0
100
AcDbLine
 62
7
  6
CONTINUOUS
 10
30.1774439373
 20
60.4427423717
 11
30.1774439373
 21
61.6674959974
  0
LINE
  5
250
100
AcDbEntity
  8
0
100
AcDbLine
 62
7
  6
CONTINUOUS
 10
32.0159139141
 20
60.6060788739
 11
32.0159139141
 21
59.8711723375
  0
LINE
  5
251
100
AcDbEntity
  8
0
100
AcDbLine
 62
7
  6
CONTINUOUS
 10
32.0866401952
 20
109.555390988
 11
32.0866401952
 21
108.5755880874
  0
LINE
  5
252
100
AcDbEntity
  8
0
100
AcDbLine
 62
7
  6
CONTINUOUS
 10
32.5767551461
 20
110.2610571141
 11
32.5612687825
 21
110.0213403106
  0
LINE
  5
253
100
AcDbEntity
  8
0
100
AcDbLine
 62
7
  6
CONTINUOUS
 10
35.1457923344
 20
112.9107641231
 11
35.0465290454
 21
111.3742460006
  0
LINE
  5
254
100
AcDbEntity
  8
0
100
AcDbLine
 62
7
  6
CONTINUOUS
 10
79.1137585638
 20
125.7600538967
 11
41.5665448077
 21
104.0822893261
  0
LINE
  5
255
100
AcDbEntity
  8
0
100
AcDbLine
 62
7
  6
CONTINUOUS
 10
30.1774439373
 20
60.4427423717
 11
29.4703342122
 21
58.8097270834
  0
LINE
  5
256
100
AcDbEntity
  8
0
100
AcDbLine
 62
7
  6
CONTINUOUS
 10
77.0940397998
 20
58.0549837168
 11
80.6296495218
 21
56.0137446711
  0
LINE
  5
257
100
AcDbEntity
  8
0
100
AcDbLine
 62
7
  6
CONTINUOUS
 10
80.6296495218
 20
58.5449021642
 11
79.2861377453
 21
59.3205845011
  0
LINE
  5
258
100
AcDbEntity
  8
0
100
AcDbLine
 62
7
  6
CONTINUOUS
 10
31.3460363201
 20
112.9027723335
 11
32.5767551461
 21
110.2610571141
  0
LINE
  5
259
100
AcDbEntity
  8
0
100
AcDbLine
 62
7
  6
CONTINUOUS
 10
31.2403833498
 20
110.7847694674
 11
30.3247379246
 21
112.8692569142
  0
LINE
  5
25A
100
AcDbEntity
  8
0
100
AcDbLine
 62
7
  6
CONTINUOUS
 10
57.754723218
 20
94.7362515989
 11
95.3019369741
 21
116.4140161694
  0
LINE
  5
25B
100
AcDbEntity
  8
0
100
AcDbLine
 62
7
  6
CONTINUOUS
 10
35.1499462037
 20
111.4339060803
 11
35.5347148764
 21
110.7669327394
  0
LINE
  5
25C
100
AcDbEntity
  8
0
100
AcDbLine
 62
7
  6
CONTINUOUS
 10
31.2412377059
 20
113.5020612733
 11
33.3689762806
 21
109.7294356951
  0
LINE
  5
25D
100
AcDbEntity
  8
0
100
AcDbLine
 62
7
  6
CONTINUOUS
 10
34.1104035367
 20
114.9284407168
 11
35.1457923344
 21
112.9107641231
  0
LINE
  5
25E
100
AcDbEntity
  8
0
100
AcDbLine
 62
7
  6
CONTINUOUS
 10
34.7548403837
 20
111.4467453718
 11
33.4831697373
 21
114.0662650485
  0
LINE
  5
25F
100
AcDbEntity
  8
0
100
AcDbLine
 62
7
  6
CONTINUOUS
 10
55.6333940426
 20
46.9708288347
 11
55.6333940426
 21
46.317626901
  0
LINE
  5
260
100
AcDbEntity
  8
0
100
AcDbLine
 62
7
  6
CONTINUOUS
 10
53.7949087572
 20
45.0819855459
 11
53.8131927771
 21
45.8968050575
  0
LINE
  5
261
100
AcDbEntity
  8
0
100
AcDbLine
 62
7
  6
CONTINUOUS
 10
96.7161564244
 20
113.9645298261
 11
59.1689426683
 21
92.2867652556
  0
LINE
  5
262
100
AcDbEntity
  8
0
100
AcDbLine
 62
7
  6
CONTINUOUS
 10
15.3988506817
 20
105.9625336371
 11
27.3490050367
 21
99.0632648857
  0
LINE
  5
263
100
AcDbEntity
  8
0
100
AcDbLine
 62
7
  6
CONTINUOUS
 10
59.1689426683
 20
80.6924309323
 11
71.1190970233
 21
73.7931621809
  0
LINE
  5
264
100
AcDbEntity
  8
0
100
AcDbLine
 62
7
  6
CONTINUOUS
 10
89.6097777185
 20
65.2809052403
 11
93.1453874405
 21
63.2396661946
  0
LINE
  5
265
100
AcDbEntity
  8
0
100
AcDbLine
 62
7
  6
CONTINUOUS
 10
38.0084147332
 20
111.7076144305
 11
37.7974471555
 21
112.0733140317
  0
LINE
  5
266
100
AcDbEntity
  8
0
100
AcDbLine
 62
7
  6
CONTINUOUS
 10
59.1689426683
 20
80.6924309323
 11
59.1689426683
 21
92.2867652556
  0
LINE
  5
267
100
AcDbEntity
  8
0
100
AcDbLine
 62
7
  6
CONTINUOUS
 10
93.1453874405
 20
65.7708236877
 11
91.801875664
 21
66.5465060246
  0
LINE
  5
268
100
AcDbEntity
  8
0
100
AcDbLine
 62
7
  6
CONTINUOUS
 10
34.1046117041
 20
114.9345246249
 11
34.1104035367
 21
114.9284407168
  0
LINE
  5
269
100
AcDbEntity
  8
0
100
AcDbLine
 62
7
  6
CONTINUOUS
 10
44.4442232253
 20
115.9108090781
 11
44.655190803
 21
115.5451094769
  0
LINE
  5
26A
100
AcDbEntity
  8
0
100
AcDbLine
 62
7
  6
CONTINUOUS
 10
59.1689426683
 20
80.6924309323
 11
96.7161564244
 21
102.3701955029
  0
LINE
  5
26B
100
AcDbEntity
  8
0
100
AcDbLine
 62
7
  6
CONTINUOUS
 10
32.0866401952
 20
108.5755880874
 11
28.8339354595
 21
110.4534955582
  0
LINE
  5
26C
100
AcDbEntity
  8
0
100
AcDbLine
 62
7
  6
CONTINUOUS
 10
32.4598295881
 20
109.9661196702
 11
31.2403833498
 21
110.7847694674
  0
LINE
  5
26D
100
AcDbEntity
  8
0
100
AcDbLine
 62
7
  6
CONTINUOUS
 10
46.8483762718
 20
117.2988392013
 11
46.4635870486
 21
117.9658481655
  0
LINE
  5
26E
100
AcDbEntity
  8
0
100
AcDbLine
 62
7
  6
CONTINUOUS
 10
47.6656635718
 20
118.6598632271
 11
48.0504527951
 21
117.9928542629
  0
LINE
  5
26F
100
AcDbEntity
  8
0
100
AcDbLine
 62
7
  6
CONTINUOUS
 10
71.684680587
 20
87.9183524559
 11
71.684680587
 21
99.5126867791
  0
LINE
  5
270
100
AcDbEntity
  8
0
100
AcDbLine
 62
7
  6
CONTINUOUS
 10
72.0485981133
 20
132.7372730174
 11
72.0674387617
 21
134.2273593839
  0
LINE
  5
271
100
AcDbEntity
  8
0
100
AcDbLine
 62
7
  6
CONTINUOUS
 10
30.1774439373
 20
60.4427423717
 11
31.2381268539
 21
61.0551242837
  0
LINE
  5
272
100
AcDbEntity
  8
0
100
AcDbLine
 62
7
  6
CONTINUOUS
 10
28.4096696244
 20
58.1973345895
 11
32.2988219897
 21
60.4427455153
  0
LINE
  5
273
100
AcDbEntity
  8
0
100
AcDbLine
 62
7
  6
CONTINUOUS
 10
30.6016944638
 20
59.0546490123
 11
32.6523707426
 21
60.2386286654
  0
LINE
  5
274
100
AcDbEntity
  8
0
100
AcDbLine
 62
7
  6
CONTINUOUS
 10
57.754723218
 20
94.7362515989
 11
41.5665448077
 21
104.0822893261
  0
LINE
  5
275
100
AcDbEntity
  8
0
100
AcDbLine
 62
7
  6
CONTINUOUS
 10
28.8339354595
 20
111.4332984588
 11
28.763224487
 21
111.4741225342
  0
LINE
  5
276
100
AcDbEntity
  8
0
100
AcDbLine
 62
7
  6
CONTINUOUS
 10
32.0866401952
 20
109.555390988
 11
32.9305375698
 21
109.0681776338
  0
LINE
  5
277
100
AcDbEntity
  8
0
100
AcDbLine
 62
7
  6
CONTINUOUS
 10
83.634834942
 20
81.0190837045
 11
71.684680587
 21
87.9183524559
  0
LINE
  5
278
100
AcDbEntity
  8
0
100
AcDbLine
 62
7
  6
CONTINUOUS
 10
29.237805188
 20
112.4245129903
 11
27.9145886004
 21
113.1884551607
  0
LINE
  5
279
100
AcDbEntity
  8
0
100
AcDbLine
 62
7
  6
CONTINUOUS
 10
102.1255156372
 20
72.5068267638
 11
105.6611253591
 21
70.4655877181
  0
LINE
  5
27A
100
AcDbEntity
  8
0
100
AcDbLine
 62
7
  6
CONTINUOUS
 10
34.945089851
 20
111.3190253602
 11
34.7548403837
 21
111.4467453718
  0
LINE
  5
27B
100
AcDbEntity
  8
0
100
AcDbLine
 62
7
  6
CONTINUOUS
 10
50.5241526519
 20
118.933535954
 11
50.3131850742
 21
119.2992355553
  0
LINE
  5
27C
100
AcDbEntity
  8
0
100
AcDbLine
 62
7
  6
CONTINUOUS
 10
71.8262067485
 20
34.519406371
 11
71.8262067485
 21
72.5684190093
  0
LINE
  5
27D
100
AcDbEntity
  8
0
100
AcDbLine
 62
7
  6
CONTINUOUS
 10
75.5385018938
 20
53.0743867632
 11
75.5385018938
 21
55.6055442563
  0
LINE
  5
27E
100
AcDbEntity
  8
0
100
AcDbLine
 62
7
  6
CONTINUOUS
 10
76.3163161148
 20
56.9527654844
 11
76.3163161148
 21
57.6059674181
  0
LINE
  5
27F
100
AcDbEntity
  8
0
100
AcDbLine
 62
7
  6
CONTINUOUS
 10
74.6629061602
 20
77.7054405724
 11
74.8367869013
 21
77.8058300659
  0
LINE
  5
280
100
AcDbEntity
  8
0
100
AcDbLine
 62
7
  6
CONTINUOUS
 10
87.1786440788
 20
84.931362096
 11
87.3525248199
 21
85.0317515894
  0
LINE
  5
281
100
AcDbEntity
  8
0
100
AcDbLine
 62
7
  6
CONTINUOUS
 10
99.6943819975
 20
92.1572836195
 11
99.8682627386
 21
92.2576731129
  0
LINE
  5
282
100
AcDbEntity
  8
0
100
AcDbLine
 62
7
  6
CONTINUOUS
 10
105.6611253591
 20
72.9967452112
 11
104.3176135827
 21
73.7724275481
  0
LINE
  5
283
100
AcDbEntity
  8
0
100
AcDbLine
 62
7
  6
CONTINUOUS
 10
56.959961144
 20
123.1367306017
 11
57.1709287217
 21
122.7710310004
  0
LINE
  5
284
100
AcDbEntity
  8
0
100
AcDbLine
 62
7
  6
CONTINUOUS
 10
79.8518353008
 20
59.6471881874
 11
79.8518353008
 21
58.9939862537
  0
LINE
  5
285
100
AcDbEntity
  8
0
100
AcDbLine
 62
7
  6
CONTINUOUS
 10
80.6296495218
 20
58.5449021642
 11
80.6296495218
 21
56.0137446711
  0
LINE
  5
286
100
AcDbEntity
  8
0
100
AcDbLine
 62
7
  6
CONTINUOUS
 10
71.1190970233
 20
73.7931621809
 11
108.6663107794
 21
95.4709267515
  0
LINE
  5
287
100
AcDbEntity
  8
0
100
AcDbLine
 62
7
  6
CONTINUOUS
 10
109.3734205045
 20
94.2461835799
 11
71.8262067485
 21
72.5684190093
  0
LINE
  5
288
100
AcDbEntity
  8
0
100
AcDbLine
 62
7
  6
CONTINUOUS
 10
70.2704611367
 20
101.9621731224
 11
54.0822827264
 21
111.3082108497
  0
LINE
  5
289
100
AcDbEntity
  8
0
100
AcDbLine
 62
7
  6
CONTINUOUS
 10
96.1505728607
 20
88.245005228
 11
84.2004185057
 21
95.1442739794
  0
LINE
  5
28A
100
AcDbEntity
  8
0
100
AcDbLine
 62
7
  6
CONTINUOUS
 10
59.3641141905
 20
124.5247607248
 11
58.9793249673
 21
125.191769689
  0
LINE
  5
28B
100
AcDbEntity
  8
0
100
AcDbLine
 62
7
  6
CONTINUOUS
 10
60.1814014905
 20
125.8857847506
 11
60.5661907138
 21
125.2187757864
  0
LINE
  5
28C
100
AcDbEntity
  8
0
100
AcDbLine
 62
7
  6
CONTINUOUS
 10
84.2004185057
 20
95.1442739794
 11
84.2004185057
 21
106.7386083026
  0
LINE
  5
28D
100
AcDbEntity
  8
0
100
AcDbLine
 62
7
  6
CONTINUOUS
 10
84.3419446671
 20
41.7453278946
 11
84.3419446671
 21
79.7943405328
  0
LINE
  5
28E
100
AcDbEntity
  8
0
100
AcDbLine
 62
7
  6
CONTINUOUS
 10
63.0398905706
 20
126.1594574776
 11
62.8289229928
 21
126.5251570788
  0
LINE
  5
28F
100
AcDbEntity
  8
0
100
AcDbLine
 62
7
  6
CONTINUOUS
 10
88.0542398125
 20
60.3003082867
 11
88.0542398125
 21
62.8314657798
  0
LINE
  5
290
100
AcDbEntity
  8
0
100
AcDbLine
 62
7
  6
CONTINUOUS
 10
88.8320540335
 20
64.1786870079
 11
88.8320540335
 21
64.8318889416
  0
LINE
  5
291
100
AcDbEntity
  8
0
100
AcDbLine
 62
7
  6
CONTINUOUS
 10
76.3163161148
 20
56.9527654844
 11
75.5385018938
 21
55.6055442563
  0
LINE
  5
292
100
AcDbEntity
  8
0
100
AcDbLine
 62
7
  6
CONTINUOUS
 10
92.3675732195
 20
66.873109711
 11
92.3675732195
 21
66.2199077773
  0
LINE
  5
293
100
AcDbEntity
  8
0
100
AcDbLine
 62
7
  6
CONTINUOUS
 10
93.1453874405
 20
65.7708236877
 11
93.1453874405
 21
63.2396661946
  0
LINE
  5
294
100
AcDbEntity
  8
0
100
AcDbLine
 62
7
  6
CONTINUOUS
 10
53.8131927771
 20
45.8968050575
 11
55.6333940426
 21
46.9476924751
  0
LINE
  5
295
100
AcDbEntity
  8
0
100
AcDbLine
 62
7
  6
CONTINUOUS
 10
76.3163161148
 20
57.6059674181
 11
79.8518353008
 21
59.6471881874
  0
LINE
  5
296
100
AcDbEntity
  8
0
100
AcDbLine
 62
7
  6
CONTINUOUS
 10
88.8320540335
 20
64.8318889416
 11
92.3675732195
 21
66.873109711
  0
LINE
  5
297
100
AcDbEntity
  8
0
100
AcDbLine
 62
7
  6
CONTINUOUS
 10
101.3477919521
 20
72.0578104651
 11
104.8833111382
 21
74.0990312345
  0
LINE
  5
298
100
AcDbEntity
  8
0
100
AcDbLine
 62
7
  6
CONTINUOUS
 10
82.7861990554
 20
109.1880946459
 11
66.5980206451
 21
118.5341323732
  0
LINE
  5
299
100
AcDbEntity
  8
0
100
AcDbLine
 62
7
  6
CONTINUOUS
 10
108.6663107794
 20
95.4709267515
 11
96.7161564244
 21
102.3701955029
  0
LINE
  5
29A
100
AcDbEntity
  8
0
100
AcDbLine
 62
7
  6
CONTINUOUS
 10
69.4756990627
 20
130.3626521252
 11
69.6866666404
 21
129.996952524
  0
LINE
  5
29B
100
AcDbEntity
  8
0
100
AcDbLine
 62
7
  6
CONTINUOUS
 10
71.8798521092
 20
131.7506822484
 11
71.495062886
 21
132.4176912125
  0
LINE
  5
29C
100
AcDbEntity
  8
0
100
AcDbLine
 62
7
  6
CONTINUOUS
 10
96.7161564244
 20
102.3701955029
 11
96.7161564244
 21
113.9645298261
  0
LINE
  5
29D
100
AcDbEntity
  8
0
100
AcDbLine
 62
7
  6
CONTINUOUS
 10
96.8576825858
 20
48.9712494181
 11
96.8576825858
 21
87.0202620563
  0
LINE
  5
29E
100
AcDbEntity
  8
0
100
AcDbLine
 62
7
  6
CONTINUOUS
 10
88.8320540335
 20
64.1786870079
 11
88.0542398125
 21
62.8314657798
  0
LINE
  5
29F
100
AcDbEntity
  8
0
100
AcDbLine
 62
7
  6
CONTINUOUS
 10
72.0674387617
 20
134.2273593839
 11
70.8917144018
 21
136.1646875113
  0
LINE
  5
2A0
100
AcDbEntity
  8
0
100
AcDbLine
 62
7
  6
CONTINUOUS
 10
100.5699777312
 20
67.5262298102
 11
100.5699777312
 21
70.0573873033
  0
LINE
  5
2A1
100
AcDbEntity
  8
0
100
AcDbLine
 62
7
  6
CONTINUOUS
 10
101.3477919521
 20
71.4046085314
 11
101.3477919521
 21
72.0578104651
  0
LINE
  5
2A2
100
AcDbEntity
  8
0
100
AcDbLine
 62
7
  6
CONTINUOUS
 10
101.3477919521
 20
71.4046085314
 11
100.5699777312
 21
70.0573873033
  0
LINE
  5
2A3
100
AcDbEntity
  8
0
100
AcDbLine
 62
7
  6
CONTINUOUS
 10
104.8833111382
 20
74.0990312345
 11
104.8833111382
 21
73.4458293008
  0
LINE
  5
2A4
100
AcDbEntity
  8
0
100
AcDbLine
 62
7
  6
CONTINUOUS
 10
105.6611253591
 20
72.9967452112
 11
105.6611253591
 21
70.4655877181
  0
LINE
  5
2A5
100
AcDbEntity
  8
0
100
AcDbLine
 62
7
  6
CONTINUOUS
 10
95.3019369741
 20
116.4140161694
 11
79.1137585638
 21
125.7600538967
  0
LINE
  5
2A6
100
AcDbEntity
  8
0
100
AcDbLine
 62
7
  6
CONTINUOUS
 10
70.8917144018
 20
136.1646875113
 11
70.8844588159
 21
136.1709697067
  0
LINE
  5
2A7
100
AcDbEntity
  8
0
100
AcDbLine
 62
7
  6
CONTINUOUS
 10
109.3734205045
 20
56.1971709416
 11
109.3734205045
 21
94.2461835799
  0
LINE
  5
2A8
100
AcDbEntity
  8
0
100
AcDbLine
 62
7
  6
CONTINUOUS
 10
71.8262067485
 20
34.519406371
 11
109.3734205045
 21
56.1971709416
  0
ARC
  5
2A9
100
AcDbEntity
  8
0
100
AcDbCircle
 62
7
  6
CONTINUOUS
 10
21.2037977504
 20
114.9603356323
 40
15.5364378674
100
AcDbArc
 50
17.3243989599
 51
20.8745874759
  0
ARC
  5
2AA
100
AcDbEntity
  8
0
100
AcDbCircle
 62
7
  6
CONTINUOUS
 10
40.6858212728
 20
114.2681182781
 40
10.4085974071
100
AcDbArc
 50
172.1262180439
 51
172.9130339323
  0
ARC
  5
2AB
100
AcDbEntity
  8
0
100
AcDbCircle
 62
7
  6
CONTINUOUS
 10
25.8181575019
 20
101.5098574987
 40
4.3140113401
100
AcDbArc
 50
69.684302641
 51
70.4181190316
  0
ARC
  5
2AC
100
AcDbEntity
  8
0
100
AcDbCircle
 62
7
  6
CONTINUOUS
 10
98.7916727042
 20
88.2829773892
 40
4.3140113402
100
AcDbArc
 50
69.684302641
 51
70.4181190316
  0
ARC
  5
2AD
100
AcDbEntity
  8
0
100
AcDbCircle
 62
7
  6
CONTINUOUS
 10
86.2759347856
 20
81.0570558659
 40
4.31401134
100
AcDbArc
 50
69.6843026409
 51
70.4181190316
  0
ARC
  5
2AE
100
AcDbEntity
  8
0
100
AcDbCircle
 62
7
  6
CONTINUOUS
 10
73.7601968669
 20
73.8311343424
 40
4.31401134
100
AcDbArc
 50
69.684302641
 51
70.4181190316
  0
ARC
  5
2AF
100
AcDbEntity
  8
0
100
AcDbCircle
 62
7
  6
CONTINUOUS
 10
80.8575097677
 20
106.4455247639
 40
3.3797860099
100
AcDbArc
 50
29.9420422548
 51
38.731673465
  0
ARC
  5
2B0
100
AcDbEntity
  8
0
100
AcDbCircle
 62
7
  6
CONTINUOUS
 10
68.3417718498
 20
99.219603241
 40
3.3797860088
100
AcDbArc
 50
29.9420423582
 51
38.7316734656
  0
ARC
  5
2B1
100
AcDbEntity
  8
0
100
AcDbCircle
 62
7
  6
CONTINUOUS
 10
35.6694191687
 20
107.9284795188
 40
2.9215544887
100
AcDbArc
 50
139.9551448296
 51
141.943543249
  0
ARC
  5
2B2
100
AcDbEntity
  8
0
100
AcDbCircle
 62
7
  6
CONTINUOUS
 10
95.1599077515
 20
86.8560211834
 40
1.7215065209
100
AcDbArc
 50
24.8184717363
 51
30.0152506778
  0
ARC
  5
2B3
100
AcDbEntity
  8
0
100
AcDbCircle
 62
7
  6
CONTINUOUS
 10
82.6441698333
 20
79.6300996601
 40
1.7215065203
100
AcDbArc
 50
24.8184717358
 51
30.0152505495
  0
ARC
  5
2B4
100
AcDbEntity
  8
0
100
AcDbCircle
 62
7
  6
CONTINUOUS
 10
82.643726777
 20
79.630893111
 40
1.7214934909
100
AcDbArc
 50
29.9850075388
 51
35.1818216211
  0
ARC
  5
2B5
100
AcDbEntity
  8
0
100
AcDbCircle
 62
7
  6
CONTINUOUS
 10
95.1594646961
 20
86.8568146348
 40
1.7214934903
100
AcDbArc
 50
29.9850076671
 51
35.1818216216
  0
ARC
  5
2B6
100
AcDbEntity
  8
0
100
AcDbCircle
 62
7
  6
CONTINUOUS
 10
27.209049521
 20
105.266549666
 40
0.3080975369
100
AcDbArc
 50
62.9110095566
 51
69.6979936698
  0
ARC
  5
2B7
100
AcDbEntity
  8
0
100
AcDbCircle
 62
7
  6
CONTINUOUS
 10
31.5656944013
 20
113.2702668154
 40
0.2899730984
100
AcDbArc
 50
155.1194068874
 51
159.1698070063
  0
SPLINE
  5
2B8
100
AcDbEntity
  8
0
100
AcDbSpline
 62
7
  6
CONTINUOUS
 70
0
 71
3
 72
15
 73
11
 74
0
 42
0.0000001
 43
0.0000001
 44
0.0000000001
 40
0.0
 40
0.0
 40
0.0
 40
0.0
 40
0.1214398204
 40
0.2458460728
 40
0.3724236746
 40
0.5001294388
 40
0.6278177741
 40
0.7543491125
 40
0.8786863707
 40
1.0
 40
1.0
 40
1.0
 40
1.0
 10
27.2640141046
 20
105.5743614693
 30
0.0
 10
27.1301548743
 20
105.6219816397
 30
0.0
 10
26.854321263
 20
105.7052077131
 30
0.0
 10
26.4271493638
 20
105.7935895494
 30
0.0
 10
25.9867914204
 20
105.8467321105
 30
0.0
 10
25.5397673439
 20
105.864175594
 30
0.0
 10
25.0928362745
 20
105.8457627164
 30
0.0
 10
24.6527503215
 20
105.7916615496
 30
0.0
 10
24.2260627665
 20
105.7023362961
 30
0.0
 10
23.9506487585
 20
105.6185068782
 30
0.0
 10
23.8170537599
 20
105.5705858926
 30
0.0
  0
SPLINE
  5
2B9
100
AcDbEntity
  8
0
100
AcDbSpline
 62
7
  6
CONTINUOUS
 70
0
 71
3
 72
11
 73
7
 74
0
 42
0.0000001
 43
0.0000001
 44
0.0000000001
 40
0.0
 40
0.0
 40
0.0
 40
0.0
 40
0.279147662
 40
0.5382759556
 40
0.7776672423
 40
1.0
 40
1.0
 40
1.0
 40
1.0
 10
26.8947475363
 20
105.4845532224
 30
0.0
 10
26.9241031538
 20
105.5015015948
 30
0.0
 10
26.9826071103
 20
105.5310768442
 30
0.0
 10
27.0721242734
 20
105.5621666682
 30
0.0
 10
27.1587102891
 20
105.5775353395
 30
0.0
 10
27.2152378874
 20
105.5767837762
 30
0.0
 10
27.242022915
 20
105.5734004435
 30
0.0
  0
SPLINE
  5
2BA
100
AcDbEntity
  8
0
100
AcDbSpline
 62
7
  6
CONTINUOUS
 70
0
 71
3
 72
15
 73
11
 74
0
 42
0.0000001
 43
0.0000001
 44
0.0000000001
 40
0.0
 40
0.0
 40
0.0
 40
0.0
 40
0.1199532826
 40
0.2441308878
 40
0.3712216112
 40
0.4998056325
 40
0.6284173707
 40
0.7555778429
 40
0.8798881971
 40
1.0
 40
1.0
 40
1.0
 40
1.0
 10
24.1864665693
 20
105.4810595339
 30
0.0
 10
24.2907486826
 20
105.5161398551
 30
0.0
 10
24.50639133
 20
105.5777211175
 30
0.0
 10
24.8408147429
 20
105.6435702162
 30
0.0
 10
25.1872621445
 20
105.6837220609
 30
0.0
 10
25.5398077268
 20
105.6974864969
 30
0.0
 10
25.8924508802
 20
105.6846237924
 30
0.0
 10
26.2392129479
 20
105.6453670977
 30
0.0
 10
26.5741387441
 20
105.580367684
 30
0.0
 10
26.7902199602
 20
105.5193582512
 30
0.0
 10
26.8947475363
 20
105.4845532224
 30
0.0
  0
SPLINE
  5
2BB
100
AcDbEntity
  8
0
100
AcDbSpline
 62
7
  6
CONTINUOUS
 70
0
 71
3
 72
15
 73
11
 74
0
 42
0.0000001
 43
0.0000001
 44
0.0000000001
 40
0.0
 40
0.0
 40
0.0
 40
0.0
 40
0.1214398204
 40
0.2458460728
 40
0.3724236746
 40
0.5001294388
 40
0.6278177741
 40
0.7543491125
 40
0.8786863707
 40
1.0
 40
1.0
 40
1.0
 40
1.0
 10
100.237529307
 20
92.3474813599
 30
0.0
 10
100.1036700766
 20
92.3951015303
 30
0.0
 10
99.8278364653
 20
92.4783276036
 30
0.0
 10
99.4006645661
 20
92.5667094399
 30
0.0
 10
98.9603066227
 20
92.6198520011
 30
0.0
 10
98.5132825462
 20
92.6372954846
 30
0.0
 10
98.0663514769
 20
92.618882607
 30
0.0
 10
97.6262655239
 20
92.5647814402
 30
0.0
 10
97.1995779688
 20
92.4754561867
 30
0.0
 10
96.9241639608
 20
92.3916267687
 30
0.0
 10
96.7905689623
 20
92.3437057832
 30
0.0
  0
SPLINE
  5
2BC
100
AcDbEntity
  8
0
100
AcDbSpline
 62
7
  6
CONTINUOUS
 70
0
 71
3
 72
11
 73
7
 74
0
 42
0.0000001
 43
0.0000001
 44
0.0000000001
 40
0.0
 40
0.0
 40
0.0
 40
0.0
 40
0.279147662
 40
0.5382759556
 40
0.7776672423
 40
1.0
 40
1.0
 40
1.0
 40
1.0
 10
99.8682627386
 20
92.2576731129
 30
0.0
 10
99.8976183561
 20
92.2746214854
 30
0.0
 10
99.9561223126
 20
92.3041967348
 30
0.0
 10
100.0456394758
 20
92.3352865588
 30
0.0
 10
100.1322254914
 20
92.35065523
 30
0.0
 10
100.1887530898
 20
92.3499036668
 30
0.0
 10
100.2155381174
 20
92.3465203341
 30
0.0
  0
SPLINE
  5
2BD
100
AcDbEntity
  8
0
100
AcDbSpline
 62
7
  6
CONTINUOUS
 70
0
 71
3
 72
15
 73
11
 74
0
 42
0.0000001
 43
0.0000001
 44
0.0000000001
 40
0.0
 40
0.0
 40
0.0
 40
0.0
 40
0.1199532826
 40
0.2441308878
 40
0.3712216112
 40
0.4998056325
 40
0.6284173707
 40
0.7555778429
 40
0.8798881971
 40
1.0
 40
1.0
 40
1.0
 40
1.0
 10
97.1599817716
 20
92.2541794245
 30
0.0
 10
97.2642638849
 20
92.2892597457
 30
0.0
 10
97.4799065324
 20
92.3508410081
 30
0.0
 10
97.8143299452
 20
92.4166901068
 30
0.0
 10
98.1607773468
 20
92.4568419515
 30
0.0
 10
98.5133229292
 20
92.4706063875
 30
0.0
 10
98.8659660825
 20
92.4577436829
 30
0.0
 10
99.2127281502
 20
92.4184869883
 30
0.0
 10
99.5476539464
 20
92.3534875745
 30
0.0
 10
99.7637351625
 20
92.2924781417
 30
0.0
 10
99.8682627386
 20
92.2576731129
 30
0.0
  0
SPLINE
  5
2BE
100
AcDbEntity
  8
0
100
AcDbSpline
 62
7
  6
CONTINUOUS
 70
0
 71
3
 72
15
 73
11
 74
0
 42
0.0000001
 43
0.0000001
 44
0.0000000001
 40
0.0
 40
0.0
 40
0.0
 40
0.0
 40
0.1214398204
 40
0.2458460728
 40
0.3724236746
 40
0.5001294388
 40
0.6278177741
 40
0.7543491125
 40
0.8786863707
 40
1.0
 40
1.0
 40
1.0
 40
1.0
 10
87.7217913883
 20
85.1215598364
 30
0.0
 10
87.5879321579
 20
85.1691800068
 30
0.0
 10
87.3120985467
 20
85.2524060801
 30
0.0
 10
86.8849266474
 20
85.3407879164
 30
0.0
 10
86.4445687041
 20
85.3939304775
 30
0.0
 10
85.9975446275
 20
85.4113739611
 30
0.0
 10
85.5506135582
 20
85.3929610835
 30
0.0
 10
85.1105276052
 20
85.3388599167
 30
0.0
 10
84.6838400501
 20
85.2495346631
 30
0.0
 10
84.4084260422
 20
85.1657052452
 30
0.0
 10
84.2748310436
 20
85.1177842597
 30
0.0
  0
SPLINE
  5
2BF
100
AcDbEntity
  8
0
100
AcDbSpline
 62
7
  6
CONTINUOUS
 70
0
 71
3
 72
11
 73
7
 74
0
 42
0.0000001
 43
0.0000001
 44
0.0000000001
 40
0.0
 40
0.0
 40
0.0
 40
0.0
 40
0.279147662
 40
0.5382759556
 40
0.7776672423
 40
1.0
 40
1.0
 40
1.0
 40
1.0
 10
87.3525248199
 20
85.0317515894
 30
0.0
 10
87.3818804374
 20
85.0486999619
 30
0.0
 10
87.4403843939
 20
85.0782752113
 30
0.0
 10
87.5299015571
 20
85.1093650353
 30
0.0
 10
87.6164875728
 20
85.1247337065
 30
0.0
 10
87.6730151711
 20
85.1239821433
 30
0.0
 10
87.6998001987
 20
85.1205988106
 30
0.0
  0
SPLINE
  5
2C0
100
AcDbEntity
  8
0
100
AcDbSpline
 62
7
  6
CONTINUOUS
 70
0
 71
3
 72
15
 73
11
 74
0
 42
0.0000001
 43
0.0000001
 44
0.0000000001
 40
0.0
 40
0.0
 40
0.0
 40
0.0
 40
0.1199532826
 40
0.2441308878
 40
0.3712216112
 40
0.4998056325
 40
0.6284173707
 40
0.7555778429
 40
0.8798881971
 40
1.0
 40
1.0
 40
1.0
 40
1.0
 10
84.6442438529
 20
85.0282579009
 30
0.0
 10
84.7485259663
 20
85.0633382222
 30
0.0
 10
84.9641686137
 20
85.1249194845
 30
0.0
 10
85.2985920265
 20
85.1907685833
 30
0.0
 10
85.6450394282
 20
85.230920428
 30
0.0
 10
85.9975850105
 20
85.244684864
 30
0.0
 10
86.3502281639
 20
85.2318221594
 30
0.0
 10
86.6969902316
 20
85.1925654648
 30
0.0
 10
87.0319160277
 20
85.127566051
 30
0.0
 10
87.2479972439
 20
85.0665566182
 30
0.0
 10
87.3525248199
 20
85.0317515894
 30
0.0
  0
SPLINE
  5
2C1
100
AcDbEntity
  8
0
100
AcDbSpline
 62
7
  6
CONTINUOUS
 70
0
 71
3
 72
15
 73
11
 74
0
 42
0.0000001
 43
0.0000001
 44
0.0000000001
 40
0.0
 40
0.0
 40
0.0
 40
0.0
 40
0.1214398204
 40
0.2458460728
 40
0.3724236746
 40
0.5001294388
 40
0.6278177741
 40
0.7543491125
 40
0.8786863707
 40
1.0
 40
1.0
 40
1.0
 40
1.0
 10
75.2060534696
 20
77.8956383129
 30
0.0
 10
75.0721942392
 20
77.9432584833
 30
0.0
 10
74.796360628
 20
78.0264845566
 30
0.0
 10
74.3691887287
 20
78.1148663929
 30
0.0
 10
73.9288307854
 20
78.168008954
 30
0.0
 10
73.4818067088
 20
78.1854524376
 30
0.0
 10
73.0348756395
 20
78.1670395599
 30
0.0
 10
72.5947896865
 20
78.1129383932
 30
0.0
 10
72.1681021314
 20
78.0236131396
 30
0.0
 10
71.8926881235
 20
77.9397837217
 30
0.0
 10
71.7590931249
 20
77.8918627361
 30
0.0
  0
SPLINE
  5
2C2
100
AcDbEntity
  8
0
100
AcDbSpline
 62
7
  6
CONTINUOUS
 70
0
 71
3
 72
11
 73
7
 74
0
 42
0.0000001
 43
0.0000001
 44
0.0000000001
 40
0.0
 40
0.0
 40
0.0
 40
0.0
 40
0.279147662
 40
0.5382759556
 40
0.7776672423
 40
1.0
 40
1.0
 40
1.0
 40
1.0
 10
74.8367869013
 20
77.8058300659
 30
0.0
 10
74.8661425187
 20
77.8227784384
 30
0.0
 10
74.9246464752
 20
77.8523536877
 30
0.0
 10
75.0141636384
 20
77.8834435117
 30
0.0
 10
75.1007496541
 20
77.898812183
 30
0.0
 10
75.1572772524
 20
77.8980606198
 30
0.0
 10
75.18406228
 20
77.894677287
 30
0.0
  0
SPLINE
  5
2C3
100
AcDbEntity
  8
0
100
AcDbSpline
 62
7
  6
CONTINUOUS
 70
0
 71
3
 72
15
 73
11
 74
0
 42
0.0000001
 43
0.0000001
 44
0.0000000001
 40
0.0
 40
0.0
 40
0.0
 40
0.0
 40
0.1199532826
 40
0.2441308878
 40
0.3712216112
 40
0.4998056325
 40
0.6284173707
 40
0.7555778429
 40
0.8798881971
 40
1.0
 40
1.0
 40
1.0
 40
1.0
 10
72.1285059342
 20
77.8023363774
 30
0.0
 10
72.2327880476
 20
77.8374166987
 30
0.0
 10
72.448430695
 20
77.898997961
 30
0.0
 10
72.7828541079
 20
77.9648470597
 30
0.0
 10
73.1293015095
 20
78.0049989045
 30
0.0
 10
73.4818470918
 20
78.0187633404
 30
0.0
 10
73.8344902452
 20
78.0059006359
 30
0.0
 10
74.1812523129
 20
77.9666439412
 30
0.0
 10
74.5161781091
 20
77.9016445275
 30
0.0
 10
74.7322593252
 20
77.8406350947
 30
0.0
 10
74.8367869013
 20
77.8058300659
 30
0.0
  0
SPLINE
  5
2C4
100
AcDbEntity
  8
0
100
AcDbSpline
 62
7
  6
CONTINUOUS
 70
0
 71
3
 72
12
 73
8
 74
0
 42
0.0000001
 43
0.0000001
 44
0.0000000001
 40
0.0
 40
0.0
 40
0.0
 40
0.0
 40
0.108160862
 40
0.2183615194
 40
0.4513628574
 40
0.7104168543
 40
1.0
 40
1.0
 40
1.0
 40
1.0
 10
14.1059337928
 20
71.2611020686
 30
0.0
 10
14.1059337903
 20
71.223239752
 30
0.0
 10
14.1125312191
 20
71.1466441786
 30
0.0
 10
14.1522971875
 20
70.9930778083
 30
0.0
 10
14.2544553122
 20
70.8047898674
 30
0.0
 10
14.444691681
 20
70.6049683947
 30
0.0
 10
14.6039330348
 20
70.4952980034
 30
0.0
 10
14.691722704
 20
70.4446137609
 30
0.0
  0
SPLINE
  5
2C5
100
AcDbEntity
  8
0
100
AcDbSpline
 62
7
  6
CONTINUOUS
 70
0
 71
3
 72
12
 73
8
 74
0
 42
0.0000001
 43
0.0000001
 44
0.0000000001
 40
0.0
 40
0.0
 40
0.0
 40
0.0
 40
0.1081611056
 40
0.2183619689
 40
0.4513635024
 40
0.7104173283
 40
1.0
 40
1.0
 40
1.0
 40
1.0
 10
14.1059337928
 20
73.9555600451
 30
0.0
 10
14.1059337919
 20
73.9934219588
 30
0.0
 10
14.1125310754
 20
74.0700166992
 30
0.0
 10
14.1522961775
 20
74.2235814011
 30
0.0
 10
14.2544520641
 20
74.4118674465
 30
0.0
 10
14.4446845677
 20
74.6116874449
 30
0.0
 10
14.6039229002
 20
74.7213574152
 30
0.0
 10
14.6917109281
 20
74.7720415542
 30
0.0
  0
SPLINE
  5
2C6
100
AcDbEntity
  8
0
100
AcDbSpline
 62
7
  6
CONTINUOUS
 70
0
 71
3
 72
12
 73
8
 74
0
 42
0.0000001
 43
0.0000001
 44
0.0000000001
 40
0.0
 40
0.0
 40
0.0
 40
0.0
 40
0.2895831544
 40
0.5486371605
 40
0.781638491
 40
0.891839144
 40
1.0
 40
1.0
 40
1.0
 40
1.0
 10
14.691722704
 20
73.1390717374
 30
0.0
 10
14.6039330323
 20
73.1897559814
 30
0.0
 10
14.4446916756
 20
73.2994263787
 30
0.0
 10
14.2544553028
 20
73.4992478537
 30
0.0
 10
14.1522971866
 20
73.687535797
 30
0.0
 10
14.1125312171
 20
73.8411021608
 30
0.0
 10
14.1059337937
 20
73.9176977306
 30
0.0
 10
14.1059337928
 20
73.9555600451
 30
0.0
  0
SPLINE
  5
2C7
100
AcDbEntity
  8
0
100
AcDbSpline
 62
7
  6
CONTINUOUS
 70
0
 71
3
 72
11
 73
7
 74
0
 42
0.0000001
 43
0.0000001
 44
0.0000000001
 40
0.0
 40
0.0
 40
0.0
 40
0.0
 40
0.2856038581
 40
0.5434286496
 40
0.7783030064
 40
1.0
 40
1.0
 40
1.0
 40
1.0
 10
68.5749808988
 20
137.6970063762
 30
0.0
 10
68.4790418446
 20
137.7446134588
 30
0.0
 10
68.2887913304
 20
137.821163398
 30
0.0
 10
67.9993279753
 20
137.8741218594
 30
0.0
 10
67.7288476113
 20
137.8558040027
 30
0.0
 10
67.5659134455
 20
137.7935800426
 30
0.0
 10
67.4939136451
 20
137.7520144903
 30
0.0
  0
SPLINE
  5
2C8
100
AcDbEntity
  8
0
100
AcDbSpline
 62
7
  6
CONTINUOUS
 70
0
 71
3
 72
9
 73
5
 74
0
 42
0.0000001
 43
0.0000001
 44
0.0000000001
 40
0.0
 40
0.0
 40
0.0
 40
0.0
 40
0.5163943734
 40
1.0
 40
1.0
 40
1.0
 40
1.0
 10
70.8844588159
 20
136.1709697067
 30
0.0
 10
70.51700594
 20
136.4755436592
 30
0.0
 10
69.7757312361
 20
137.0307377297
 30
0.0
 10
68.9753623413
 20
137.4983280878
 30
0.0
 10
68.5749808988
 20
137.6970063762
 30
0.0
  0
SPLINE
  5
2C9
100
AcDbEntity
  8
0
100
AcDbSpline
 62
7
  6
CONTINUOUS
 70
0
 71
3
 72
9
 73
5
 74
0
 42
0.0000001
 43
0.0000001
 44
0.0000000001
 40
0.0
 40
0.0
 40
0.0
 40
0.0
 40
0.4883985386
 40
1.0
 40
1.0
 40
1.0
 40
1.0
 10
63.6706361744
 20
133.0108291403
 30
0.0
 10
63.2682529875
 20
133.339069462
 30
0.0
 10
62.4859668116
 20
134.0631304903
 30
0.0
 10
61.7871142692
 20
134.8672107407
 30
0.0
 10
61.4511058652
 20
135.2949752075
 30
0.0
  0
SPLINE
  5
2CA
100
AcDbEntity
  8
0
100
AcDbSpline
 62
7
  6
CONTINUOUS
 70
0
 71
3
 72
9
 73
5
 74
0
 42
0.0000001
 43
0.0000001
 44
0.0000000001
 40
0.0
 40
0.0
 40
0.0
 40
0.0
 40
0.5147600189
 40
1.0
 40
1.0
 40
1.0
 40
1.0
 10
30.3247379246
 20
112.8692569142
 30
0.0
 10
30.2846038605
 20
113.3285448516
 30
0.0
 10
30.2472446215
 20
114.2249568787
 30
0.0
 10
30.3031797821
 20
115.1210013999
 30
0.0
 10
30.3567452408
 20
115.5522866115
 30
0.0
  0
SPLINE
  5
2CB
100
AcDbEntity
  8
0
100
AcDbSpline
 62
7
  6
CONTINUOUS
 70
0
 71
3
 72
11
 73
7
 74
0
 42
0.0000001
 43
0.0000001
 44
0.0000000001
 40
0.0
 40
0.0
 40
0.0
 40
0.0
 40
0.2857291692
 40
0.5447335368
 40
0.7802553935
 40
1.0
 40
1.0
 40
1.0
 40
1.0
 10
30.3753534892
 20
115.6940053939
 30
0.0
 10
30.3897262545
 20
115.7980329435
 30
0.0
 10
30.4315222967
 20
115.9949213034
 30
0.0
 10
30.5424002511
 20
116.261536621
 30
0.0
 10
30.6965967056
 20
116.4771914371
 30
0.0
 10
30.8292040047
 20
116.5836932134
 30
0.0
 10
30.8991501028
 20
116.6240711136
 30
0.0
  0
SPLINE
  5
2CC
100
AcDbEntity
  8
0
100
AcDbSpline
 62
7
  6
CONTINUOUS
 70
0
 71
3
 72
11
 73
7
 74
0
 42
0.0000001
 43
0.0000001
 44
0.0000000001
 40
0.0
 40
0.0
 40
0.0
 40
0.0
 40
0.2856039272
 40
0.5434287424
 40
0.7783030778
 40
1.0
 40
1.0
 40
1.0
 40
1.0
 10
38.0988080135
 20
120.1016822998
 30
0.0
 10
38.002868915
 20
120.1492899229
 30
0.0
 10
37.8126177832
 20
120.2258398531
 30
0.0
 10
37.5231538376
 20
120.2787987788
 30
0.0
 10
37.2526728039
 20
120.2604812185
 30
0.0
 10
37.0897382728
 20
120.1982571156
 30
0.0
 10
37.0177383244
 20
120.1566914788
 30
0.0
  0
SPLINE
  5
2CD
100
AcDbEntity
  8
0
100
AcDbSpline
 62
7
  6
CONTINUOUS
 70
0
 71
3
 72
9
 73
5
 74
0
 42
0.0000001
 43
0.0000001
 44
0.0000000001
 40
0.0
 40
0.0
 40
0.0
 40
0.0
 40
0.5116014614
 40
1.0
 40
1.0
 40
1.0
 40
1.0
 10
37.444930648
 20
121.435086216
 30
0.0
 10
37.780939052
 20
121.0073217493
 30
0.0
 10
38.4797915944
 20
120.2032414988
 30
0.0
 10
39.2620777704
 20
119.4791804706
 30
0.0
 10
39.6644609572
 20
119.1509401488
 30
0.0
  0
SPLINE
  5
2CE
100
AcDbEntity
  8
0
100
AcDbSpline
 62
7
  6
CONTINUOUS
 70
0
 71
3
 72
9
 73
5
 74
0
 42
0.0000001
 43
0.0000001
 44
0.0000000001
 40
0.0
 40
0.0
 40
0.0
 40
0.0
 40
0.2587668786
 40
1.0
 40
1.0
 40
1.0
 40
1.0
 10
39.6644609572
 20
119.1509401488
 30
0.0
 10
39.5360936173
 20
119.2432146699
 30
0.0
 10
39.0335602677
 20
119.5906371397
 30
0.0
 10
38.5044592198
 20
119.9003885804
 30
0.0
 10
38.0988080135
 20
120.1016822998
 30
0.0
  0
SPLINE
  5
2CF
100
AcDbEntity
  8
0
100
AcDbSpline
 62
7
  6
CONTINUOUS
 70
0
 71
3
 72
9
 73
5
 74
0
 42
0.0000001
 43
0.0000001
 44
0.0000000001
 40
0.0
 40
0.0
 40
0.0
 40
0.0
 40
0.4824222243
 40
1.0
 40
1.0
 40
1.0
 40
1.0
 10
31.9453927872
 20
116.5488168524
 30
0.0
 10
32.3242582033
 20
116.336434185
 30
0.0
 10
33.077954502
 20
115.8385212309
 30
0.0
 10
33.7654704025
 20
115.2540941551
 30
0.0
 10
34.1046117041
 20
114.9345246249
 30
0.0
  0
SPLINE
  5
2D0
100
AcDbEntity
  8
0
100
AcDbSpline
 62
7
  6
CONTINUOUS
 70
0
 71
3
 72
9
 73
5
 74
0
 42
0.0000001
 43
0.0000001
 44
0.0000000001
 40
0.0
 40
0.0
 40
0.0
 40
0.0
 40
0.2441315059
 40
1.0
 40
1.0
 40
1.0
 40
1.0
 10
31.3834953032
 20
113.4854676304
 30
0.0
 10
31.378799556
 20
113.4827547063
 30
0.0
 10
31.3601105188
 20
113.4707067772
 30
0.0
 10
31.34384078
 20
113.4550394225
 30
0.0
 10
31.3332660751
 20
113.4419970045
 30
0.0
  0
SPLINE
  5
2D1
100
AcDbEntity
  8
0
100
AcDbSpline
 62
7
  6
CONTINUOUS
 70
0
 71
3
 72
9
 73
5
 74
0
 42
0.0000001
 43
0.0000001
 44
0.0000000001
 40
0.0
 40
0.0
 40
0.0
 40
0.0
 40
0.2414025173
 40
1.0
 40
1.0
 40
1.0
 40
1.0
 10
31.3332660751
 20
113.4419970045
 30
0.0
 10
31.3303018105
 20
113.4383409991
 30
0.0
 10
31.3185412486
 20
113.4227776447
 30
0.0
 10
31.3088655261
 20
113.4056809927
 30
0.0
 10
31.3026346999
 20
113.3922667797
 30
0.0
  0
SPLINE
  5
2D2
100
AcDbEntity
  8
0
100
AcDbSpline
 62
7
  6
CONTINUOUS
 70
0
 71
3
 72
9
 73
5
 74
0
 42
0.0000001
 43
0.0000001
 44
0.0000000001
 40
0.0
 40
0.0
 40
0.0
 40
0.0
 40
0.2379404677
 40
1.0
 40
1.0
 40
1.0
 40
1.0
 10
31.2946744037
 20
113.3733811145
 30
0.0
 10
31.2921205589
 20
113.3666802522
 30
0.0
 10
31.282383449
 20
113.338140782
 30
0.0
 10
31.27641435
 20
113.3083826187
 30
0.0
 10
31.2735833672
 20
113.2855908769
 30
0.0
  0
SPLINE
  5
2D3
100
AcDbEntity
  8
0
100
AcDbSpline
 62
7
  6
CONTINUOUS
 70
0
 71
3
 72
9
 73
5
 74
0
 42
0.0000001
 43
0.0000001
 44
0.0000000001
 40
0.0
 40
0.0
 40
0.0
 40
0.0
 40
0.4731310469
 40
1.0
 40
1.0
 40
1.0
 40
1.0
 10
31.2735833672
 20
113.2855908769
 30
0.0
 10
31.265939873
 20
113.2240544566
 30
0.0
 10
31.2750695847
 20
113.090875007
 30
0.0
 10
31.3168756216
 20
112.9653652341
 30
0.0
 10
31.3460363201
 20
112.9027723335
 30
0.0
  0
SPLINE
  5
2D4
100
AcDbEntity
  8
0
100
AcDbSpline
 62
7
  6
CONTINUOUS
 70
0
 71
3
 72
11
 73
7
 74
0
 42
0.0000001
 43
0.0000001
 44
0.0000000001
 40
0.0
 40
0.0
 40
0.0
 40
0.0
 40
0.2257307527
 40
0.4607016605
 40
0.7165667854
 40
1.0
 40
1.0
 40
1.0
 40
1.0
 10
30.8991501028
 20
116.6240711136
 30
0.0
 10
30.9705457183
 20
116.665285779
 30
0.0
 10
31.1306734455
 20
116.7267635213
 30
0.0
 10
31.3955015792
 20
116.741638632
 30
0.0
 10
31.6746567239
 20
116.6818614342
 30
0.0
 10
31.8551012224
 20
116.5994324871
 30
0.0
 10
31.9453927872
 20
116.5488168524
 30
0.0
  0
SPLINE
  5
2D5
100
AcDbEntity
  8
0
100
AcDbSpline
 62
7
  6
CONTINUOUS
 70
0
 71
3
 72
11
 73
7
 74
0
 42
0.0000001
 43
0.0000001
 44
0.0000000001
 40
0.0
 40
0.0
 40
0.0
 40
0.0
 40
0.2372539654
 40
0.5000012591
 40
0.7627478695
 40
1.0
 40
1.0
 40
1.0
 40
1.0
 10
109.3734205045
 20
94.2461835799
 30
0.0
 10
109.3734205045
 20
94.362109463
 30
0.0
 10
109.3299562389
 20
94.6065824875
 30
0.0
 10
109.1783504836
 20
94.950058786
 30
0.0
 10
108.9566932455
 20
95.2530895854
 30
0.0
 10
108.7667053305
 20
95.4129652417
 30
0.0
 10
108.6663107794
 20
95.4709267515
 30
0.0
  0
SPLINE
  5
2D6
100
AcDbEntity
  8
0
100
AcDbSpline
 62
7
  6
CONTINUOUS
 70
0
 71
3
 72
13
 73
9
 74
0
 42
0.0000001
 43
0.0000001
 44
0.0000000001
 40
0.0
 40
0.0
 40
0.0
 40
0.0
 40
0.1142259181
 40
0.2375599982
 40
0.5000010158
 40
0.7624414734
 40
0.8857749255
 40
1.0
 40
1.0
 40
1.0
 40
1.0
 10
96.7161564244
 20
113.9645298261
 30
0.0
 10
96.7161564244
 20
114.0762907662
 30
0.0
 10
96.6956523197
 20
114.3089556445
 30
0.0
 10
96.5845088409
 20
114.7865775676
 30
0.0
 10
96.3262015348
 20
115.3723864425
 30
0.0
 10
95.9480278591
 20
115.8889894776
 30
0.0
 10
95.5899661883
 20
116.2240498986
 30
0.0
 10
95.3987246199
 20
116.3581370602
 30
0.0
 10
95.3019369741
 20
116.4140161694
 30
0.0
  0
SPLINE
  5
2D7
100
AcDbEntity
  8
0
100
AcDbSpline
 62
7
  6
CONTINUOUS
 70
0
 71
3
 72
18
 73
14
 74
0
 42
0.0000001
 43
0.0000001
 44
0.0000000001
 40
0.0
 40
0.0
 40
0.0
 40
0.0
 40
0.1508796926
 40
0.301375005
 40
0.4466597065
 40
0.5824145659
 40
0.7054545756
 40
0.7617797413
 40
0.8146244854
 40
0.86425907
 40
0.9111797343
 40
0.9561109916
 40
1.0
 40
1.0
 40
1.0
 40
1.0
 10
79.1137585638
 20
125.7600538967
 30
0.0
 10
78.9025081504
 20
126.2544121273
 30
0.0
 10
78.4147773125
 20
127.2150370272
 30
0.0
 10
77.5186495661
 20
128.535200053
 30
0.0
 10
76.4927780674
 20
129.687253784
 30
0.0
 10
75.3857712797
 20
130.6162531652
 30
0.0
 10
74.4085327562
 20
131.1851410571
 30
0.0
 10
73.632919764
 20
131.478163779
 30
0.0
 10
73.0814102233
 20
131.6118813182
 30
0.0
 10
72.5496725935
 20
131.6640123127
 30
0.0
 10
72.0440793344
 20
131.6332027895
 30
0.0
 10
71.5714278746
 20
131.5190515626
 30
0.0
 10
71.2811931955
 20
131.3871894585
 30
0.0
 10
71.1457706209
 20
131.3089844145
 30
0.0
  0
SPLINE
  5
2D8
100
AcDbEntity
  8
0
100
AcDbSpline
 62
7
  6
CONTINUOUS
 70
0
 71
3
 72
18
 73
14
 74
0
 42
0.0000001
 43
0.0000001
 44
0.0000000001
 40
0.0
 40
0.0
 40
0.0
 40
0.0
 40
0.0428462914
 40
0.087462922
 40
0.1352816559
 40
0.1872331101
 40
0.2437231175
 40
0.3047270773
 40
0.438359669
 40
0.5826660937
 40
0.7297883324
 40
0.8713403307
 40
1.0
 40
1.0
 40
1.0
 40
1.0
 10
94.9193592118
 20
94.1032901387
 30
0.0
 10
94.9193766703
 20
94.0008122806
 30
0.0
 10
94.9467278322
 20
93.7907248508
 30
0.0
 10
95.0672808556
 20
93.4874149842
 30
0.0
 10
95.2627213121
 20
93.1998107154
 30
0.0
 10
95.5277373343
 20
92.9337473376
 30
0.0
 10
95.8560787665
 20
92.6937846772
 30
0.0
 10
96.3850107628
 20
92.4062079858
 30
0.0
 10
97.1600718254
 20
92.1473421041
 30
0.0
 10
98.1714285456
 20
92.005333412
 30
0.0
 10
99.2116948497
 20
92.0340868581
 30
0.0
 10
100.1950518432
 20
92.230805802
 30
0.0
 10
100.7984374502
 20
92.4797628668
 30
0.0
 10
101.0649333422
 20
92.6336234233
 30
0.0
  0
SPLINE
  5
2D9
100
AcDbEntity
  8
0
100
AcDbSpline
 62
7
  6
CONTINUOUS
 70
0
 71
3
 72
11
 73
7
 74
0
 42
0.0000001
 43
0.0000001
 44
0.0000000001
 40
0.0
 40
0.0
 40
0.0
 40
0.0
 40
0.2897468179
 40
0.5490793544
 40
0.7822221277
 40
1.0
 40
1.0
 40
1.0
 40
1.0
 10
100.5699777312
 20
67.5262298102
 30
0.0
 10
100.5699777312
 20
67.3437961395
 30
0.0
 10
100.5975913479
 20
66.9968989034
 30
0.0
 10
100.7381302258
 20
66.5202859623
 30
0.0
 10
100.9746576717
 20
66.1335724766
 30
0.0
 10
101.1968309774
 20
65.9467562564
 30
0.0
 10
101.3155925295
 20
65.8782177656
 30
0.0
  0
SPLINE
  5
2DA
100
AcDbEntity
  8
0
100
AcDbSpline
 62
7
  6
CONTINUOUS
 70
0
 71
3
 72
9
 73
5
 74
0
 42
0.0000001
 43
0.0000001
 44
0.0000000001
 40
0.0
 40
0.0
 40
0.0
 40
0.0
 40
0.5115924809
 40
1.0
 40
1.0
 40
1.0
 40
1.0
 10
60.5661907138
 20
125.2187757864
 30
0.0
 10
60.3185960085
 20
125.217202311
 30
0.0
 10
59.8324474992
 20
125.1599952664
 30
0.0
 10
59.3771937997
 20
124.9763344044
 30
0.0
 10
59.1724871517
 20
124.8581393507
 30
0.0
  0
SPLINE
  5
2DB
100
AcDbEntity
  8
0
100
AcDbSpline
 62
7
  6
CONTINUOUS
 70
0
 71
3
 72
11
 73
7
 74
0
 42
0.0000001
 43
0.0000001
 44
0.0000000001
 40
0.0
 40
0.0
 40
0.0
 40
0.0
 40
0.2897473347
 40
0.5490799298
 40
0.7822224743
 40
1.0
 40
1.0
 40
1.0
 40
1.0
 10
101.0649333422
 20
92.6336234233
 30
0.0
 10
101.2229201867
 20
92.724836626
 30
0.0
 10
101.5095255432
 20
92.9221911196
 30
0.0
 10
101.8520044838
 20
93.2821925907
 30
0.0
 10
102.0686392194
 20
93.6803713423
 30
0.0
 10
102.1193408108
 20
93.9661756836
 30
0.0
 10
102.1193174516
 20
94.1032901405
 30
0.0
  0
SPLINE
  5
2DC
100
AcDbEntity
  8
0
100
AcDbSpline
 62
7
  6
CONTINUOUS
 70
0
 71
3
 72
18
 73
14
 74
0
 42
0.0000001
 43
0.0000001
 44
0.0000000001
 40
0.0
 40
0.0
 40
0.0
 40
0.0
 40
0.0428468435
 40
0.0874639365
 40
0.1352829812
 40
0.1872345715
 40
0.2437245479
 40
0.3047283323
 40
0.4383602832
 40
0.5826659571
 40
0.7297876663
 40
0.8713396455
 40
1.0
 40
1.0
 40
1.0
 40
1.0
 10
101.3155925295
 20
65.8782177656
 30
0.0
 10
101.4043510522
 20
65.8269943261
 30
0.0
 10
101.5999697384
 20
65.7456380258
 30
0.0
 10
101.9229223853
 20
65.6983850696
 30
0.0
 10
102.2697163156
 20
65.723838605
 30
0.0
 10
102.6326421274
 20
65.8203161902
 30
0.0
 10
103.0046258296
 20
65.9846850713
 30
0.0
 10
103.518138016
 20
66.2989619233
 30
0.0
 10
104.1298487505
 20
66.8407469678
 30
0.0
 10
104.7585041095
 20
67.6455982516
 30
0.0
 10
105.2537296213
 20
68.5608683158
 30
0.0
 10
105.5750388951
 20
69.5108389093
 30
0.0
 10
105.6611253591
 20
70.1578645587
 30
0.0
 10
105.6611253591
 20
70.4655877181
 30
0.0
  0
SPLINE
  5
2DD
100
AcDbEntity
  8
0
100
AcDbSpline
 62
7
  6
CONTINUOUS
 70
0
 71
3
 72
18
 73
14
 74
0
 42
0.0000001
 43
0.0000001
 44
0.0000000001
 40
0.0
 40
0.0
 40
0.0
 40
0.0
 40
0.0428462914
 40
0.087462922
 40
0.1352816559
 40
0.1872331101
 40
0.2437231175
 40
0.3047270773
 40
0.438359669
 40
0.5826660937
 40
0.7297883324
 40
0.8713403307
 40
1.0
 40
1.0
 40
1.0
 40
1.0
 10
102.1193174516
 20
94.1032901405
 30
0.0
 10
102.1192999932
 20
94.2057679986
 30
0.0
 10
102.0919488313
 20
94.4158554284
 30
0.0
 10
101.9713958079
 20
94.719165295
 30
0.0
 10
101.7759553514
 20
95.0067695638
 30
0.0
 10
101.5109393292
 20
95.2728329416
 30
0.0
 10
101.182597897
 20
95.512795602
 30
0.0
 10
100.6536659006
 20
95.8003722935
 30
0.0
 10
99.8786048381
 20
96.0592381751
 30
0.0
 10
98.8672481179
 20
96.2012468672
 30
0.0
 10
97.8269818137
 20
96.1724934211
 30
0.0
 10
96.8436248202
 20
95.9757744772
 30
0.0
 10
96.2402392132
 20
95.7268174124
 30
0.0
 10
95.9737433212
 20
95.5729568559
 30
0.0
  0
SPLINE
  5
2DE
100
AcDbEntity
  8
0
100
AcDbSpline
 62
7
  6
CONTINUOUS
 70
0
 71
3
 72
9
 73
5
 74
0
 42
0.0000001
 43
0.0000001
 44
0.0000000001
 40
0.0
 40
0.0
 40
0.0
 40
0.0
 40
0.5128471428
 40
1.0
 40
1.0
 40
1.0
 40
1.0
 10
63.0398905706
 20
126.1594574776
 30
0.0
 10
62.7904839756
 20
126.1643285222
 30
0.0
 10
62.3002237368
 20
126.1176990762
 30
0.0
 10
61.8404232473
 20
125.9365973979
 30
0.0
 10
61.6352211822
 20
125.8181054194
 30
0.0
  0
SPLINE
  5
2DF
100
AcDbEntity
  8
0
100
AcDbSpline
 62
7
  6
CONTINUOUS
 70
0
 71
3
 72
9
 73
5
 74
0
 42
0.0000001
 43
0.0000001
 44
0.0000000001
 40
0.0
 40
0.0
 40
0.0
 40
0.0
 40
0.4955866262
 40
1.0
 40
1.0
 40
1.0
 40
1.0
 10
58.6300327022
 20
124.083062891
 30
0.0
 10
58.7471289703
 20
124.150684695
 30
0.0
 10
58.9953102397
 20
124.2674467099
 30
0.0
 10
59.2591394341
 20
124.3419548134
 30
0.0
 10
59.3940624711
 20
124.3691049367
 30
0.0
  0
SPLINE
  5
2E0
100
AcDbEntity
  8
0
100
AcDbSpline
 62
7
  6
CONTINUOUS
 70
0
 71
3
 72
9
 73
5
 74
0
 42
0.0000001
 43
0.0000001
 44
0.0000000001
 40
0.0
 40
0.0
 40
0.0
 40
0.0
 40
0.4734017282
 40
1.0
 40
1.0
 40
1.0
 40
1.0
 10
59.3940624711
 20
124.3691049367
 30
0.0
 10
59.6876866407
 20
124.4281899719
 30
0.0
 10
60.3307840349
 20
124.4486030459
 30
0.0
 10
60.9520572173
 20
124.2995078419
 30
0.0
 10
61.2668885874
 20
124.1905084867
 30
0.0
  0
SPLINE
  5
2E1
100
AcDbEntity
  8
0
100
AcDbSpline
 62
7
  6
CONTINUOUS
 70
0
 71
3
 72
9
 73
5
 74
0
 42
0.0000001
 43
0.0000001
 44
0.0000000001
 40
0.0
 40
0.0
 40
0.0
 40
0.0
 40
0.5002190397
 40
1.0
 40
1.0
 40
1.0
 40
1.0
 10
65.1659715811
 20
121.0367670459
 30
0.0
 10
65.451809164
 20
120.649199536
 30
0.0
 10
65.9779273612
 20
119.8401027657
 30
0.0
 10
66.408953162
 20
118.976579159
 30
0.0
 10
66.5980206451
 20
118.5341323732
 30
0.0
  0
SPLINE
  5
2E2
100
AcDbEntity
  8
0
100
AcDbSpline
 62
7
  6
CONTINUOUS
 70
0
 71
3
 72
11
 73
7
 74
0
 42
0.0000001
 43
0.0000001
 44
0.0000000001
 40
0.0
 40
0.0
 40
0.0
 40
0.0
 40
0.2897473347
 40
0.5490799298
 40
0.7822224743
 40
1.0
 40
1.0
 40
1.0
 40
1.0
 10
95.9737433212
 20
95.5729568559
 30
0.0
 10
95.8157564768
 20
95.4817436532
 30
0.0
 10
95.5291511202
 20
95.2843891596
 30
0.0
 10
95.1866721796
 20
94.9243876885
 30
0.0
 10
94.970037444
 20
94.5262089369
 30
0.0
 10
94.9193358526
 20
94.2404045957
 30
0.0
 10
94.9193592118
 20
94.1032901387
 30
0.0
  0
SPLINE
  5
2E3
100
AcDbEntity
  8
0
100
AcDbSpline
 62
7
  6
CONTINUOUS
 70
0
 71
3
 72
9
 73
5
 74
0
 42
0.0000001
 43
0.0000001
 44
0.0000000001
 40
0.0
 40
0.0
 40
0.0
 40
0.0
 40
0.4755207211
 40
1.0
 40
1.0
 40
1.0
 40
1.0
 10
96.1505728607
 20
88.245005228
 30
0.0
 10
96.2298790131
 20
88.1992188354
 30
0.0
 10
96.3831001384
 20
88.0791303995
 30
0.0
 10
96.5082684513
 20
87.9312269225
 30
0.0
 10
96.5664890858
 20
87.8486927544
 30
0.0
  0
SPLINE
  5
2E4
100
AcDbEntity
  8
0
100
AcDbSpline
 62
7
  6
CONTINUOUS
 70
0
 71
3
 72
9
 73
5
 74
0
 42
0.0000001
 43
0.0000001
 44
0.0000000001
 40
0.0
 40
0.0
 40
0.0
 40
0.0
 40
0.52447847
 40
1.0
 40
1.0
 40
1.0
 40
1.0
 10
96.7224197227
 20
87.5786144584
 30
0.0
 10
96.7647867304
 20
87.4869267047
 30
0.0
 10
96.8302920067
 20
87.3045753984
 30
0.0
 10
96.8576825858
 20
87.1118370349
 30
0.0
 10
96.8576825858
 20
87.0202620563
 30
0.0
  0
SPLINE
  5
2E5
100
AcDbEntity
  8
0
100
AcDbSpline
 62
7
  6
CONTINUOUS
 70
0
 71
3
 72
9
 73
5
 74
0
 42
0.0000001
 43
0.0000001
 44
0.0000000001
 40
0.0
 40
0.0
 40
0.0
 40
0.0
 40
0.4773767186
 40
1.0
 40
1.0
 40
1.0
 40
1.0
 10
82.7861990554
 20
109.1880946459
 30
0.0
 10
82.9171374296
 20
109.1124990505
 30
0.0
 10
83.1729567016
 20
108.9215664243
 30
0.0
 10
83.3903774555
 20
108.6892217026
 30
0.0
 10
83.4940289545
 20
108.5601689539
 30
0.0
  0
SPLINE
  5
2E6
100
AcDbEntity
  8
0
100
AcDbSpline
 62
7
  6
CONTINUOUS
 70
0
 71
3
 72
9
 73
5
 74
0
 42
0.0000001
 43
0.0000001
 44
0.0000000001
 40
0.0
 40
0.0
 40
0.0
 40
0.0
 40
0.2518831225
 40
1.0
 40
1.0
 40
1.0
 40
1.0
 10
83.786198231
 20
108.1324561074
 30
0.0
 10
83.8079551301
 20
108.094772255
 30
0.0
 10
83.8914819778
 20
107.9435407447
 30
0.0
 10
83.9637274143
 20
107.7860428684
 30
0.0
 10
84.0105264145
 20
107.6655740772
 30
0.0
  0
SPLINE
  5
2E7
100
AcDbEntity
  8
0
100
AcDbSpline
 62
7
  6
CONTINUOUS
 70
0
 71
3
 72
9
 73
5
 74
0
 42
0.0000001
 43
0.0000001
 44
0.0000000001
 40
0.0
 40
0.0
 40
0.0
 40
0.0
 40
0.5226225496
 40
1.0
 40
1.0
 40
1.0
 40
1.0
 10
84.0105264145
 20
107.6655740772
 30
0.0
 10
84.0704646932
 20
107.5112824912
 30
0.0
 10
84.1629729869
 20
107.2068169825
 30
0.0
 10
84.2004185057
 20
106.8898031798
 30
0.0
 10
84.2004185057
 20
106.7386083026
 30
0.0
  0
SPLINE
  5
2E8
100
AcDbEntity
  8
0
100
AcDbSpline
 62
7
  6
CONTINUOUS
 70
0
 71
3
 72
11
 73
7
 74
0
 42
0.0000001
 43
0.0000001
 44
0.0000000001
 40
0.0
 40
0.0
 40
0.0
 40
0.0
 40
0.2372539654
 40
0.5000012591
 40
0.7627478695
 40
1.0
 40
1.0
 40
1.0
 40
1.0
 10
96.8576825858
 20
87.0202620563
 30
0.0
 10
96.8576825858
 20
87.1361879395
 30
0.0
 10
96.8142183202
 20
87.380660964
 30
0.0
 10
96.662612565
 20
87.7241372625
 30
0.0
 10
96.4409553268
 20
88.0271680619
 30
0.0
 10
96.2509674118
 20
88.1870437182
 30
0.0
 10
96.1505728607
 20
88.245005228
 30
0.0
  0
SPLINE
  5
2E9
100
AcDbEntity
  8
0
100
AcDbSpline
 62
7
  6
CONTINUOUS
 70
0
 71
3
 72
13
 73
9
 74
0
 42
0.0000001
 43
0.0000001
 44
0.0000000001
 40
0.0
 40
0.0
 40
0.0
 40
0.0
 40
0.1142259181
 40
0.2375599982
 40
0.5000010158
 40
0.7624414734
 40
0.8857749255
 40
1.0
 40
1.0
 40
1.0
 40
1.0
 10
84.2004185057
 20
106.7386083026
 30
0.0
 10
84.2004185057
 20
106.8503692426
 30
0.0
 10
84.179914401
 20
107.0830341209
 30
0.0
 10
84.0687709222
 20
107.5606560441
 30
0.0
 10
83.8104636161
 20
108.146464919
 30
0.0
 10
83.4322899405
 20
108.6630679541
 30
0.0
 10
83.0742282696
 20
108.9981283751
 30
0.0
 10
82.8829867012
 20
109.1322155367
 30
0.0
 10
82.7861990554
 20
109.1880946459
 30
0.0
  0
SPLINE
  5
2EA
100
AcDbEntity
  8
0
100
AcDbSpline
 62
7
  6
CONTINUOUS
 70
0
 71
3
 72
18
 73
14
 74
0
 42
0.0000001
 43
0.0000001
 44
0.0000000001
 40
0.0
 40
0.0
 40
0.0
 40
0.0
 40
0.1508796926
 40
0.301375005
 40
0.4466597065
 40
0.5824145659
 40
0.7054545756
 40
0.7617797413
 40
0.8146244854
 40
0.86425907
 40
0.9111797343
 40
0.9561109916
 40
1.0
 40
1.0
 40
1.0
 40
1.0
 10
66.5980206451
 20
118.5341323732
 30
0.0
 10
66.3867702317
 20
119.0284906038
 30
0.0
 10
65.8990393938
 20
119.9891155036
 30
0.0
 10
65.0029116475
 20
121.3092785295
 30
0.0
 10
63.9770401487
 20
122.4613322604
 30
0.0
 10
62.870033361
 20
123.3903316417
 30
0.0
 10
61.8927948375
 20
123.9592195336
 30
0.0
 10
61.1171818454
 20
124.2522422555
 30
0.0
 10
60.5656723046
 20
124.3859597947
 30
0.0
 10
60.0339346748
 20
124.4380907892
 30
0.0
 10
59.5283414158
 20
124.4072812659
 30
0.0
 10
59.0556899559
 20
124.2931300391
 30
0.0
 10
58.7654552768
 20
124.161267935
 30
0.0
 10
58.6300327022
 20
124.083062891
 30
0.0
  0
SPLINE
  5
2EB
100
AcDbEntity
  8
0
100
AcDbSpline
 62
7
  6
CONTINUOUS
 70
0
 71
3
 72
18
 73
14
 74
0
 42
0.0000001
 43
0.0000001
 44
0.0000000001
 40
0.0
 40
0.0
 40
0.0
 40
0.0
 40
0.0428462914
 40
0.087462922
 40
0.1352816559
 40
0.1872331101
 40
0.2437231175
 40
0.3047270773
 40
0.438359669
 40
0.5826660937
 40
0.7297883324
 40
0.8713403307
 40
1.0
 40
1.0
 40
1.0
 40
1.0
 10
82.4036212932
 20
86.8773686152
 30
0.0
 10
82.4036387516
 20
86.7748907571
 30
0.0
 10
82.4309899135
 20
86.5648033273
 30
0.0
 10
82.5515429369
 20
86.2614934607
 30
0.0
 10
82.7469833934
 20
85.9738891919
 30
0.0
 10
83.0119994156
 20
85.7078258141
 30
0.0
 10
83.3403408478
 20
85.4678631537
 30
0.0
 10
83.8692728442
 20
85.1802864622
 30
0.0
 10
84.6443339067
 20
84.9214205806
 30
0.0
 10
85.6556906269
 20
84.7794118885
 30
0.0
 10
86.695956931
 20
84.8081653346
 30
0.0
 10
87.6793139245
 20
85.0048842785
 30
0.0
 10
88.2826995316
 20
85.2538413433
 30
0.0
 10
88.5491954236
 20
85.4077018998
 30
0.0
  0
SPLINE
  5
2EC
100
AcDbEntity
  8
0
100
AcDbSpline
 62
7
  6
CONTINUOUS
 70
0
 71
3
 72
11
 73
7
 74
0
 42
0.0000001
 43
0.0000001
 44
0.0000000001
 40
0.0
 40
0.0
 40
0.0
 40
0.0
 40
0.2897468179
 40
0.5490793544
 40
0.7822221277
 40
1.0
 40
1.0
 40
1.0
 40
1.0
 10
88.0542398125
 20
60.3003082867
 30
0.0
 10
88.0542398125
 20
60.1178746159
 30
0.0
 10
88.0818534293
 20
59.7709773798
 30
0.0
 10
88.2223923071
 20
59.2943644387
 30
0.0
 10
88.458919753
 20
58.9076509531
 30
0.0
 10
88.6810930587
 20
58.7208347328
 30
0.0
 10
88.7998546108
 20
58.6522962421
 30
0.0
  0
SPLINE
  5
2ED
100
AcDbEntity
  8
0
100
AcDbSpline
 62
7
  6
CONTINUOUS
 70
0
 71
3
 72
9
 73
5
 74
0
 42
0.0000001
 43
0.0000001
 44
0.0000000001
 40
0.0
 40
0.0
 40
0.0
 40
0.0
 40
0.5115924809
 40
1.0
 40
1.0
 40
1.0
 40
1.0
 10
48.0504527951
 20
117.9928542629
 30
0.0
 10
47.8028580898
 20
117.9912807875
 30
0.0
 10
47.3167095805
 20
117.9340737428
 30
0.0
 10
46.8614558811
 20
117.7504128809
 30
0.0
 10
46.656749233
 20
117.6322178272
 30
0.0
  0
SPLINE
  5
2EE
100
AcDbEntity
  8
0
100
AcDbSpline
 62
7
  6
CONTINUOUS
 70
0
 71
3
 72
11
 73
7
 74
0
 42
0.0000001
 43
0.0000001
 44
0.0000000001
 40
0.0
 40
0.0
 40
0.0
 40
0.0
 40
0.2897473347
 40
0.5490799298
 40
0.7822224743
 40
1.0
 40
1.0
 40
1.0
 40
1.0
 10
88.5491954236
 20
85.4077018998
 30
0.0
 10
88.707182268
 20
85.4989151025
 30
0.0
 10
88.9937876245
 20
85.6962695961
 30
0.0
 10
89.3362665651
 20
86.0562710672
 30
0.0
 10
89.5529013007
 20
86.4544498188
 30
0.0
 10
89.6036028921
 20
86.74025416
 30
0.0
 10
89.6035795329
 20
86.877368617
 30
0.0
  0
SPLINE
  5
2EF
100
AcDbEntity
  8
0
100
AcDbSpline
 62
7
  6
CONTINUOUS
 70
0
 71
3
 72
18
 73
14
 74
0
 42
0.0000001
 43
0.0000001
 44
0.0000000001
 40
0.0
 40
0.0
 40
0.0
 40
0.0
 40
0.0428468435
 40
0.0874639365
 40
0.1352829812
 40
0.1872345715
 40
0.2437245479
 40
0.3047283323
 40
0.4383602832
 40
0.5826659571
 40
0.7297876663
 40
0.8713396455
 40
1.0
 40
1.0
 40
1.0
 40
1.0
 10
88.7998546108
 20
58.6522962421
 30
0.0
 10
88.8886131335
 20
58.6010728026
 30
0.0
 10
89.0842318197
 20
58.5197165023
 30
0.0
 10
89.4071844666
 20
58.4724635461
 30
0.0
 10
89.7539783969
 20
58.4979170815
 30
0.0
 10
90.1169042088
 20
58.5943946666
 30
0.0
 10
90.488887911
 20
58.7587635478
 30
0.0
 10
91.0024000973
 20
59.0730403998
 30
0.0
 10
91.6141108318
 20
59.6148254443
 30
0.0
 10
92.2427661908
 20
60.419676728
 30
0.0
 10
92.7379917026
 20
61.3349467922
 30
0.0
 10
93.0593009764
 20
62.2849173858
 30
0.0
 10
93.1453874405
 20
62.9319430352
 30
0.0
 10
93.1453874405
 20
63.2396661946
 30
0.0
  0
SPLINE
  5
2F0
100
AcDbEntity
  8
0
100
AcDbSpline
 62
7
  6
CONTINUOUS
 70
0
 71
3
 72
18
 73
14
 74
0
 42
0.0000001
 43
0.0000001
 44
0.0000000001
 40
0.0
 40
0.0
 40
0.0
 40
0.0
 40
0.0428462914
 40
0.087462922
 40
0.1352816559
 40
0.1872331101
 40
0.2437231175
 40
0.3047270773
 40
0.438359669
 40
0.5826660937
 40
0.7297883324
 40
0.8713403307
 40
1.0
 40
1.0
 40
1.0
 40
1.0
 10
89.6035795329
 20
86.877368617
 30
0.0
 10
89.6035620745
 20
86.9798464751
 30
0.0
 10
89.5762109126
 20
87.1899339049
 30
0.0
 10
89.4556578892
 20
87.4932437715
 30
0.0
 10
89.2602174327
 20
87.7808480403
 30
0.0
 10
88.9952014105
 20
88.0469114181
 30
0.0
 10
88.6668599783
 20
88.2868740785
 30
0.0
 10
88.1379279819
 20
88.5744507699
 30
0.0
 10
87.3628669194
 20
88.8333166516
 30
0.0
 10
86.3515101992
 20
88.9753253437
 30
0.0
 10
85.3112438951
 20
88.9465718976
 30
0.0
 10
84.3278869016
 20
88.7498529537
 30
0.0
 10
83.7245012945
 20
88.5008958889
 30
0.0
 10
83.4580054025
 20
88.3470353324
 30
0.0
  0
SPLINE
  5
2F1
100
AcDbEntity
  8
0
100
AcDbSpline
 62
7
  6
CONTINUOUS
 70
0
 71
3
 72
9
 73
5
 74
0
 42
0.0000001
 43
0.0000001
 44
0.0000000001
 40
0.0
 40
0.0
 40
0.0
 40
0.0
 40
0.5128471428
 40
1.0
 40
1.0
 40
1.0
 40
1.0
 10
50.5241526519
 20
118.933535954
 30
0.0
 10
50.2747460569
 20
118.9384069987
 30
0.0
 10
49.7844858181
 20
118.8917775527
 30
0.0
 10
49.3246853286
 20
118.7106758744
 30
0.0
 10
49.1194832635
 20
118.5921838958
 30
0.0
  0
SPLINE
  5
2F2
100
AcDbEntity
  8
0
100
AcDbSpline
 62
7
  6
CONTINUOUS
 70
0
 71
3
 72
9
 73
5
 74
0
 42
0.0000001
 43
0.0000001
 44
0.0000000001
 40
0.0
 40
0.0
 40
0.0
 40
0.0
 40
0.4955866262
 40
1.0
 40
1.0
 40
1.0
 40
1.0
 10
46.1142947836
 20
116.8571413675
 30
0.0
 10
46.2313910516
 20
116.9247631715
 30
0.0
 10
46.479572321
 20
117.0415251863
 30
0.0
 10
46.7434015154
 20
117.1160332899
 30
0.0
 10
46.8783245525
 20
117.1431834132
 30
0.0
  0
SPLINE
  5
2F3
100
AcDbEntity
  8
0
100
AcDbSpline
 62
7
  6
CONTINUOUS
 70
0
 71
3
 72
9
 73
5
 74
0
 42
0.0000001
 43
0.0000001
 44
0.0000000001
 40
0.0
 40
0.0
 40
0.0
 40
0.0
 40
0.4734017282
 40
1.0
 40
1.0
 40
1.0
 40
1.0
 10
46.8783245525
 20
117.1431834132
 30
0.0
 10
47.171948722
 20
117.2022684484
 30
0.0
 10
47.8150461162
 20
117.2226815223
 30
0.0
 10
48.4363192986
 20
117.0735863184
 30
0.0
 10
48.7511506687
 20
116.9645869632
 30
0.0
  0
SPLINE
  5
2F4
100
AcDbEntity
  8
0
100
AcDbSpline
 62
7
  6
CONTINUOUS
 70
0
 71
3
 72
9
 73
5
 74
0
 42
0.0000001
 43
0.0000001
 44
0.0000000001
 40
0.0
 40
0.0
 40
0.0
 40
0.0
 40
0.5002190397
 40
1.0
 40
1.0
 40
1.0
 40
1.0
 10
52.6502336625
 20
113.8108455223
 30
0.0
 10
52.9360712454
 20
113.4232780124
 30
0.0
 10
53.4621894425
 20
112.6141812422
 30
0.0
 10
53.8932152433
 20
111.7506576355
 30
0.0
 10
54.0822827264
 20
111.3082108497
 30
0.0
  0
SPLINE
  5
2F5
100
AcDbEntity
  8
0
100
AcDbSpline
 62
7
  6
CONTINUOUS
 70
0
 71
3
 72
11
 73
7
 74
0
 42
0.0000001
 43
0.0000001
 44
0.0000000001
 40
0.0
 40
0.0
 40
0.0
 40
0.0
 40
0.2897473347
 40
0.5490799298
 40
0.7822224743
 40
1.0
 40
1.0
 40
1.0
 40
1.0
 10
83.4580054025
 20
88.3470353324
 30
0.0
 10
83.3000185581
 20
88.2558221297
 30
0.0
 10
83.0134132015
 20
88.0584676361
 30
0.0
 10
82.670934261
 20
87.698466165
 30
0.0
 10
82.4542995254
 20
87.3002874134
 30
0.0
 10
82.4035979339
 20
87.0144830721
 30
0.0
 10
82.4036212932
 20
86.8773686152
 30
0.0
  0
SPLINE
  5
2F6
100
AcDbEntity
  8
0
100
AcDbSpline
 62
7
  6
CONTINUOUS
 70
0
 71
3
 72
9
 73
5
 74
0
 42
0.0000001
 43
0.0000001
 44
0.0000000001
 40
0.0
 40
0.0
 40
0.0
 40
0.0
 40
0.4755207211
 40
1.0
 40
1.0
 40
1.0
 40
1.0
 10
83.634834942
 20
81.0190837045
 30
0.0
 10
83.7141410944
 20
80.9732973119
 30
0.0
 10
83.8673622197
 20
80.853208876
 30
0.0
 10
83.9925305327
 20
80.705305399
 30
0.0
 10
84.0507511671
 20
80.6227712309
 30
0.0
  0
SPLINE
  5
2F7
100
AcDbEntity
  8
0
100
AcDbSpline
 62
7
  6
CONTINUOUS
 70
0
 71
3
 72
9
 73
5
 74
0
 42
0.0000001
 43
0.0000001
 44
0.0000000001
 40
0.0
 40
0.0
 40
0.0
 40
0.0
 40
0.52447847
 40
1.0
 40
1.0
 40
1.0
 40
1.0
 10
84.2066818041
 20
80.3526929348
 30
0.0
 10
84.2490488117
 20
80.2610051811
 30
0.0
 10
84.3145540881
 20
80.0786538749
 30
0.0
 10
84.3419446671
 20
79.8859155114
 30
0.0
 10
84.3419446671
 20
79.7943405328
 30
0.0
  0
SPLINE
  5
2F8
100
AcDbEntity
  8
0
100
AcDbSpline
 62
7
  6
CONTINUOUS
 70
0
 71
3
 72
9
 73
5
 74
0
 42
0.0000001
 43
0.0000001
 44
0.0000000001
 40
0.0
 40
0.0
 40
0.0
 40
0.0
 40
0.7471535551
 40
1.0
 40
1.0
 40
1.0
 40
1.0
 10
27.4146188149
 20
113.2379309827
 30
0.0
 10
27.4342440227
 20
113.2492615295
 30
0.0
 10
27.4621751013
 20
113.2617835857
 30
0.0
 10
27.4912513247
 20
113.2704391369
 30
0.0
 10
27.4986680479
 20
113.2723893651
 30
0.0
  0
SPLINE
  5
2F9
100
AcDbEntity
  8
0
100
AcDbSpline
 62
7
  6
CONTINUOUS
 70
0
 71
3
 72
9
 73
5
 74
0
 42
0.0000001
 43
0.0000001
 44
0.0000000001
 40
0.0
 40
0.0
 40
0.0
 40
0.0
 40
0.4773767186
 40
1.0
 40
1.0
 40
1.0
 40
1.0
 10
70.2704611367
 20
101.9621731224
 30
0.0
 10
70.401399511
 20
101.886577527
 30
0.0
 10
70.6572187829
 20
101.6956449008
 30
0.0
 10
70.8746395368
 20
101.463300179
 30
0.0
 10
70.9782910358
 20
101.3342474303
 30
0.0
  0
SPLINE
  5
2FA
100
AcDbEntity
  8
0
100
AcDbSpline
 62
7
  6
CONTINUOUS
 70
0
 71
3
 72
9
 73
5
 74
0
 42
0.0000001
 43
0.0000001
 44
0.0000000001
 40
0.0
 40
0.0
 40
0.0
 40
0.0
 40
0.2518831225
 40
1.0
 40
1.0
 40
1.0
 40
1.0
 10
71.2704603092
 20
100.9065345892
 30
0.0
 10
71.2922172086
 20
100.8688507364
 30
0.0
 10
71.3757440576
 20
100.7176192245
 30
0.0
 10
71.447989495
 20
100.5601213463
 30
0.0
 10
71.4947884958
 20
100.4396525537
 30
0.0
  0
SPLINE
  5
2FB
100
AcDbEntity
  8
0
100
AcDbSpline
 62
7
  6
CONTINUOUS
 70
0
 71
3
 72
9
 73
5
 74
0
 42
0.0000001
 43
0.0000001
 44
0.0000000001
 40
0.0
 40
0.0
 40
0.0
 40
0.0
 40
0.5226225496
 40
1.0
 40
1.0
 40
1.0
 40
1.0
 10
71.4947884958
 20
100.4396525537
 30
0.0
 10
71.5547267745
 20
100.2853609677
 30
0.0
 10
71.6472350683
 20
99.980895459
 30
0.0
 10
71.684680587
 20
99.6638816562
 30
0.0
 10
71.684680587
 20
99.5126867791
 30
0.0
  0
SPLINE
  5
2FC
100
AcDbEntity
  8
0
100
AcDbSpline
 62
7
  6
CONTINUOUS
 70
0
 71
3
 72
11
 73
7
 74
0
 42
0.0000001
 43
0.0000001
 44
0.0000000001
 40
0.0
 40
0.0
 40
0.0
 40
0.0
 40
0.2372539654
 40
0.5000012591
 40
0.7627478695
 40
1.0
 40
1.0
 40
1.0
 40
1.0
 10
84.3419446671
 20
79.7943405328
 30
0.0
 10
84.3419446671
 20
79.9102664159
 30
0.0
 10
84.2984804015
 20
80.1547394405
 30
0.0
 10
84.1468746463
 20
80.4982157389
 30
0.0
 10
83.9252174081
 20
80.8012465383
 30
0.0
 10
83.7352294931
 20
80.9611221946
 30
0.0
 10
83.634834942
 20
81.0190837045
 30
0.0
  0
SPLINE
  5
2FD
100
AcDbEntity
  8
0
100
AcDbSpline
 62
7
  6
CONTINUOUS
 70
0
 71
3
 72
13
 73
9
 74
0
 42
0.0000001
 43
0.0000001
 44
0.0000000001
 40
0.0
 40
0.0
 40
0.0
 40
0.0
 40
0.1142259181
 40
0.2375599982
 40
0.5000010158
 40
0.7624414734
 40
0.8857749255
 40
1.0
 40
1.0
 40
1.0
 40
1.0
 10
71.684680587
 20
99.5126867791
 30
0.0
 10
71.684680587
 20
99.6244477191
 30
0.0
 10
71.6641764823
 20
99.8571125974
 30
0.0
 10
71.5530330035
 20
100.3347345206
 30
0.0
 10
71.2947256974
 20
100.9205433955
 30
0.0
 10
70.9165520218
 20
101.4371464305
 30
0.0
 10
70.5584903509
 20
101.7722068515
 30
0.0
 10
70.3672487825
 20
101.9062940132
 30
0.0
 10
70.2704611367
 20
101.9621731224
 30
0.0
  0
SPLINE
  5
2FE
100
AcDbEntity
  8
0
100
AcDbSpline
 62
7
  6
CONTINUOUS
 70
0
 71
3
 72
18
 73
14
 74
0
 42
0.0000001
 43
0.0000001
 44
0.0000000001
 40
0.0
 40
0.0
 40
0.0
 40
0.0
 40
0.1508796926
 40
0.301375005
 40
0.4466597065
 40
0.5824145659
 40
0.7054545756
 40
0.7617797413
 40
0.8146244854
 40
0.86425907
 40
0.9111797343
 40
0.9561109916
 40
1.0
 40
1.0
 40
1.0
 40
1.0
 10
54.0822827264
 20
111.3082108497
 30
0.0
 10
53.871032313
 20
111.8025690803
 30
0.0
 10
53.3833014751
 20
112.7631939801
 30
0.0
 10
52.4871737288
 20
114.0833570059
 30
0.0
 10
51.46130223
 20
115.2354107369
 30
0.0
 10
50.3542954423
 20
116.1644101182
 30
0.0
 10
49.3770569188
 20
116.7332980101
 30
0.0
 10
48.6014439267
 20
117.026320732
 30
0.0
 10
48.049934386
 20
117.1600382712
 30
0.0
 10
47.5181967561
 20
117.2121692657
 30
0.0
 10
47.0126034971
 20
117.1813597424
 30
0.0
 10
46.5399520373
 20
117.0672085155
 30
0.0
 10
46.2497173581
 20
116.9353464115
 30
0.0
 10
46.1142947836
 20
116.8571413675
 30
0.0
  0
SPLINE
  5
2FF
100
AcDbEntity
  8
0
100
AcDbSpline
 62
7
  6
CONTINUOUS
 70
0
 71
3
 72
17
 73
13
 74
0
 42
0.0000001
 43
0.0000001
 44
0.0000000001
 40
0.0
 40
0.0
 40
0.0
 40
0.0
 40
0.0429012378
 40
0.0872410953
 40
0.1342332195
 40
0.1847375434
 40
0.2975891322
 40
0.4261561386
 40
0.5667983334
 40
0.7137681027
 40
0.8603855583
 40
1.0
 40
1.0
 40
1.0
 40
1.0
 10
21.9458440095
 20
107.3301702481
 30
0.0
 10
21.9458596532
 20
107.2383446386
 30
0.0
 10
21.9676440891
 20
107.0509547561
 30
0.0
 10
22.064192083
 20
106.7781394988
 30
0.0
 10
22.2217166579
 20
106.5164586509
 30
0.0
 10
22.5193896136
 20
106.1761232189
 30
0.0
 10
23.0343234702
 20
105.8081174166
 30
0.0
 10
23.7919626336
 20
105.4882215125
 30
0.0
 10
24.6648111247
 20
105.290640146
 30
0.0
 10
25.5957411292
 20
105.2283931867
 30
0.0
 10
26.5230647885
 20
105.3053092482
 30
0.0
 10
27.1216111142
 20
105.4517371308
 30
0.0
 10
27.4038390049
 20
105.5499555069
 30
0.0
  0
SPLINE
  5
300
100
AcDbEntity
  8
0
100
AcDbSpline
 62
7
  6
CONTINUOUS
 70
0
 71
3
 72
11
 73
7
 74
0
 42
0.0000001
 43
0.0000001
 44
0.0000000001
 40
0.0
 40
0.0
 40
0.0
 40
0.0
 40
0.2895391946
 40
0.5491157945
 40
0.7822541179
 40
1.0
 40
1.0
 40
1.0
 40
1.0
 10
27.9145886004
 20
113.1884551607
 30
0.0
 10
27.8707353426
 20
113.2137732781
 30
0.0
 10
27.7834242844
 20
113.255253337
 30
0.0
 10
27.6492800989
 20
113.2877224043
 30
0.0
 10
27.5233486877
 20
113.2845589495
 30
0.0
 10
27.4475982006
 20
113.256971542
 30
0.0
 10
27.4146188156
 20
113.2379309831
 30
0.0
  0
SPLINE
  5
301
100
AcDbEntity
  8
0
100
AcDbSpline
 62
7
  6
CONTINUOUS
 70
0
 71
3
 72
18
 73
14
 74
0
 42
0.0000001
 43
0.0000001
 44
0.0000000001
 40
0.0
 40
0.0
 40
0.0
 40
0.0
 40
0.0428462914
 40
0.087462922
 40
0.1352816559
 40
0.1872331101
 40
0.2437231175
 40
0.3047270773
 40
0.438359669
 40
0.5826660937
 40
0.7297883324
 40
0.8713403307
 40
1.0
 40
1.0
 40
1.0
 40
1.0
 10
69.8878833745
 20
79.6514470916
 30
0.0
 10
69.8879008329
 20
79.5489692336
 30
0.0
 10
69.9152519948
 20
79.3388818038
 30
0.0
 10
70.0358050182
 20
79.0355719372
 30
0.0
 10
70.2312454747
 20
78.7479676683
 30
0.0
 10
70.4962614969
 20
78.4819042906
 30
0.0
 10
70.8246029291
 20
78.2419416301
 30
0.0
 10
71.3535349255
 20
77.9543649387
 30
0.0
 10
72.128595988
 20
77.6954990571
 30
0.0
 10
73.1399527082
 20
77.553490365
 30
0.0
 10
74.1802190123
 20
77.5822438111
 30
0.0
 10
75.1635760058
 20
77.778962755
 30
0.0
 10
75.7669616129
 20
78.0279198197
 30
0.0
 10
76.0334575049
 20
78.1817803763
 30
0.0
  0
SPLINE
  5
302
100
AcDbEntity
  8
0
100
AcDbSpline
 62
7
  6
CONTINUOUS
 70
0
 71
3
 72
11
 73
7
 74
0
 42
0.0000001
 43
0.0000001
 44
0.0000000001
 40
0.0
 40
0.0
 40
0.0
 40
0.0
 40
0.2897468179
 40
0.5490793544
 40
0.7822221277
 40
1.0
 40
1.0
 40
1.0
 40
1.0
 10
75.5385018938
 20
53.0743867632
 30
0.0
 10
75.5385018938
 20
52.8919530924
 30
0.0
 10
75.5661155106
 20
52.5450558563
 30
0.0
 10
75.7066543884
 20
52.0684429152
 30
0.0
 10
75.9431818343
 20
51.6817294296
 30
0.0
 10
76.16535514
 20
51.4949132093
 30
0.0
 10
76.2841166921
 20
51.4263747186
 30
0.0
  0
SPLINE
  5
303
100
AcDbEntity
  8
0
100
AcDbSpline
 62
7
  6
CONTINUOUS
 70
0
 71
3
 72
9
 73
5
 74
0
 42
0.0000001
 43
0.0000001
 44
0.0000000001
 40
0.0
 40
0.0
 40
0.0
 40
0.0
 40
0.5115924809
 40
1.0
 40
1.0
 40
1.0
 40
1.0
 10
35.5347148764
 20
110.7669327394
 30
0.0
 10
35.2871201711
 20
110.765359264
 30
0.0
 10
34.8009716618
 20
110.7081522193
 30
0.0
 10
34.3457179624
 20
110.5244913574
 30
0.0
 10
34.1410113143
 20
110.4062963036
 30
0.0
  0
SPLINE
  5
304
100
AcDbEntity
  8
0
100
AcDbSpline
 62
7
  6
CONTINUOUS
 70
0
 71
3
 72
11
 73
7
 74
0
 42
0.0000001
 43
0.0000001
 44
0.0000000001
 40
0.0
 40
0.0
 40
0.0
 40
0.0
 40
0.2897473347
 40
0.5490799298
 40
0.7822224743
 40
1.0
 40
1.0
 40
1.0
 40
1.0
 10
76.0334575049
 20
78.1817803763
 30
0.0
 10
76.1914443493
 20
78.272993579
 30
0.0
 10
76.4780497058
 20
78.4703480726
 30
0.0
 10
76.8205286464
 20
78.8303495437
 30
0.0
 10
77.037163382
 20
79.2285282953
 30
0.0
 10
77.0878649734
 20
79.5143326365
 30
0.0
 10
77.0878416142
 20
79.6514470935
 30
0.0
  0
SPLINE
  5
305
100
AcDbEntity
  8
0
100
AcDbSpline
 62
7
  6
CONTINUOUS
 70
0
 71
3
 72
11
 73
7
 74
0
 42
0.0000001
 43
0.0000001
 44
0.0000000001
 40
0.0
 40
0.0
 40
0.0
 40
0.0
 40
0.2895401978
 40
0.5491171512
 40
0.782255066
 40
1.0
 40
1.0
 40
1.0
 40
1.0
 10
14.6917409566
 20
105.5542719745
 30
0.0
 10
14.6917409566
 20
105.6049105977
 30
0.0
 10
14.6994730064
 20
105.7012671162
 30
0.0
 10
14.7384260756
 20
105.8336779583
 30
0.0
 10
14.804132541
 20
105.9411591455
 30
0.0
 10
14.865900763
 20
105.9929684918
 30
0.0
 10
14.8988808962
 20
106.0120094592
 30
0.0
  0
SPLINE
  5
306
100
AcDbEntity
  8
0
100
AcDbSpline
 62
7
  6
CONTINUOUS
 70
0
 71
3
 72
11
 73
7
 74
0
 42
0.0000001
 43
0.0000001
 44
0.0000000001
 40
0.0
 40
0.0
 40
0.0
 40
0.0
 40
0.2897033281
 40
0.5490895198
 40
0.7822165953
 40
1.0
 40
1.0
 40
1.0
 40
1.0
 10
27.3490050367
 20
110.657599209
 30
0.0
 10
27.3490050367
 20
110.7589354978
 30
0.0
 10
27.364369109
 20
110.9516556418
 30
0.0
 10
27.4424184552
 20
111.2164430204
 30
0.0
 10
27.5738276329
 20
111.4313030041
 30
0.0
 10
27.6972607375
 20
111.5350730519
 30
0.0
 10
27.7632339537
 20
111.5731624495
 30
0.0
  0
SPLINE
  5
307
100
AcDbEntity
  8
0
100
AcDbSpline
 62
7
  6
CONTINUOUS
 70
0
 71
3
 72
18
 73
14
 74
0
 42
0.0000001
 43
0.0000001
 44
0.0000000001
 40
0.0
 40
0.0
 40
0.0
 40
0.0
 40
0.0428468435
 40
0.0874639365
 40
0.1352829812
 40
0.1872345715
 40
0.2437245479
 40
0.3047283323
 40
0.4383602832
 40
0.5826659571
 40
0.7297876663
 40
0.8713396455
 40
1.0
 40
1.0
 40
1.0
 40
1.0
 10
76.2841166921
 20
51.4263747186
 30
0.0
 10
76.3728752148
 20
51.3751512791
 30
0.0
 10
76.568493901
 20
51.2937949788
 30
0.0
 10
76.8914465479
 20
51.2465420225
 30
0.0
 10
77.2382404783
 20
51.271995558
 30
0.0
 10
77.6011662901
 20
51.3684731431
 30
0.0
 10
77.9731499923
 20
51.5328420243
 30
0.0
 10
78.4866621786
 20
51.8471188763
 30
0.0
 10
79.0983729131
 20
52.3889039207
 30
0.0
 10
79.7270282721
 20
53.1937552045
 30
0.0
 10
80.2222537839
 20
54.1090252687
 30
0.0
 10
80.5435630577
 20
55.0589958622
 30
0.0
 10
80.6296495218
 20
55.7060215116
 30
0.0
 10
80.6296495218
 20
56.0137446711
 30
0.0
  0
SPLINE
  5
308
100
AcDbEntity
  8
0
100
AcDbSpline
 62
7
  6
CONTINUOUS
 70
0
 71
3
 72
18
 73
14
 74
0
 42
0.0000001
 43
0.0000001
 44
0.0000000001
 40
0.0
 40
0.0
 40
0.0
 40
0.0
 40
0.0428462914
 40
0.087462922
 40
0.1352816559
 40
0.1872331101
 40
0.2437231175
 40
0.3047270773
 40
0.438359669
 40
0.5826660937
 40
0.7297883324
 40
0.8713403307
 40
1.0
 40
1.0
 40
1.0
 40
1.0
 10
77.0878416142
 20
79.6514470935
 30
0.0
 10
77.0878241558
 20
79.7539249516
 30
0.0
 10
77.0604729939
 20
79.9640123814
 30
0.0
 10
76.9399199705
 20
80.2673222479
 30
0.0
 10
76.744479514
 20
80.5549265168
 30
0.0
 10
76.4794634918
 20
80.8209898945
 30
0.0
 10
76.1511220596
 20
81.060952555
 30
0.0
 10
75.6221900632
 20
81.3485292464
 30
0.0
 10
74.8471290007
 20
81.6073951281
 30
0.0
 10
73.8357722805
 20
81.7494038201
 30
0.0
 10
72.7955059764
 20
81.720650374
 30
0.0
 10
71.8121489829
 20
81.5239314301
 30
0.0
 10
71.2087633758
 20
81.2749743654
 30
0.0
 10
70.9422674838
 20
81.1211138088
 30
0.0
  0
SPLINE
  5
309
100
AcDbEntity
  8
0
100
AcDbSpline
 62
7
  6
CONTINUOUS
 70
0
 71
3
 72
9
 73
5
 74
0
 42
0.0000001
 43
0.0000001
 44
0.0000000001
 40
0.0
 40
0.0
 40
0.0
 40
0.0
 40
0.5128471428
 40
1.0
 40
1.0
 40
1.0
 40
1.0
 10
38.0084147332
 20
111.7076144305
 30
0.0
 10
37.7590081382
 20
111.7124854752
 30
0.0
 10
37.2687478994
 20
111.6658560292
 30
0.0
 10
36.8089474099
 20
111.4847543509
 30
0.0
 10
36.6037453448
 20
111.3662623723
 30
0.0
  0
SPLINE
  5
30A
100
AcDbEntity
  8
0
100
AcDbSpline
 62
7
  6
CONTINUOUS
 70
0
 71
3
 72
18
 73
14
 74
0
 42
0.0000001
 43
0.0000001
 44
0.0000000001
 40
0.0
 40
0.0
 40
0.0
 40
0.0
 40
0.0438890084
 40
0.0888202657
 40
0.13574093
 40
0.1853755146
 40
0.2382202587
 40
0.2945454244
 40
0.4175854341
 40
0.5533402935
 40
0.698624995
 40
0.8491203074
 40
1.0
 40
1.0
 40
1.0
 40
1.0
 10
33.5985568649
 20
109.631219844
 30
0.0
 10
33.7339794394
 20
109.7094248879
 30
0.0
 10
34.0242141186
 20
109.841286992
 30
0.0
 10
34.4968655784
 20
109.9554382189
 30
0.0
 10
35.0024588374
 20
109.9862477422
 30
0.0
 10
35.5341964673
 20
109.9341167476
 30
0.0
 10
36.085706008
 20
109.8003992085
 30
0.0
 10
36.8613190001
 20
109.5073764866
 30
0.0
 10
37.8385575237
 20
108.9384885947
 30
0.0
 10
38.9455643113
 20
108.0094892134
 30
0.0
 10
39.9714358101
 20
106.8574354824
 30
0.0
 10
40.8675635564
 20
105.5372724566
 30
0.0
 10
41.3552943943
 20
104.5766475567
 30
0.0
 10
41.5665448077
 20
104.0822893261
 30
0.0
  0
SPLINE
  5
30B
100
AcDbEntity
  8
0
100
AcDbSpline
 62
7
  6
CONTINUOUS
 70
0
 71
3
 72
12
 73
8
 74
0
 42
0.0000001
 43
0.0000001
 44
0.0000000001
 40
0.0
 40
0.0
 40
0.0
 40
0.0
 40
0.2506689704
 40
0.5130677625
 40
0.7684037894
 40
0.8881418989
 40
1.0
 40
1.0
 40
1.0
 40
1.0
 10
27.3912529976
 20
109.1147135065
 30
0.0
 10
27.0344707693
 20
109.2377021946
 30
0.0
 10
26.2729555182
 20
109.4030222831
 30
0.0
 10
25.1107166284
 20
109.4299756181
 30
0.0
 10
24.1564750274
 20
109.2726155673
 30
0.0
 10
23.4612004839
 20
109.0361391859
 30
0.0
 10
23.146070348
 20
108.884038513
 30
0.0
 10
23.0002281189
 20
108.7998369653
 30
0.0
  0
SPLINE
  5
30C
100
AcDbEntity
  8
0
100
AcDbSpline
 62
7
  6
CONTINUOUS
 70
0
 71
3
 72
11
 73
7
 74
0
 42
0.0000001
 43
0.0000001
 44
0.0000000001
 40
0.0
 40
0.0
 40
0.0
 40
0.0
 40
0.2897473347
 40
0.5490799298
 40
0.7822224743
 40
1.0
 40
1.0
 40
1.0
 40
1.0
 10
70.9422674838
 20
81.1211138088
 30
0.0
 10
70.7842806394
 20
81.0299006062
 30
0.0
 10
70.4976752828
 20
80.8325461126
 30
0.0
 10
70.1551963423
 20
80.4725446414
 30
0.0
 10
69.9385616067
 20
80.0743658898
 30
0.0
 10
69.8878600153
 20
79.7885615486
 30
0.0
 10
69.8878833745
 20
79.6514470916
 30
0.0
  0
SPLINE
  5
30D
100
AcDbEntity
  8
0
100
AcDbSpline
 62
7
  6
CONTINUOUS
 70
0
 71
3
 72
11
 73
7
 74
0
 42
0.0000001
 43
0.0000001
 44
0.0000000001
 40
0.0
 40
0.0
 40
0.0
 40
0.0
 40
0.2177843137
 40
0.4509117637
 40
0.7102976701
 40
1.0
 40
1.0
 40
1.0
 40
1.0
 10
27.7632339537
 20
111.5731624495
 30
0.0
 10
27.8292056815
 20
111.6112509878
 30
0.0
 10
27.9807859826
 20
111.6662607205
 30
0.0
 10
28.2325582797
 20
111.6726355465
 30
0.0
 10
28.5008885428
 20
111.6078385716
 30
0.0
 10
28.6754668389
 20
111.5247882898
 30
0.0
 10
28.763224487
 20
111.4741225342
 30
0.0
  0
SPLINE
  5
30E
100
AcDbEntity
  8
0
100
AcDbSpline
 62
7
  6
CONTINUOUS
 70
0
 71
3
 72
11
 73
7
 74
0
 42
0.0000001
 43
0.0000001
 44
0.0000000001
 40
0.0
 40
0.0
 40
0.0
 40
0.0
 40
0.2372523758
 40
0.4999990758
 40
0.7627462798
 40
1.0
 40
1.0
 40
1.0
 40
1.0
 10
71.1190970233
 20
73.7931621809
 30
0.0
 10
71.2194916782
 20
73.7352006112
 30
0.0
 10
71.4094796993
 20
73.5753248116
 30
0.0
 10
71.6311369326
 20
73.2722938603
 30
0.0
 10
71.7827425539
 20
72.9288176336
 30
0.0
 10
71.8262067485
 20
72.6843447726
 30
0.0
 10
71.8262067485
 20
72.5684190093
 30
0.0
  0
SPLINE
  5
30F
100
AcDbEntity
  8
0
100
AcDbSpline
 62
7
  6
CONTINUOUS
 70
0
 71
3
 72
11
 73
7
 74
0
 42
0.0000001
 43
0.0000001
 44
0.0000000001
 40
0.0
 40
0.0
 40
0.0
 40
0.0
 40
0.2897473347
 40
0.5490799298
 40
0.7822224743
 40
1.0
 40
1.0
 40
1.0
 40
1.0
 10
23.0002281189
 20
108.7998369653
 30
0.0
 10
22.8422412744
 20
108.7086237626
 30
0.0
 10
22.5556359179
 20
108.511269269
 30
0.0
 10
22.2131569773
 20
108.1512677979
 30
0.0
 10
21.9965222417
 20
107.7530890463
 30
0.0
 10
21.9458206503
 20
107.4672847051
 30
0.0
 10
21.9458440095
 20
107.3301702481
 30
0.0
  0
SPLINE
  5
310
100
AcDbEntity
  8
0
100
AcDbSpline
 62
7
  6
CONTINUOUS
 70
0
 71
3
 72
9
 73
5
 74
0
 42
0.0000001
 43
0.0000001
 44
0.0000000001
 40
0.0
 40
0.0
 40
0.0
 40
0.0
 40
0.4949185281
 40
1.0
 40
1.0
 40
1.0
 40
1.0
 10
34.1410113143
 20
110.4062963036
 30
0.0
 10
34.0080714055
 20
110.3295384659
 30
0.0
 10
33.7530357374
 20
110.1497295468
 30
0.0
 10
33.5336505125
 20
109.928093601
 30
0.0
 10
33.432849456
 20
109.8081700652
 30
0.0
  0
SPLINE
  5
311
100
AcDbEntity
  8
0
100
AcDbSpline
 62
7
  6
CONTINUOUS
 70
0
 71
3
 72
11
 73
7
 74
0
 42
0.0000001
 43
0.0000001
 44
0.0000000001
 40
0.0
 40
0.0
 40
0.0
 40
0.0
 40
0.2177460211
 40
0.4508843679
 40
0.7104607696
 40
1.0
 40
1.0
 40
1.0
 40
1.0
 10
14.8988808962
 20
106.0120094592
 30
0.0
 10
14.931860313
 20
106.031050013
 30
0.0
 10
15.0076108174
 20
106.0586374596
 30
0.0
 10
15.1335422277
 20
106.0618008518
 30
0.0
 10
15.2676864044
 20
106.0293318609
 30
0.0
 10
15.3549974178
 20
105.9878517581
 30
0.0
 10
15.3988506817
 20
105.9625336371
 30
0.0
  0
SPLINE
  5
312
100
AcDbEntity
  8
0
100
AcDbSpline
 62
7
  6
CONTINUOUS
 70
0
 71
3
 72
13
 73
9
 74
0
 42
0.0000001
 43
0.0000001
 44
0.0000000001
 40
0.0
 40
0.0
 40
0.0
 40
0.0
 40
0.1142250362
 40
0.2375584228
 40
0.4999988469
 40
0.762439898
 40
0.8857740437
 40
1.0
 40
1.0
 40
1.0
 40
1.0
 10
57.754723218
 20
94.7362515989
 30
0.0
 10
57.8515108314
 20
94.6803725084
 30
0.0
 10
58.042752336
 20
94.546285434
 30
0.0
 10
58.4008139069
 20
94.2112251013
 30
0.0
 10
58.7789876047
 20
93.6946221733
 30
0.0
 10
59.0372950146
 20
93.1088132641
 30
0.0
 10
59.14843852
 20
92.6311912102
 30
0.0
 10
59.1689426683
 20
92.398526233
 30
0.0
 10
59.1689426683
 20
92.2867652556
 30
0.0
  0
ELLIPSE
  5
313
100
AcDbEntity
  8
0
100
AcDbEllipse
 62
7
  6
CONTINUOUS
 10
33.2325878605
 20
113.9219368548
 30
0.0
 11
-0.2033160067
 21
0.4588811713
 31
0.0
 40
0.5740075796
 41
-1.5100936384
 42
0.0468146925
  0
ENDSEC
  0
SECTION
  2
OBJECTS
  0
DICTIONARY
  5
C
100
AcDbDictionary
280
0
281
1
  3
ACAD_GROUP
350
D
  3
ACAD_MLINESTYLE
350
17
  3
ACAD_LAYOUT
350
1A
  3
ACAD_PLOTSETTINGS
350
19
  3
ACAD_PLOTSTYLENAME
350
E
  0
DICTIONARY
  5
D
102
{ACAD_REACTORS
330
C
102
}
100
AcDbDictionary
280
0
281
1
  0
ACDBDICTIONARYWDFLT
  5
E
102
{ACAD_REACTORS
330
C
102
}
100
AcDbDictionary
281
1
  3
Normal
350
F
100
AcDbDictionaryWithDefault
340
F
  0
DICTIONARY
  5
17
102
{ACAD_REACTORS
330
C
102
}
100
AcDbDictionary
280
0
281
1
  3
Standard
350
18
  0
DICTIONARY
  5
19
102
{ACAD_REACTORS
330
C
102
}
100
AcDbDictionary
281
1
  0
DICTIONARY
  5
1A
102
{ACAD_REACTORS
330
C
102
}
100
AcDbDictionary
281
1
  3
Model
350
314
  3
Layout1
350
315
  0
ACDBPLACEHOLDER
  5
F
102
{ACAD_REACTORS
330
E
102
}
  0
MLINESTYLE
  5
18
102
{ACAD_REACTORS
330
17
102
}
100
AcDbMlineStyle
  2
STANDARD
 70
0
  3

 62
256
 51
90.0
 52
90.0
 71
2
 49
0.5
 62
256
  6
BYLAYER
 49
-0.5
 62
256
  6
BYLAYER
  0
LAYOUT
  5
314
102
{ACAD_REACTORS
330
1A
102
}
100
AcDbPlotSettings
  1

  2
none_device
  4

  6

 40
0.0
 41
0.0
 42
0.0
 43
0.0
 44
210.0
 45
297.0
 46
0.0
 47
0.0
 48
0.0
 49
0.0
140
0.0
141
0.0
142
1.0
143
1.0
 70
1024
 72
1
 73
0
 74
0
  7

 75
0
147
1.0
148
0.0
149
0.0
100
AcDbLayout
  1
Model
 70
0
 71
0
 10
0.0
 20
0.0
 11
210.0
 21
297.0
 12
0.0
 22
0.0
 32
0.0
 14
0.0
 24
0.0
 34
0.0
 15
0.0
 25
0.0
 35
0.0
146
0.0
 13
0.0
 23
0.0
 33
0.0
 16
1.0
 26
0.0
 36
0.0
 17
0.0
 27
1.0
 37
0.0
 76
0
330
210
345
0
346
0
  0
LAYOUT
  5
315
102
{ACAD_REACTORS
330
1A
102
}
100
AcDbPlotSettings
  1

  2
none_device
  4

  6

 40
0.0
 41
0.0
 42
0.0
 43
0.0
 44
210.0
 45
297.0
 46
0.0
 47
0.0
 48
0.0
 49
0.0
140
0.0
141
0.0
142
1.0
143
1.0
 70
0
 72
1
 73
0
 74
0
  7

 75
0
147
1.0
148
0.0
149
0.0
100
AcDbLayout
  1
Layout1
 70
0
 71
1
 10
0.0
 20
0.0
 11
210.0
 21
297.0
 12
0.0
 22
0.0
 32
0.0
 14
0.0
 24
0.0
 34
0.0
 15
0.0
 25
0.0
 35
0.0
146
0.0
 13
0.0
 23
0.0
 33
0.0
 16
1.0
 26
0.0
 36
0.0
 17
0.0
 27
1.0
 37
0.0
 76
0
330
211
345
0
346
0
  0
ENDSEC
  0
EOF
